ISO-10303-21;
HEADER;
FILE_DESCRIPTION (( 'STEP AP203' ),
    '1' );
FILE_NAME ('11-0201-09_outokumpu.step',
    '2015-08-10T12:15:40',
    ( '' ),
    ( '' ),
    'SwSTEP 2.0',
    'SolidWorks 2008',
    '' );
FILE_SCHEMA (( 'CONFIG_CONTROL_DESIGN' ));
ENDSEC;

DATA;
#1 = EDGE_CURVE ( 'NONE', #109, #108, #134, .T. ) ;
#2 = EDGE_LOOP ( 'NONE', ( #3, #6 ) ) ;
#3 = ORIENTED_EDGE ( 'NONE', *, *, #79, .T. ) ;
#4 = ADVANCED_FACE ( 'NONE', ( #133, #120 ), #132, .F. ) ;
#5 = EDGE_LOOP ( 'NONE', ( #9, #8, #7, #15 ) ) ;
#6 = ORIENTED_EDGE ( 'NONE', *, *, #16, .T. ) ;
#7 = ORIENTED_EDGE ( 'NONE', *, *, #74, .T. ) ;
#8 = ORIENTED_EDGE ( 'NONE', *, *, #96, .T. ) ;
#9 = ORIENTED_EDGE ( 'NONE', *, *, #73, .F. ) ;
#10 = ORIENTED_EDGE ( 'NONE', *, *, #56, .F. ) ;
#11 = EDGE_CURVE ( 'NONE', #40, #41, #140, .T. ) ;
#12 = ADVANCED_FACE ( 'NONE', ( #144 ), #139, .T. ) ;
#13 = ORIENTED_EDGE ( 'NONE', *, *, #11, .F. ) ;
#14 = EDGE_LOOP ( 'NONE', ( #13, #10 ) ) ;
#15 = ORIENTED_EDGE ( 'NONE', *, *, #16, .F. ) ;
#16 = EDGE_CURVE ( 'NONE', #43, #51, #129, .T. ) ;
#17 = ADVANCED_FACE ( 'NONE', ( #192 ), #282, .F. ) ;
#18 = ORIENTED_EDGE ( 'NONE', *, *, #58, .T. ) ;
#19 = EDGE_LOOP ( 'NONE', ( #23, #24, #20, #18, #30 ) ) ;
#20 = ORIENTED_EDGE ( 'NONE', *, *, #105, .F. ) ;
#21 = EDGE_LOOP ( 'NONE', ( #25, #29, #26, #28, #31 ) ) ;
#22 = ADVANCED_FACE ( 'NONE', ( #207 ), #208, .F. ) ;
#23 = ORIENTED_EDGE ( 'NONE', *, *, #38, .F. ) ;
#24 = ORIENTED_EDGE ( 'NONE', *, *, #78, .F. ) ;
#25 = ORIENTED_EDGE ( 'NONE', *, *, #111, .F. ) ;
#26 = ORIENTED_EDGE ( 'NONE', *, *, #68, .T. ) ;
#27 = CLOSED_SHELL ( 'NONE', ( #106, #35, #53, #46, #62, #94, #4, #12, #17, #22 ) ) ;
#28 = ORIENTED_EDGE ( 'NONE', *, *, #33, .T. ) ;
#29 = ORIENTED_EDGE ( 'NONE', *, *, #102, .T. ) ;
#30 = ORIENTED_EDGE ( 'NONE', *, *, #11, .T. ) ;
#31 = ORIENTED_EDGE ( 'NONE', *, *, #1, .F. ) ;
#32 = ORIENTED_EDGE ( 'NONE', *, *, #87, .T. ) ;
#33 = EDGE_CURVE ( 'NONE', #89, #108, #205, .T. ) ;
#34 = ORIENTED_EDGE ( 'NONE', *, *, #33, .F. ) ;
#35 = ADVANCED_FACE ( 'NONE', ( #152 ), #151, .F. ) ;
#36 = ORIENTED_EDGE ( 'NONE', *, *, #81, .F. ) ;
#37 = ORIENTED_EDGE ( 'NONE', *, *, #38, .T. ) ;
#38 = EDGE_CURVE ( 'NONE', #80, #41, #203, .T. ) ;
#39 = ORIENTED_EDGE ( 'NONE', *, *, #56, .T. ) ;
#40 = VERTEX_POINT ( 'NONE', #184 ) ;
#41 = VERTEX_POINT ( 'NONE', #183 ) ;
#42 = EDGE_LOOP ( 'NONE', ( #32, #110, #90, #34, #83 ) ) ;
#43 = VERTEX_POINT ( 'NONE', #182 ) ;
#44 = ORIENTED_EDGE ( 'NONE', *, *, #78, .T. ) ;
#45 = EDGE_CURVE ( 'NONE', #49, #50, #148, .T. ) ;
#46 = ADVANCED_FACE ( 'NONE', ( #149 ), #266, .F. ) ;
#47 = VERTEX_POINT ( 'NONE', #267 ) ;
#48 = ORIENTED_EDGE ( 'NONE', *, *, #81, .T. ) ;
#49 = VERTEX_POINT ( 'NONE', #228 ) ;
#50 = VERTEX_POINT ( 'NONE', #227 ) ;
#51 = VERTEX_POINT ( 'NONE', #226 ) ;
#52 = EDGE_LOOP ( 'NONE', ( #75, #71, #77, #72 ) ) ;
#53 = ADVANCED_FACE ( 'NONE', ( #225 ), #223, .T. ) ;
#54 = EDGE_CURVE ( 'NONE', #82, #59, #219, .T. ) ;
#55 = ORIENTED_EDGE ( 'NONE', *, *, #54, .F. ) ;
#56 = EDGE_CURVE ( 'NONE', #41, #40, #214, .T. ) ;
#57 = ORIENTED_EDGE ( 'NONE', *, *, #58, .F. ) ;
#58 = EDGE_CURVE ( 'NONE', #59, #40, #209, .T. ) ;
#59 = VERTEX_POINT ( 'NONE', #239 ) ;
#60 = ORIENTED_EDGE ( 'NONE', *, *, #54, .T. ) ;
#61 = VERTEX_POINT ( 'NONE', #238 ) ;
#62 = ADVANCED_FACE ( 'NONE', ( #237 ), #235, .F. ) ;
#63 = ORIENTED_EDGE ( 'NONE', *, *, #68, .F. ) ;
#64 = EDGE_CURVE ( 'NONE', #47, #61, #256, .T. ) ;
#65 = ORIENTED_EDGE ( 'NONE', *, *, #84, .F. ) ;
#66 = ORIENTED_EDGE ( 'NONE', *, *, #64, .F. ) ;
#67 = EDGE_LOOP ( 'NONE', ( #112, #60, #104, #103, #101, #100 ) ) ;
#68 = EDGE_CURVE ( 'NONE', #61, #89, #252, .T. ) ;
#69 = EDGE_CURVE ( 'NONE', #82, #86, #247, .T. ) ;
#70 = ORIENTED_EDGE ( 'NONE', *, *, #69, .T. ) ;
#71 = ORIENTED_EDGE ( 'NONE', *, *, #73, .T. ) ;
#72 = ORIENTED_EDGE ( 'NONE', *, *, #74, .F. ) ;
#73 = EDGE_CURVE ( 'NONE', #50, #43, #243, .T. ) ;
#74 = EDGE_CURVE ( 'NONE', #49, #51, #291, .T. ) ;
#75 = ORIENTED_EDGE ( 'NONE', *, *, #45, .T. ) ;
#76 = EDGE_LOOP ( 'NONE', ( #44, #48, #70, #65, #63, #66 ) ) ;
#77 = ORIENTED_EDGE ( 'NONE', *, *, #79, .F. ) ;
#78 = EDGE_CURVE ( 'NONE', #47, #80, #287, .T. ) ;
#79 = EDGE_CURVE ( 'NONE', #51, #43, #307, .T. ) ;
#80 = VERTEX_POINT ( 'NONE', #302 ) ;
#81 = EDGE_CURVE ( 'NONE', #80, #82, #301, .T. ) ;
#82 = VERTEX_POINT ( 'NONE', #296 ) ;
#83 = ORIENTED_EDGE ( 'NONE', *, *, #84, .T. ) ;
#84 = EDGE_CURVE ( 'NONE', #89, #86, #295, .T. ) ;
#85 = VERTEX_POINT ( 'NONE', #196 ) ;
#86 = VERTEX_POINT ( 'NONE', #195 ) ;
#87 = EDGE_CURVE ( 'NONE', #86, #85, #194, .T. ) ;
#88 = EDGE_LOOP ( 'NONE', ( #36, #37, #39, #57, #55 ) ) ;
#89 = VERTEX_POINT ( 'NONE', #278 ) ;
#90 = ORIENTED_EDGE ( 'NONE', *, *, #107, .F. ) ;
#91 = MANIFOLD_SOLID_BREP ( 'NONE', #27 ) ;
#92 = ORIENTED_EDGE ( 'NONE', *, *, #107, .T. ) ;
#93 = ORIENTED_EDGE ( 'NONE', *, *, #1, .T. ) ;
#94 = ADVANCED_FACE ( 'NONE', ( #277, #276 ), #275, .F. ) ;
#95 = EDGE_LOOP ( 'NONE', ( #92, #93 ) ) ;
#96 = EDGE_CURVE ( 'NONE', #50, #49, #270, .T. ) ;
#97 = EDGE_LOOP ( 'NONE', ( #98, #99 ) ) ;
#98 = ORIENTED_EDGE ( 'NONE', *, *, #45, .F. ) ;
#99 = ORIENTED_EDGE ( 'NONE', *, *, #96, .F. ) ;
#100 = ORIENTED_EDGE ( 'NONE', *, *, #87, .F. ) ;
#101 = ORIENTED_EDGE ( 'NONE', *, *, #102, .F. ) ;
#102 = EDGE_CURVE ( 'NONE', #85, #61, #176, .T. ) ;
#103 = ORIENTED_EDGE ( 'NONE', *, *, #64, .T. ) ;
#104 = ORIENTED_EDGE ( 'NONE', *, *, #105, .T. ) ;
#105 = EDGE_CURVE ( 'NONE', #59, #47, #172, .T. ) ;
#106 = ADVANCED_FACE ( 'NONE', ( #167 ), #166, .F. ) ;
#107 = EDGE_CURVE ( 'NONE', #108, #109, #165, .T. ) ;
#108 = VERTEX_POINT ( 'NONE', #160 ) ;
#109 = VERTEX_POINT ( 'NONE', #265 ) ;
#110 = ORIENTED_EDGE ( 'NONE', *, *, #111, .T. ) ;
#111 = EDGE_CURVE ( 'NONE', #85, #109, #264, .T. ) ;
#112 = ORIENTED_EDGE ( 'NONE', *, *, #69, .F. ) ;
#113 = DIRECTION ( 'NONE',  ( -0.0000000000000000000, -0.0000000000000000000, 1.000000000000000000 ) ) ;
#114 = DIRECTION ( 'NONE',  ( -1.000000000000000000, 0.0000000000000000000, -0.0000000000000000000 ) ) ;
#115 = DIRECTION ( 'NONE',  ( 0.0000000000000000000, 0.0000000000000000000, -1.000000000000000000 ) ) ;
#116 = CARTESIAN_POINT ( 'NONE',  ( 0.0000000000000000000, 33.14999999999999900, -2.168404344971008900E-016 ) ) ;
#117 = AXIS2_PLACEMENT_3D ( 'NONE', #131, #113, #121 ) ;
#118 = CARTESIAN_POINT ( 'NONE',  ( 0.0000000000000000000, 0.0000000000000000000, -4.336808689942017700E-016 ) ) ;
#119 = DIRECTION ( 'NONE',  ( 1.000000000000000000, 0.0000000000000000000, 0.0000000000000000000 ) ) ;
#120 = FACE_BOUND ( 'NONE', #14, .T. ) ;
#121 = DIRECTION ( 'NONE',  ( 1.000000000000000000, 0.0000000000000000000, 0.0000000000000000000 ) ) ;
#122 = AXIS2_PLACEMENT_3D ( 'NONE', #116, #115, #114 ) ;
#123 = DIRECTION ( 'NONE',  ( 0.0000000000000000000, 0.0000000000000000000, 1.000000000000000000 ) ) ;
#124 = CARTESIAN_POINT ( 'NONE',  ( 0.0000000000000000000, 0.0000000000000000000, 0.0000000000000000000 ) ) ;
#125 = DIRECTION ( 'NONE',  ( 1.000000000000000000, 0.0000000000000000000, 0.0000000000000000000 ) ) ;
#126 = DIRECTION ( 'NONE',  ( -0.0000000000000000000, -0.0000000000000000000, 1.000000000000000000 ) ) ;
#127 = CARTESIAN_POINT ( 'NONE',  ( 0.0000000000000000000, 0.0000000000000000000, 0.0000000000000000000 ) ) ;
#128 = AXIS2_PLACEMENT_3D ( 'NONE', #127, #126, #125 ) ;
#129 = CIRCLE ( 'NONE', #128, 33.14999999999999900 ) ;
#130 = AXIS2_PLACEMENT_3D ( 'NONE', #124, #123, #135 ) ;
#131 = CARTESIAN_POINT ( 'NONE',  ( 0.0000000000000000000, 0.0000000000000000000, -56.00000000000000700 ) ) ;
#132 = PLANE ( 'NONE',  #122 ) ;
#133 = FACE_OUTER_BOUND ( 'NONE', #2, .T. ) ;
#134 = CIRCLE ( 'NONE', #117, 30.84788337624033600 ) ;
#135 = DIRECTION ( 'NONE',  ( 1.000000000000000000, 0.0000000000000000000, 0.0000000000000000000 ) ) ;
#136 = DIRECTION ( 'NONE',  ( 1.000000000000000000, 0.0000000000000000000, 0.0000000000000000000 ) ) ;
#137 = DIRECTION ( 'NONE',  ( -0.0000000000000000000, -0.0000000000000000000, 1.000000000000000000 ) ) ;
#138 = AXIS2_PLACEMENT_3D ( 'NONE', #118, #137, #136 ) ;
#139 = CYLINDRICAL_SURFACE ( 'NONE', #138, 33.14999999999999900 ) ;
#140 = CIRCLE ( 'NONE', #143, 30.84788337624032200 ) ;
#141 = DIRECTION ( 'NONE',  ( -0.0000000000000000000, -0.0000000000000000000, 1.000000000000000000 ) ) ;
#142 = CARTESIAN_POINT ( 'NONE',  ( 0.0000000000000000000, 0.0000000000000000000, 1.142335481045549800E-016 ) ) ;
#143 = AXIS2_PLACEMENT_3D ( 'NONE', #142, #141, #119 ) ;
#144 = FACE_OUTER_BOUND ( 'NONE', #5, .T. ) ;
#145 = DIRECTION ( 'NONE',  ( -0.0000000000000000000, -0.0000000000000000000, 1.000000000000000000 ) ) ;
#146 = CARTESIAN_POINT ( 'NONE',  ( 0.0000000000000000000, 0.0000000000000000000, -56.00000000000000700 ) ) ;
#147 = AXIS2_PLACEMENT_3D ( 'NONE', #146, #145, #269 ) ;
#148 = CIRCLE ( 'NONE', #147, 33.14999999999999900 ) ;
#149 = FACE_OUTER_BOUND ( 'NONE', #76, .T. ) ;
#150 = CARTESIAN_POINT ( 'NONE',  ( 0.0000000000000000000, 0.0000000000000000000, -1.040883376240310500 ) ) ;
#151 = CONICAL_SURFACE ( 'NONE', #153, 29.80699999999999900, 0.7853981633974542700 ) ;
#152 = FACE_OUTER_BOUND ( 'NONE', #88, .T. ) ;
#153 = AXIS2_PLACEMENT_3D ( 'NONE', #150, #202, #201 ) ;
#154 = DIRECTION ( 'NONE',  ( -0.7071067811865522400, 0.0000000000000000000, -0.7071067811865428000 ) ) ;
#155 = VECTOR ( 'NONE', #154, 1000.000000000000000 ) ;
#156 = DIRECTION ( 'NONE',  ( 1.000000000000000000, 0.0000000000000000000, 0.0000000000000000000 ) ) ;
#157 = DIRECTION ( 'NONE',  ( -0.0000000000000000000, -0.0000000000000000000, 1.000000000000000000 ) ) ;
#158 = CARTESIAN_POINT ( 'NONE',  ( 0.0000000000000000000, 0.0000000000000000000, -56.00000000000000700 ) ) ;
#159 = AXIS2_PLACEMENT_3D ( 'NONE', #158, #157, #156 ) ;
#160 = CARTESIAN_POINT ( 'NONE',  ( -30.84788337624033600, 0.0000000000000000000, -56.00000000000000700 ) ) ;
#161 = DIRECTION ( 'NONE',  ( -1.000000000000000000, 0.0000000000000000000, 0.0000000000000000000 ) ) ;
#162 = DIRECTION ( 'NONE',  ( 0.0000000000000000000, 0.0000000000000000000, -1.000000000000000000 ) ) ;
#163 = CARTESIAN_POINT ( 'NONE',  ( 0.0000000000000000000, 0.0000000000000000000, -56.00000000000000700 ) ) ;
#164 = AXIS2_PLACEMENT_3D ( 'NONE', #163, #162, #161 ) ;
#165 = CIRCLE ( 'NONE', #159, 30.84788337624033600 ) ;
#166 = CONICAL_SURFACE ( 'NONE', #164, 30.84788337624033600, 0.7853981633974549400 ) ;
#167 = FACE_OUTER_BOUND ( 'NONE', #42, .T. ) ;
#168 = DIRECTION ( 'NONE',  ( 1.000000000000000000, 0.0000000000000000000, 0.0000000000000000000 ) ) ;
#169 = DIRECTION ( 'NONE',  ( -0.0000000000000000000, -0.0000000000000000000, 1.000000000000000000 ) ) ;
#170 = CARTESIAN_POINT ( 'NONE',  ( 0.0000000000000000000, 0.0000000000000000000, -1.040883376240310500 ) ) ;
#171 = AXIS2_PLACEMENT_3D ( 'NONE', #170, #169, #168 ) ;
#172 = CIRCLE ( 'NONE', #171, 29.80699999999999900 ) ;
#173 = DIRECTION ( 'NONE',  ( 1.000000000000000000, 0.0000000000000000000, 0.0000000000000000000 ) ) ;
#174 = DIRECTION ( 'NONE',  ( -0.0000000000000000000, -0.0000000000000000000, 1.000000000000000000 ) ) ;
#175 = AXIS2_PLACEMENT_3D ( 'NONE', #181, #174, #173 ) ;
#176 = CIRCLE ( 'NONE', #175, 29.80699999999999900 ) ;
#177 = DIRECTION ( 'NONE',  ( 1.000000000000000000, 0.0000000000000000000, 0.0000000000000000000 ) ) ;
#178 = DIRECTION ( 'NONE',  ( -0.0000000000000000000, -0.0000000000000000000, 1.000000000000000000 ) ) ;
#179 = CARTESIAN_POINT ( 'NONE',  ( 0.0000000000000000000, 0.0000000000000000000, -56.00000000000000700 ) ) ;
#180 = AXIS2_PLACEMENT_3D ( 'NONE', #179, #178, #177 ) ;
#181 = CARTESIAN_POINT ( 'NONE',  ( 0.0000000000000000000, 0.0000000000000000000, -54.95911662375968400 ) ) ;
#182 = CARTESIAN_POINT ( 'NONE',  ( -33.14999999999999900, 4.059570062921180100E-015, 0.0000000000000000000 ) ) ;
#183 = CARTESIAN_POINT ( 'NONE',  ( -30.84788337624032200, 3.777651398451559000E-015, 1.142335481045549800E-016 ) ) ;
#184 = CARTESIAN_POINT ( 'NONE',  ( 30.84788337624032200, 0.0000000000000000000, 1.142335481045549800E-016 ) ) ;
#185 = DIRECTION ( 'NONE',  ( -0.7071067811865517900, 8.659274570719408400E-017, 0.7071067811865433500 ) ) ;
#186 = VECTOR ( 'NONE', #185, 1000.000000000000000 ) ;
#187 = CARTESIAN_POINT ( 'NONE',  ( -29.80699999999999900, 3.650184158838359400E-015, -1.040883376240310500 ) ) ;
#188 = DIRECTION ( 'NONE',  ( 1.000000000000000000, 0.0000000000000000000, 0.0000000000000000000 ) ) ;
#189 = DIRECTION ( 'NONE',  ( -0.0000000000000000000, -0.0000000000000000000, 1.000000000000000000 ) ) ;
#190 = CARTESIAN_POINT ( 'NONE',  ( 0.0000000000000000000, 0.0000000000000000000, -1.040883376240310500 ) ) ;
#191 = AXIS2_PLACEMENT_3D ( 'NONE', #190, #189, #188 ) ;
#192 = FACE_OUTER_BOUND ( 'NONE', #19, .T. ) ;
#193 = CARTESIAN_POINT ( 'NONE',  ( 0.0000000000000000000, 0.0000000000000000000, -54.95911662375968400 ) ) ;
#194 = CIRCLE ( 'NONE', #281, 29.80699999999999900 ) ;
#195 = CARTESIAN_POINT ( 'NONE',  ( 3.650184158838360200E-015, -29.80699999999999900, -54.95911662375968400 ) ) ;
#196 = CARTESIAN_POINT ( 'NONE',  ( 29.80699999999999900, 3.713917778644960000E-015, -54.95911662375968400 ) ) ;
#197 = DIRECTION ( 'NONE',  ( 1.000000000000000000, 0.0000000000000000000, 0.0000000000000000000 ) ) ;
#198 = DIRECTION ( 'NONE',  ( -0.0000000000000000000, -0.0000000000000000000, 1.000000000000000000 ) ) ;
#199 = CARTESIAN_POINT ( 'NONE',  ( 0.0000000000000000000, 0.0000000000000000000, -54.95911662375968400 ) ) ;
#200 = AXIS2_PLACEMENT_3D ( 'NONE', #199, #198, #197 ) ;
#201 = DIRECTION ( 'NONE',  ( 1.000000000000000000, 0.0000000000000000000, 0.0000000000000000000 ) ) ;
#202 = DIRECTION ( 'NONE',  ( -0.0000000000000000000, -0.0000000000000000000, 1.000000000000000000 ) ) ;
#203 = LINE ( 'NONE', #187, #186 ) ;
#204 = CARTESIAN_POINT ( 'NONE',  ( -30.84788337624033600, 0.0000000000000000000, -56.00000000000000700 ) ) ;
#205 = LINE ( 'NONE', #204, #155 ) ;
#206 = DIRECTION ( 'NONE',  ( -1.000000000000000000, 0.0000000000000000000, 0.0000000000000000000 ) ) ;
#207 = FACE_OUTER_BOUND ( 'NONE', #21, .T. ) ;
#208 = CONICAL_SURFACE ( 'NONE', #312, 30.84788337624033600, 0.7853981633974549400 ) ;
#209 = LINE ( 'NONE', #242, #241 ) ;
#210 = DIRECTION ( 'NONE',  ( 1.000000000000000000, 0.0000000000000000000, 0.0000000000000000000 ) ) ;
#211 = DIRECTION ( 'NONE',  ( -0.0000000000000000000, -0.0000000000000000000, 1.000000000000000000 ) ) ;
#212 = CARTESIAN_POINT ( 'NONE',  ( 0.0000000000000000000, 0.0000000000000000000, 1.142335481045549800E-016 ) ) ;
#213 = AXIS2_PLACEMENT_3D ( 'NONE', #212, #211, #210 ) ;
#214 = CIRCLE ( 'NONE', #213, 30.84788337624032200 ) ;
#215 = DIRECTION ( 'NONE',  ( 1.000000000000000000, 0.0000000000000000000, 0.0000000000000000000 ) ) ;
#216 = DIRECTION ( 'NONE',  ( -0.0000000000000000000, -0.0000000000000000000, 1.000000000000000000 ) ) ;
#217 = CARTESIAN_POINT ( 'NONE',  ( 0.0000000000000000000, 0.0000000000000000000, -1.040883376240310500 ) ) ;
#218 = AXIS2_PLACEMENT_3D ( 'NONE', #217, #216, #215 ) ;
#219 = CIRCLE ( 'NONE', #218, 29.80699999999999900 ) ;
#220 = DIRECTION ( 'NONE',  ( 1.000000000000000000, 0.0000000000000000000, 0.0000000000000000000 ) ) ;
#221 = DIRECTION ( 'NONE',  ( -0.0000000000000000000, -0.0000000000000000000, 1.000000000000000000 ) ) ;
#222 = AXIS2_PLACEMENT_3D ( 'NONE', #224, #221, #220 ) ;
#223 = CYLINDRICAL_SURFACE ( 'NONE', #222, 33.14999999999999900 ) ;
#224 = CARTESIAN_POINT ( 'NONE',  ( 0.0000000000000000000, 0.0000000000000000000, -4.336808689942017700E-016 ) ) ;
#225 = FACE_OUTER_BOUND ( 'NONE', #52, .T. ) ;
#226 = CARTESIAN_POINT ( 'NONE',  ( 33.14999999999999900, 0.0000000000000000000, 0.0000000000000000000 ) ) ;
#227 = CARTESIAN_POINT ( 'NONE',  ( -33.14999999999999900, 4.059570062921180100E-015, -56.00000000000000700 ) ) ;
#228 = CARTESIAN_POINT ( 'NONE',  ( 33.14999999999999900, 0.0000000000000000000, -56.00000000000000700 ) ) ;
#229 = DIRECTION ( 'NONE',  ( 0.0000000000000000000, 1.000000000000000000, 2.327941055425647600E-016 ) ) ;
#230 = DIRECTION ( 'NONE',  ( -0.0000000000000000000, 1.472423119397912500E-016, -1.000000000000000000 ) ) ;
#231 = AXIS2_PLACEMENT_3D ( 'NONE', #268, #230, #229 ) ;
#232 = DIRECTION ( 'NONE',  ( 0.0000000000000000000, 1.000000000000000000, 2.327941055425647600E-016 ) ) ;
#233 = DIRECTION ( 'NONE',  ( -0.0000000000000000000, 1.472423119397912500E-016, -1.000000000000000000 ) ) ;
#234 = AXIS2_PLACEMENT_3D ( 'NONE', #236, #233, #232 ) ;
#235 = CYLINDRICAL_SURFACE ( 'NONE', #234, 29.80700000000000200 ) ;
#236 = CARTESIAN_POINT ( 'NONE',  ( 0.0000000000000000000, 4.776122516674716500E-015, -56.00000000000014900 ) ) ;
#237 = FACE_OUTER_BOUND ( 'NONE', #67, .T. ) ;
#238 = CARTESIAN_POINT ( 'NONE',  ( 0.0000000000000000000, 29.80699999999999900, -54.95911662375968400 ) ) ;
#239 = CARTESIAN_POINT ( 'NONE',  ( 29.80699999999999900, 0.0000000000000000000, -1.040883376240310500 ) ) ;
#240 = DIRECTION ( 'NONE',  ( 0.7071067811865517900, 0.0000000000000000000, 0.7071067811865433500 ) ) ;
#241 = VECTOR ( 'NONE', #240, 1000.000000000000000 ) ;
#242 = CARTESIAN_POINT ( 'NONE',  ( 29.80699999999999900, 0.0000000000000000000, -1.040883376240310500 ) ) ;
#243 = LINE ( 'NONE', #294, #293 ) ;
#244 = DIRECTION ( 'NONE',  ( -0.0000000000000000000, 1.472423119397912500E-016, -1.000000000000000000 ) ) ;
#245 = VECTOR ( 'NONE', #244, 1000.000000000000000 ) ;
#246 = CARTESIAN_POINT ( 'NONE',  ( 3.650184158838360200E-015, -29.80699999999999900, -56.00000000000015600 ) ) ;
#247 = LINE ( 'NONE', #246, #245 ) ;
#248 = DIRECTION ( 'NONE',  ( 1.000000000000000000, 0.0000000000000000000, 0.0000000000000000000 ) ) ;
#249 = DIRECTION ( 'NONE',  ( -0.0000000000000000000, -0.0000000000000000000, 1.000000000000000000 ) ) ;
#250 = CARTESIAN_POINT ( 'NONE',  ( 0.0000000000000000000, 0.0000000000000000000, -54.95911662375968400 ) ) ;
#251 = AXIS2_PLACEMENT_3D ( 'NONE', #250, #249, #248 ) ;
#252 = CIRCLE ( 'NONE', #251, 29.80699999999999900 ) ;
#253 = DIRECTION ( 'NONE',  ( -0.0000000000000000000, 1.472423119397912500E-016, -1.000000000000000000 ) ) ;
#254 = VECTOR ( 'NONE', #253, 1000.000000000000000 ) ;
#255 = CARTESIAN_POINT ( 'NONE',  ( 0.0000000000000000000, 29.80700000000000600, -56.00000000000014200 ) ) ;
#256 = LINE ( 'NONE', #255, #254 ) ;
#257 = UNCERTAINTY_MEASURE_WITH_UNIT (LENGTH_MEASURE( 1.000000000000000100E-005 ), #260, 'distance_accuracy_value', 'NONE');
#258 =( NAMED_UNIT ( * ) SI_UNIT ( $, .STERADIAN. ) SOLID_ANGLE_UNIT ( ) );
#259 =( NAMED_UNIT ( * ) PLANE_ANGLE_UNIT ( ) SI_UNIT ( $, .RADIAN. ) );
#260 =( LENGTH_UNIT ( ) NAMED_UNIT ( * ) SI_UNIT ( .MILLI., .METRE. ) );
#261 = DIRECTION ( 'NONE',  ( 0.7071067811865522400, 8.659274570719413300E-017, -0.7071067811865428000 ) ) ;
#262 = VECTOR ( 'NONE', #261, 1000.000000000000000 ) ;
#263 = CARTESIAN_POINT ( 'NONE',  ( 30.84788337624033600, 3.777651398451560600E-015, -56.00000000000000700 ) ) ;
#264 = LINE ( 'NONE', #263, #262 ) ;
#265 = CARTESIAN_POINT ( 'NONE',  ( 30.84788337624033600, 3.777651398451560600E-015, -56.00000000000000700 ) ) ;
#266 = CYLINDRICAL_SURFACE ( 'NONE', #231, 29.80700000000000200 ) ;
#267 = CARTESIAN_POINT ( 'NONE',  ( 0.0000000000000000000, 29.80699999999999900, -1.040883376240310500 ) ) ;
#268 = CARTESIAN_POINT ( 'NONE',  ( 0.0000000000000000000, 4.776122516674716500E-015, -56.00000000000014900 ) ) ;
#269 = DIRECTION ( 'NONE',  ( 1.000000000000000000, 0.0000000000000000000, 0.0000000000000000000 ) ) ;
#270 = CIRCLE ( 'NONE', #180, 33.14999999999999900 ) ;
#271 = DIRECTION ( 'NONE',  ( 1.000000000000000000, 0.0000000000000000000, 0.0000000000000000000 ) ) ;
#272 = DIRECTION ( 'NONE',  ( 0.0000000000000000000, -0.0000000000000000000, 1.000000000000000000 ) ) ;
#273 = AXIS2_PLACEMENT_3D ( 'NONE', #274, #272, #271 ) ;
#274 = CARTESIAN_POINT ( 'NONE',  ( 0.0000000000000000000, 33.14999999999999900, -56.00000000000000700 ) ) ;
#275 = PLANE ( 'NONE',  #273 ) ;
#276 = FACE_BOUND ( 'NONE', #95, .T. ) ;
#277 = FACE_OUTER_BOUND ( 'NONE', #97, .T. ) ;
#278 = CARTESIAN_POINT ( 'NONE',  ( -29.80699999999999900, 0.0000000000000000000, -54.95911662375968400 ) ) ;
#279 = DIRECTION ( 'NONE',  ( 1.000000000000000000, 0.0000000000000000000, 0.0000000000000000000 ) ) ;
#280 = DIRECTION ( 'NONE',  ( -0.0000000000000000000, -0.0000000000000000000, 1.000000000000000000 ) ) ;
#281 = AXIS2_PLACEMENT_3D ( 'NONE', #193, #280, #279 ) ;
#282 = CONICAL_SURFACE ( 'NONE', #191, 29.80699999999999900, 0.7853981633974542700 ) ;
#283 = DIRECTION ( 'NONE',  ( 1.000000000000000000, 0.0000000000000000000, 0.0000000000000000000 ) ) ;
#284 = DIRECTION ( 'NONE',  ( -0.0000000000000000000, -0.0000000000000000000, 1.000000000000000000 ) ) ;
#285 = CARTESIAN_POINT ( 'NONE',  ( 0.0000000000000000000, 0.0000000000000000000, -1.040883376240310500 ) ) ;
#286 = AXIS2_PLACEMENT_3D ( 'NONE', #285, #284, #283 ) ;
#287 = CIRCLE ( 'NONE', #286, 29.80699999999999900 ) ;
#288 = DIRECTION ( 'NONE',  ( -0.0000000000000000000, -0.0000000000000000000, 1.000000000000000000 ) ) ;
#289 = VECTOR ( 'NONE', #288, 1000.000000000000000 ) ;
#290 = CARTESIAN_POINT ( 'NONE',  ( 33.14999999999999900, 0.0000000000000000000, -4.336808689942017700E-016 ) ) ;
#291 = LINE ( 'NONE', #290, #289 ) ;
#292 = DIRECTION ( 'NONE',  ( -0.0000000000000000000, -0.0000000000000000000, 1.000000000000000000 ) ) ;
#293 = VECTOR ( 'NONE', #292, 1000.000000000000000 ) ;
#294 = CARTESIAN_POINT ( 'NONE',  ( -33.14999999999999900, 4.059570062921180100E-015, -4.336808689942017700E-016 ) ) ;
#295 = CIRCLE ( 'NONE', #200, 29.80699999999999900 ) ;
#296 = CARTESIAN_POINT ( 'NONE',  ( 3.650184158838360200E-015, -29.80699999999999900, -1.040883376240310500 ) ) ;
#297 = DIRECTION ( 'NONE',  ( 1.000000000000000000, 0.0000000000000000000, 0.0000000000000000000 ) ) ;
#298 = DIRECTION ( 'NONE',  ( -0.0000000000000000000, -0.0000000000000000000, 1.000000000000000000 ) ) ;
#299 = CARTESIAN_POINT ( 'NONE',  ( 0.0000000000000000000, 0.0000000000000000000, -1.040883376240310500 ) ) ;
#300 = AXIS2_PLACEMENT_3D ( 'NONE', #299, #298, #297 ) ;
#301 = CIRCLE ( 'NONE', #300, 29.80699999999999900 ) ;
#302 = CARTESIAN_POINT ( 'NONE',  ( -29.80699999999999900, 3.713917778644959200E-015, -1.040883376240310500 ) ) ;
#303 = DIRECTION ( 'NONE',  ( 1.000000000000000000, 0.0000000000000000000, 0.0000000000000000000 ) ) ;
#304 = DIRECTION ( 'NONE',  ( -0.0000000000000000000, -0.0000000000000000000, 1.000000000000000000 ) ) ;
#305 = CARTESIAN_POINT ( 'NONE',  ( 0.0000000000000000000, 0.0000000000000000000, 0.0000000000000000000 ) ) ;
#306 = AXIS2_PLACEMENT_3D ( 'NONE', #305, #304, #303 ) ;
#307 = CIRCLE ( 'NONE', #306, 33.14999999999999900 ) ;
#308 = ADVANCED_BREP_SHAPE_REPRESENTATION ( '11-0201-09_outokumpu', ( #91, #130 ), #309 ) ;
#309 =( GEOMETRIC_REPRESENTATION_CONTEXT ( 3 ) GLOBAL_UNCERTAINTY_ASSIGNED_CONTEXT ( ( #257 ) ) GLOBAL_UNIT_ASSIGNED_CONTEXT ( ( #260, #259, #258 ) ) REPRESENTATION_CONTEXT ( 'NONE', 'WORKASPACE' ) );
#310 = DIRECTION ( 'NONE',  ( 0.0000000000000000000, 0.0000000000000000000, -1.000000000000000000 ) ) ;
#311 = CARTESIAN_POINT ( 'NONE',  ( 0.0000000000000000000, 0.0000000000000000000, -56.00000000000000700 ) ) ;
#312 = AXIS2_PLACEMENT_3D ( 'NONE', #311, #310, #206 ) ;
#313 = CC_DESIGN_PERSON_AND_ORGANIZATION_ASSIGNMENT ( #315, #314, ( #386 ) ) ;
#314 = PERSON_AND_ORGANIZATION_ROLE ( 'creator' ) ;
#315 = PERSON_AND_ORGANIZATION ( #349, #370 ) ;
#316 = CC_DESIGN_APPROVAL ( #383, ( #386 ) ) ;
#317 = APPROVAL_DATE_TIME ( #318, #383 ) ;
#318 = DATE_AND_TIME ( #319, #320 ) ;
#319 = CALENDAR_DATE ( 2015, 10, 8 ) ;
#320 = LOCAL_TIME ( 14, 15, 40.00000000000000000, #321 ) ;
#321 = COORDINATED_UNIVERSAL_TIME_OFFSET ( 1, 0, .AHEAD. ) ;
#322 = PRODUCT_DEFINITION_SHAPE ( 'NONE', 'NONE',  #386 ) ;
#323 = PRODUCT_RELATED_PRODUCT_CATEGORY ( 'detail', '', ( #350 ) ) ;
#324 = CC_DESIGN_SECURITY_CLASSIFICATION ( #374, ( #366 ) ) ;
#325 = CC_DESIGN_APPROVAL ( #333, ( #374 ) ) ;
#326 = APPROVAL_DATE_TIME ( #327, #333 ) ;
#327 = DATE_AND_TIME ( #328, #329 ) ;
#328 = CALENDAR_DATE ( 2015, 10, 8 ) ;
#329 = LOCAL_TIME ( 14, 15, 40.00000000000000000, #330 ) ;
#330 = COORDINATED_UNIVERSAL_TIME_OFFSET ( 1, 0, .AHEAD. ) ;
#331 = APPROVAL_PERSON_ORGANIZATION ( #335, #333, #332 ) ;
#332 = APPROVAL_ROLE ( '' ) ;
#333 = APPROVAL ( #334, 'UNSPECIFIED' ) ;
#334 = APPROVAL_STATUS ( 'not_yet_approved' ) ;
#335 = PERSON_AND_ORGANIZATION ( #349, #370 ) ;
#336 = CC_DESIGN_DATE_AND_TIME_ASSIGNMENT ( #338, #337, ( #374 ) ) ;
#337 = DATE_TIME_ROLE ( 'classification_date' ) ;
#338 = DATE_AND_TIME ( #339, #340 ) ;
#339 = CALENDAR_DATE ( 2015, 10, 8 ) ;
#340 = LOCAL_TIME ( 14, 15, 40.00000000000000000, #341 ) ;
#341 = COORDINATED_UNIVERSAL_TIME_OFFSET ( 1, 0, .AHEAD. ) ;
#342 = PERSON_AND_ORGANIZATION ( #349, #370 ) ;
#343 = CC_DESIGN_DATE_AND_TIME_ASSIGNMENT ( #345, #344, ( #386 ) ) ;
#344 = DATE_TIME_ROLE ( 'creation_date' ) ;
#345 = DATE_AND_TIME ( #346, #347 ) ;
#346 = CALENDAR_DATE ( 2015, 10, 8 ) ;
#347 = LOCAL_TIME ( 14, 15, 40.00000000000000000, #348 ) ;
#348 = COORDINATED_UNIVERSAL_TIME_OFFSET ( 1, 0, .AHEAD. ) ;
#349 = PERSON ( 'UNSPECIFIED', 'UNSPECIFIED', 'UNSPECIFIED', ('UNSPECIFIED'), ('UNSPECIFIED'), ('UNSPECIFIED') ) ;
#350 = PRODUCT ( '11-0201-09_outokumpu', '11-0201-09_outokumpu', '', ( #351 ) ) ;
#351 = MECHANICAL_CONTEXT ( 'NONE', #353, 'mechanical' ) ;
#352 = APPLICATION_PROTOCOL_DEFINITION ( 'international standard', 'config_control_design', 1994, #353 ) ;
#353 = APPLICATION_CONTEXT ( 'configuration controlled 3d designs of mechanical parts and assemblies' ) ;
#354 = PERSON_AND_ORGANIZATION_ROLE ( 'creator' ) ;
#355 = PERSON_AND_ORGANIZATION ( #349, #370 ) ;
#356 = CC_DESIGN_APPROVAL ( #364, ( #366 ) ) ;
#357 = APPROVAL_DATE_TIME ( #358, #364 ) ;
#358 = DATE_AND_TIME ( #359, #360 ) ;
#359 = CALENDAR_DATE ( 2015, 10, 8 ) ;
#360 = LOCAL_TIME ( 14, 15, 40.00000000000000000, #361 ) ;
#361 = COORDINATED_UNIVERSAL_TIME_OFFSET ( 1, 0, .AHEAD. ) ;
#362 = APPROVAL_PERSON_ORGANIZATION ( #342, #364, #363 ) ;
#363 = APPROVAL_ROLE ( '' ) ;
#364 = APPROVAL ( #365, 'UNSPECIFIED' ) ;
#365 = APPROVAL_STATUS ( 'not_yet_approved' ) ;
#366 = PRODUCT_DEFINITION_FORMATION_WITH_SPECIFIED_SOURCE ( 'ANY', '', #350, .NOT_KNOWN. ) ;
#367 = CC_DESIGN_PERSON_AND_ORGANIZATION_ASSIGNMENT ( #369, #368, ( #350 ) ) ;
#368 = PERSON_AND_ORGANIZATION_ROLE ( 'design_owner' ) ;
#369 = PERSON_AND_ORGANIZATION ( #349, #370 ) ;
#370 = ORGANIZATION ( 'UNSPECIFIED', 'UNSPECIFIED', '' ) ;
#371 = CC_DESIGN_PERSON_AND_ORGANIZATION_ASSIGNMENT ( #373, #372, ( #374 ) ) ;
#372 = PERSON_AND_ORGANIZATION_ROLE ( 'classification_officer' ) ;
#373 = PERSON_AND_ORGANIZATION ( #349, #370 ) ;
#374 = SECURITY_CLASSIFICATION ( '', '', #375 ) ;
#375 = SECURITY_CLASSIFICATION_LEVEL ( 'unclassified' ) ;
#376 = CC_DESIGN_PERSON_AND_ORGANIZATION_ASSIGNMENT ( #378, #377, ( #366 ) ) ;
#377 = PERSON_AND_ORGANIZATION_ROLE ( 'design_supplier' ) ;
#378 = PERSON_AND_ORGANIZATION ( #349, #370 ) ;
#379 = CC_DESIGN_PERSON_AND_ORGANIZATION_ASSIGNMENT ( #355, #354, ( #366 ) ) ;
#380 = SHAPE_DEFINITION_REPRESENTATION ( #322, #308 ) ;
#381 = APPROVAL_PERSON_ORGANIZATION ( #385, #383, #382 ) ;
#382 = APPROVAL_ROLE ( '' ) ;
#383 = APPROVAL ( #384, 'UNSPECIFIED' ) ;
#384 = APPROVAL_STATUS ( 'not_yet_approved' ) ;
#385 = PERSON_AND_ORGANIZATION ( #349, #370 ) ;
#386 = PRODUCT_DEFINITION ( 'UNKNOWN', '', #366, #387 ) ;
#387 = DESIGN_CONTEXT ( 'detailed design', #389, 'design' ) ;
#388 = APPLICATION_PROTOCOL_DEFINITION ( 'international standard', 'config_control_design', 1994, #389 ) ;
#389 = APPLICATION_CONTEXT ( 'configuration controlled 3d designs of mechanical parts and assemblies' ) ;
ENDSEC;
END-ISO-10303-21;
