ISO-10303-21;
HEADER;
/****************************************************************
 * Generated by software with PDE/Lib inside                    *
 * PDElib Version v51a, created Thu 12/14/2006                  *
 * International Technegroup Inc. (www.iti-oh.com)              *
 ****************************************************************/
FILE_DESCRIPTION((''),'2;1');
FILE_NAME('T:\\Arbeitspl\S\dtze\\Aushilfe\\KPeters\\3D\\Steps 08_10\\10127\\10127012X000.stp','2010-09-03T09:07:42',('thilbrands'),(''),'Autodesk Inventor 2008','Autodesk Inventor 2008','');
FILE_SCHEMA(('AUTOMOTIVE_DESIGN { 1 0 10303 214 1 1 1 1 }'));
ENDSEC;
DATA;
#5=APPLICATION_CONTEXT('automotive design');
#6=APPLICATION_PROTOCOL_DEFINITION('International Standard','automotive_design',2001,#5);
#7=PRODUCT_CONTEXT('',#5,'mechanical');
#8=PRODUCT('10127012X000','10127012X000',$,(#7));
#9=PRODUCT_RELATED_PRODUCT_CATEGORY('part',$,(#8));
#10=PRODUCT_DEFINITION_FORMATION('',$,#8);
#11=PRODUCT_DEFINITION_CONTEXT('part definition',#5,'design');
#12=PRODUCT_DEFINITION('',$,#10,#11);
#18=(NAMED_UNIT(*)PLANE_ANGLE_UNIT()SI_UNIT($,.RADIAN.));
#19=DIMENSIONAL_EXPONENTS(0.0,0.0,0.0,0.0,0.0,0.0,0.0);
#20=PLANE_ANGLE_MEASURE_WITH_UNIT(PLANE_ANGLE_MEASURE(0.017453292500000),#18);
#24=(CONVERSION_BASED_UNIT('DEGREE',#20)NAMED_UNIT(#19)PLANE_ANGLE_UNIT());
#28=(NAMED_UNIT(*)SI_UNIT($,.STERADIAN.)SOLID_ANGLE_UNIT());
#32=(LENGTH_UNIT()NAMED_UNIT(*)SI_UNIT(.MILLI.,.METRE.));
#34=UNCERTAINTY_MEASURE_WITH_UNIT(LENGTH_MEASURE(0.010000000000000),#32,'DISTANCE_ACCURACY_VALUE','');
#36=(GEOMETRIC_REPRESENTATION_CONTEXT(3)GLOBAL_UNCERTAINTY_ASSIGNED_CONTEXT((#34))GLOBAL_UNIT_ASSIGNED_CONTEXT((#24,#28,#32))REPRESENTATION_CONTEXT('None','None'));
#37=AXIS2_PLACEMENT_3D('',#38,#39,#40);
#38=CARTESIAN_POINT('',(0.0,0.0,0.0));
#39=DIRECTION('',(0.0,0.0,1.0));
#40=DIRECTION('',(1.0,0.0,0.0));
#41=SHAPE_REPRESENTATION('',(#37),#36);
#42=PRODUCT_DEFINITION_SHAPE('','',#12);
#43=SHAPE_DEFINITION_REPRESENTATION(#42,#41);
#49=(NAMED_UNIT(*)PLANE_ANGLE_UNIT()SI_UNIT($,.RADIAN.));
#50=DIMENSIONAL_EXPONENTS(0.0,0.0,0.0,0.0,0.0,0.0,0.0);
#51=PLANE_ANGLE_MEASURE_WITH_UNIT(PLANE_ANGLE_MEASURE(0.017453292500000),#49);
#55=(CONVERSION_BASED_UNIT('DEGREE',#51)NAMED_UNIT(#50)PLANE_ANGLE_UNIT());
#59=(NAMED_UNIT(*)SI_UNIT($,.STERADIAN.)SOLID_ANGLE_UNIT());
#63=(LENGTH_UNIT()NAMED_UNIT(*)SI_UNIT(.MILLI.,.METRE.));
#65=UNCERTAINTY_MEASURE_WITH_UNIT(LENGTH_MEASURE(0.000001000000000),#63,'DISTANCE_ACCURACY_VALUE','');
#67=(GEOMETRIC_REPRESENTATION_CONTEXT(3)GLOBAL_UNCERTAINTY_ASSIGNED_CONTEXT((#65))GLOBAL_UNIT_ASSIGNED_CONTEXT((#55,#59,#63))REPRESENTATION_CONTEXT('','3D'));
#68=CARTESIAN_POINT('',(2.330000000000002,2.870326153028446,0.0));
#69=DIRECTION('',(-1.0,0.0,0.0));
#70=DIRECTION('',(0.0,0.0,1.0));
#71=AXIS2_PLACEMENT_3D('',#68,#69,#70);
#72=PLANE('',#71);
#73=CARTESIAN_POINT('',(2.329999999999999,5.740652306056893,0.0));
#74=VERTEX_POINT('',#73);
#75=CARTESIAN_POINT('',(2.329999999999999,-4.163402E-018,0.0));
#76=DIRECTION('',(1.0,0.0,0.0));
#77=DIRECTION('',(0.0,1.0,0.0));
#78=AXIS2_PLACEMENT_3D('',#75,#76,#77);
#79=CIRCLE('',#78,5.740652306056893);
#80=EDGE_CURVE('',#74,#74,#79,.T.);
#81=ORIENTED_EDGE('',*,*,#80,.F.);
#82=EDGE_LOOP('',(#81));
#83=FACE_OUTER_BOUND('',#82,.T.);
#84=ADVANCED_FACE('',(#83),#72,.T.);
#85=CARTESIAN_POINT('',(2.829999999999999,0.0,0.0));
#86=DIRECTION('',(1.0,-1.786868E-018,0.0));
#87=DIRECTION('',(0.0,0.0,-1.0));
#88=AXIS2_PLACEMENT_3D('',#85,#86,#87);
#89=TOROIDAL_SURFACE('',#88,5.740652306056893,0.500000000000000);
#90=CARTESIAN_POINT('',(2.489090909090908,6.106413145589418,0.0));
#91=VERTEX_POINT('',#90);
#92=CARTESIAN_POINT('',(2.489090909090908,-4.447677E-018,0.0));
#93=DIRECTION('',(1.0,0.0,0.0));
#94=DIRECTION('',(0.0,1.0,0.0));
#95=AXIS2_PLACEMENT_3D('',#92,#93,#94);
#96=CIRCLE('',#95,6.106413145589418);
#97=EDGE_CURVE('',#91,#91,#96,.T.);
#98=ORIENTED_EDGE('',*,*,#97,.F.);
#99=EDGE_LOOP('',(#98));
#100=FACE_OUTER_BOUND('',#99,.T.);
#101=ORIENTED_EDGE('',*,*,#80,.T.);
#102=EDGE_LOOP('',(#101));
#103=FACE_BOUND('',#102,.T.);
#104=ADVANCED_FACE('',(#100,#103),#89,.T.);
#105=CARTESIAN_POINT('',(0.688636363636362,-1.091738E-015,8.924373744048857));
#106=CARTESIAN_POINT('',(1.891825930221535,-1.153913E-015,9.414525487608362));
#107=CARTESIAN_POINT('',(2.680715968571432,-1.028911E-015,8.382262743804182));
#108=CARTESIAN_POINT('',(3.469606006921329,-9.039089E-016,7.350000000000000));
#109=CARTESIAN_POINT('',(2.680715968571432,-7.760877E-016,6.317737256195819));
#110=CARTESIAN_POINT('',(1.891825930221535,-6.482665E-016,5.285474512391637));
#111=CARTESIAN_POINT('',(0.688636363636362,-7.061408E-016,5.775626255951142));
#112=CARTESIAN_POINT('',(0.688636363636362,-8.924373744048857,8.924373744048854));
#113=CARTESIAN_POINT('',(1.891825930221535,-9.414525487608362,9.414525487608358));
#114=CARTESIAN_POINT('',(2.680715968571432,-8.382262743804182,8.382262743804178));
#115=CARTESIAN_POINT('',(3.469606006921329,-7.349999999999999,7.349999999999998));
#116=CARTESIAN_POINT('',(2.680715968571432,-6.317737256195818,6.317737256195817));
#117=CARTESIAN_POINT('',(1.891825930221535,-5.285474512391637,5.285474512391636));
#118=CARTESIAN_POINT('',(0.688636363636362,-5.775626255951143,5.775626255951140));
#119=CARTESIAN_POINT('',(0.688636363636362,-8.924373744048857,-1.092884E-015));
#120=CARTESIAN_POINT('',(1.891825930221535,-9.414525487608362,-1.152909E-015));
#121=CARTESIAN_POINT('',(2.680715968571432,-8.382262743804182,-1.026497E-015));
#122=CARTESIAN_POINT('',(3.469606006921329,-7.350000000000000,-9.000857E-016));
#123=CARTESIAN_POINT('',(2.680715968571432,-6.317737256195819,-7.736741E-016));
#124=CARTESIAN_POINT('',(1.891825930221535,-5.285474512391637,-6.472626E-016));
#125=CARTESIAN_POINT('',(0.688636363636362,-5.775626255951142,-7.072869E-016));
#126=CARTESIAN_POINT('',(0.688636363636362,-8.924373744048854,-8.924373744048857));
#127=CARTESIAN_POINT('',(1.891825930221535,-9.414525487608358,-9.414525487608362));
#128=CARTESIAN_POINT('',(2.680715968571432,-8.382262743804178,-8.382262743804182));
#129=CARTESIAN_POINT('',(3.469606006921329,-7.349999999999998,-7.349999999999999));
#130=CARTESIAN_POINT('',(2.680715968571432,-6.317737256195817,-6.317737256195818));
#131=CARTESIAN_POINT('',(1.891825930221535,-5.285474512391636,-5.285474512391637));
#132=CARTESIAN_POINT('',(0.688636363636362,-5.775626255951140,-5.775626255951143));
#133=CARTESIAN_POINT('',(0.688636363636362,1.094031E-015,-8.924373744048857));
#134=CARTESIAN_POINT('',(1.891825930221535,1.151905E-015,-9.414525487608362));
#135=CARTESIAN_POINT('',(2.680715968571432,1.024084E-015,-8.382262743804182));
#136=CARTESIAN_POINT('',(3.469606006921329,8.962625E-016,-7.350000000000000));
#137=CARTESIAN_POINT('',(2.680715968571432,7.712606E-016,-6.317737256195819));
#138=CARTESIAN_POINT('',(1.891825930221535,6.462587E-016,-5.285474512391637));
#139=CARTESIAN_POINT('',(0.688636363636362,7.084329E-016,-5.775626255951142));
#140=CARTESIAN_POINT('',(0.688636363636362,8.924373744048857,-8.924373744048854));
#141=CARTESIAN_POINT('',(1.891825930221535,9.414525487608362,-9.414525487608358));
#142=CARTESIAN_POINT('',(2.680715968571432,8.382262743804182,-8.382262743804178));
#143=CARTESIAN_POINT('',(3.469606006921329,7.349999999999999,-7.349999999999998));
#144=CARTESIAN_POINT('',(2.680715968571432,6.317737256195818,-6.317737256195817));
#145=CARTESIAN_POINT('',(1.891825930221535,5.285474512391637,-5.285474512391636));
#146=CARTESIAN_POINT('',(0.688636363636362,5.775626255951143,-5.775626255951140));
#147=CARTESIAN_POINT('',(0.688636363636362,8.924373744048857,1.092884E-015));
#148=CARTESIAN_POINT('',(1.891825930221535,9.414525487608362,1.152909E-015));
#149=CARTESIAN_POINT('',(2.680715968571432,8.382262743804182,1.026497E-015));
#150=CARTESIAN_POINT('',(3.469606006921329,7.350000000000000,9.000857E-016));
#151=CARTESIAN_POINT('',(2.680715968571432,6.317737256195819,7.736741E-016));
#152=CARTESIAN_POINT('',(1.891825930221535,5.285474512391637,6.472626E-016));
#153=CARTESIAN_POINT('',(0.688636363636362,5.775626255951142,7.072869E-016));
#154=CARTESIAN_POINT('',(0.688636363636362,8.924373744048854,8.924373744048857));
#155=CARTESIAN_POINT('',(1.891825930221535,9.414525487608358,9.414525487608362));
#156=CARTESIAN_POINT('',(2.680715968571432,8.382262743804178,8.382262743804182));
#157=CARTESIAN_POINT('',(3.469606006921329,7.349999999999998,7.349999999999999));
#158=CARTESIAN_POINT('',(2.680715968571432,6.317737256195817,6.317737256195818));
#159=CARTESIAN_POINT('',(1.891825930221535,5.285474512391636,5.285474512391637));
#160=CARTESIAN_POINT('',(0.688636363636362,5.775626255951140,5.775626255951143));
#161=CARTESIAN_POINT('',(0.688636363636362,-1.091738E-015,8.924373744048857));
#162=CARTESIAN_POINT('',(1.891825930221535,-1.153913E-015,9.414525487608362));
#163=CARTESIAN_POINT('',(2.680715968571432,-1.028911E-015,8.382262743804182));
#164=CARTESIAN_POINT('',(3.469606006921329,-9.039089E-016,7.350000000000000));
#165=CARTESIAN_POINT('',(2.680715968571432,-7.760877E-016,6.317737256195819));
#166=CARTESIAN_POINT('',(1.891825930221535,-6.482665E-016,5.285474512391637));
#167=CARTESIAN_POINT('',(0.688636363636362,-7.061408E-016,5.775626255951142));
#175=(BOUNDED_SURFACE()B_SPLINE_SURFACE(2,2,((#105,#112,#119,#126,#133,#140,#147,#154,#161),(#106,#113,#120,#127,#134,#141,#148,#155,#162),(#107,#114,#121,#128,#135,#142,#149,#156,#163),(#108,#115,#122,#129,#136,#143,#150,#157,#164),(#109,#116,#123,#130,#137,#144,#151,#158,#165),(#110,#117,#124,#131,#138,#145,#152,#159,#166),(#111,#118,#125,#132,#139,#146,#153,#160,#167)),.UNSPECIFIED.,.F.,.T.,.U.)B_SPLINE_SURFACE_WITH_KNOTS((3,2,2,3),(3,2,2,2,3),(-0.386849629714915,0.918247674624959,2.223344978964834,3.528442283304708),(0.0,1.570796326794897,3.141592653589793,4.712388980384690,6.283185307179586),.UNSPECIFIED.)GEOMETRIC_REPRESENTATION_ITEM()RATIONAL_B_SPLINE_SURFACE(((1.0,0.707106781186548,1.0,0.707106781186548,1.0,0.707106781186548,1.0,0.707106781186548,1.0),(0.794538805042021,0.561823776961070,0.794538805042021,0.561823776961070,0.794538805042021,0.561823776961070,0.794538805042021,0.561823776961070,0.794538805042021),(1.0,0.707106781186548,1.0,0.707106781186548,1.0,0.707106781186548,1.0,0.707106781186548,1.0),(0.794538805042019,0.561823776961068,0.794538805042019,0.561823776961068,0.794538805042019,0.561823776961068,0.794538805042019,0.561823776961068,0.794538805042019),(1.0,0.707106781186548,1.0,0.707106781186548,1.0,0.707106781186548,1.0,0.707106781186548,1.0),(0.794538805042019,0.561823776961068,0.794538805042019,0.561823776961068,0.794538805042019,0.561823776961068,0.794538805042019,0.561823776961068,0.794538805042019),(1.0,0.707106781186548,1.0,0.707106781186548,1.0,0.707106781186548,1.0,0.707106781186548,1.0)))REPRESENTATION_ITEM('')SURFACE());
#176=CARTESIAN_POINT('',(0.688636363636362,8.924373744048856,0.0));
#177=VERTEX_POINT('',#176);
#178=CARTESIAN_POINT('',(0.688636363636362,-1.230502E-018,0.0));
#179=DIRECTION('',(1.0,0.0,0.0));
#180=DIRECTION('',(0.0,1.0,0.0));
#181=AXIS2_PLACEMENT_3D('',#178,#179,#180);
#182=CIRCLE('',#181,8.924373744048856);
#183=EDGE_CURVE('',#177,#177,#182,.T.);
#184=ORIENTED_EDGE('',*,*,#183,.F.);
#185=EDGE_LOOP('',(#184));
#186=FACE_OUTER_BOUND('',#185,.T.);
#187=ORIENTED_EDGE('',*,*,#97,.T.);
#188=EDGE_LOOP('',(#187));
#189=FACE_BOUND('',#188,.T.);
#190=ADVANCED_FACE('',(#186,#189),#175,.T.);
#191=CARTESIAN_POINT('',(0.499999999999998,0.0,0.0));
#192=DIRECTION('',(1.0,-1.786868E-018,0.0));
#193=DIRECTION('',(0.0,0.0,-1.0));
#194=AXIS2_PLACEMENT_3D('',#191,#192,#193);
#195=TOROIDAL_SURFACE('',#194,9.387424845239696,0.500000000000000);
#196=CARTESIAN_POINT('',(-1.734723E-015,9.387424845239696,0.0));
#197=VERTEX_POINT('',#196);
#198=CARTESIAN_POINT('',(-1.665335E-015,2.888895E-033,0.0));
#199=DIRECTION('',(1.0,0.0,0.0));
#200=DIRECTION('',(0.0,1.0,0.0));
#201=AXIS2_PLACEMENT_3D('',#198,#199,#200);
#202=CIRCLE('',#201,9.387424845239696);
#203=EDGE_CURVE('',#197,#197,#202,.T.);
#204=ORIENTED_EDGE('',*,*,#203,.F.);
#205=EDGE_LOOP('',(#204));
#206=FACE_OUTER_BOUND('',#205,.T.);
#207=ORIENTED_EDGE('',*,*,#183,.T.);
#208=EDGE_LOOP('',(#207));
#209=FACE_BOUND('',#208,.T.);
#210=ADVANCED_FACE('',(#206,#209),#195,.T.);
#211=CARTESIAN_POINT('',(-1.838807E-015,9.842906079409545,0.0));
#212=DIRECTION('',(-1.0,0.0,0.0));
#213=DIRECTION('',(0.0,0.0,1.0));
#214=AXIS2_PLACEMENT_3D('',#211,#212,#213);
#215=PLANE('',#214);
#216=CARTESIAN_POINT('',(-1.942890E-015,10.298387313579395,0.0));
#217=VERTEX_POINT('',#216);
#218=CARTESIAN_POINT('',(-1.942890E-015,3.370377E-033,0.0));
#219=DIRECTION('',(1.0,0.0,0.0));
#220=DIRECTION('',(0.0,1.0,0.0));
#221=AXIS2_PLACEMENT_3D('',#218,#219,#220);
#222=CIRCLE('',#221,10.298387313579395);
#223=EDGE_CURVE('',#217,#217,#222,.T.);
#224=ORIENTED_EDGE('',*,*,#223,.F.);
#225=EDGE_LOOP('',(#224));
#226=FACE_OUTER_BOUND('',#225,.T.);
#227=ORIENTED_EDGE('',*,*,#203,.T.);
#228=EDGE_LOOP('',(#227));
#229=FACE_BOUND('',#228,.T.);
#230=ADVANCED_FACE('',(#226,#229),#215,.T.);
#231=CARTESIAN_POINT('',(0.499999999999998,0.0,0.0));
#232=DIRECTION('',(1.0,-1.786868E-018,0.0));
#233=DIRECTION('',(0.0,0.0,-1.0));
#234=AXIS2_PLACEMENT_3D('',#231,#232,#233);
#235=TOROIDAL_SURFACE('',#234,10.298387313579395,0.500000000000008);
#236=CARTESIAN_POINT('',(0.370590477448738,10.781350226723927,0.0));
#237=VERTEX_POINT('',#236);
#238=CARTESIAN_POINT('',(0.370590477448738,-6.621962E-019,0.0));
#239=DIRECTION('',(1.0,0.0,0.0));
#240=DIRECTION('',(0.0,1.0,0.0));
#241=AXIS2_PLACEMENT_3D('',#238,#239,#240);
#242=CIRCLE('',#241,10.781350226723927);
#243=EDGE_CURVE('',#237,#237,#242,.T.);
#244=ORIENTED_EDGE('',*,*,#243,.F.);
#245=EDGE_LOOP('',(#244));
#246=FACE_OUTER_BOUND('',#245,.T.);
#247=ORIENTED_EDGE('',*,*,#223,.T.);
#248=EDGE_LOOP('',(#247));
#249=FACE_BOUND('',#248,.T.);
#250=ADVANCED_FACE('',(#246,#249),#235,.T.);
#251=CARTESIAN_POINT('',(0.685295238724368,-1.224532E-018,0.0));
#252=DIRECTION('',(1.0,-1.786868E-018,0.0));
#253=DIRECTION('',(0.0,1.0,0.0));
#254=AXIS2_PLACEMENT_3D('',#251,#252,#253);
#255=CONICAL_SURFACE('',#254,10.865675113361961,15.000000000000174);
#256=CARTESIAN_POINT('',(0.999999999999998,10.949999999999998,0.0));
#257=VERTEX_POINT('',#256);
#258=CARTESIAN_POINT('',(0.999999999999998,-1.786868E-018,0.0));
#259=DIRECTION('',(1.0,0.0,0.0));
#260=DIRECTION('',(0.0,1.0,0.0));
#261=AXIS2_PLACEMENT_3D('',#258,#259,#260);
#262=CIRCLE('',#261,10.949999999999998);
#263=EDGE_CURVE('',#257,#257,#262,.T.);
#264=ORIENTED_EDGE('',*,*,#263,.F.);
#265=EDGE_LOOP('',(#264));
#266=FACE_OUTER_BOUND('',#265,.T.);
#267=ORIENTED_EDGE('',*,*,#243,.T.);
#268=EDGE_LOOP('',(#267));
#269=FACE_BOUND('',#268,.T.);
#270=ADVANCED_FACE('',(#266,#269),#255,.T.);
#271=CARTESIAN_POINT('',(3.499999999999999,-6.254038E-018,0.0));
#272=DIRECTION('',(1.0,-1.786868E-018,0.0));
#273=DIRECTION('',(0.0,1.0,0.0));
#274=AXIS2_PLACEMENT_3D('',#271,#272,#273);
#275=CYLINDRICAL_SURFACE('',#274,10.949999999999998);
#276=CARTESIAN_POINT('',(6.0,10.949999999999998,0.0));
#277=VERTEX_POINT('',#276);
#278=CARTESIAN_POINT('',(6.0,-1.072121E-017,0.0));
#279=DIRECTION('',(1.0,0.0,0.0));
#280=DIRECTION('',(0.0,1.0,0.0));
#281=AXIS2_PLACEMENT_3D('',#278,#279,#280);
#282=CIRCLE('',#281,10.949999999999998);
#283=EDGE_CURVE('',#277,#277,#282,.T.);
#284=ORIENTED_EDGE('',*,*,#283,.F.);
#285=EDGE_LOOP('',(#284));
#286=FACE_OUTER_BOUND('',#285,.T.);
#287=ORIENTED_EDGE('',*,*,#263,.T.);
#288=EDGE_LOOP('',(#287));
#289=FACE_BOUND('',#288,.T.);
#290=ADVANCED_FACE('',(#286,#289),#275,.T.);
#291=CARTESIAN_POINT('',(6.0,9.974999999999998,0.0));
#292=DIRECTION('',(1.0,0.0,0.0));
#293=DIRECTION('',(0.0,0.0,-1.0));
#294=AXIS2_PLACEMENT_3D('',#291,#292,#293);
#295=PLANE('',#294);
#296=ORIENTED_EDGE('',*,*,#283,.T.);
#297=EDGE_LOOP('',(#296));
#298=FACE_OUTER_BOUND('',#297,.T.);
#299=CARTESIAN_POINT('',(6.0,9.0,0.0));
#300=VERTEX_POINT('',#299);
#301=CARTESIAN_POINT('',(6.0,-1.072121E-017,0.0));
#302=DIRECTION('',(1.0,0.0,0.0));
#303=DIRECTION('',(0.0,1.0,0.0));
#304=AXIS2_PLACEMENT_3D('',#301,#302,#303);
#305=CIRCLE('',#304,9.0);
#306=EDGE_CURVE('',#300,#300,#305,.T.);
#307=ORIENTED_EDGE('',*,*,#306,.F.);
#308=EDGE_LOOP('',(#307));
#309=FACE_BOUND('',#308,.T.);
#310=ADVANCED_FACE('',(#298,#309),#295,.T.);
#311=CARTESIAN_POINT('',(7.500000000000000,-1.340151E-017,0.0));
#312=DIRECTION('',(1.0,-1.786868E-018,0.0));
#313=DIRECTION('',(0.0,1.0,0.0));
#314=AXIS2_PLACEMENT_3D('',#311,#312,#313);
#315=CYLINDRICAL_SURFACE('',#314,9.0);
#316=CARTESIAN_POINT('',(9.000000000000002,8.999999999999998,0.0));
#317=VERTEX_POINT('',#316);
#318=CARTESIAN_POINT('',(9.000000000000002,-1.608181E-017,0.0));
#319=DIRECTION('',(1.0,0.0,0.0));
#320=DIRECTION('',(0.0,1.0,0.0));
#321=AXIS2_PLACEMENT_3D('',#318,#319,#320);
#322=CIRCLE('',#321,8.999999999999998);
#323=EDGE_CURVE('',#317,#317,#322,.T.);
#324=ORIENTED_EDGE('',*,*,#323,.F.);
#325=EDGE_LOOP('',(#324));
#326=FACE_OUTER_BOUND('',#325,.T.);
#327=ORIENTED_EDGE('',*,*,#306,.T.);
#328=EDGE_LOOP('',(#327));
#329=FACE_BOUND('',#328,.T.);
#330=ADVANCED_FACE('',(#326,#329),#315,.T.);
#331=CARTESIAN_POINT('',(9.000000000000002,4.499999999999999,0.0));
#332=DIRECTION('',(1.0,0.0,0.0));
#333=DIRECTION('',(0.0,0.0,-1.0));
#334=AXIS2_PLACEMENT_3D('',#331,#332,#333);
#335=PLANE('',#334);
#336=ORIENTED_EDGE('',*,*,#323,.T.);
#337=EDGE_LOOP('',(#336));
#338=FACE_OUTER_BOUND('',#337,.T.);
#339=ADVANCED_FACE('',(#338),#335,.T.);
#340=CLOSED_SHELL('',(#84,#104,#190,#210,#230,#250,#270,#290,#310,#330,#339));
#341=MANIFOLD_SOLID_BREP('',#340);
#342=COLOUR_RGB('Standard',0.752941012382507,0.752941012382507,0.752941012382507);
#343=FILL_AREA_STYLE_COLOUR('Standard',#342);
#344=FILL_AREA_STYLE('Standard',(#343));
#345=SURFACE_STYLE_FILL_AREA(#344);
#346=SURFACE_SIDE_STYLE('Standard',(#345));
#347=SURFACE_STYLE_USAGE(.BOTH.,#346);
#348=PRESENTATION_STYLE_ASSIGNMENT((#347));
#349=STYLED_ITEM('',(#348),#341);
#350=MECHANICAL_DESIGN_GEOMETRIC_PRESENTATION_REPRESENTATION('',(#349),#36);
#351=ADVANCED_BREP_SHAPE_REPRESENTATION('ABSR',(#341),#36);
#352=SHAPE_REPRESENTATION_RELATIONSHIP('SRR','None',#351,#41);
ENDSEC;
END-ISO-10303-21;
