ISO-10303-21;
HEADER;
FILE_DESCRIPTION (( 'STEP AP203' ),
    '1' );
FILE_NAME ('3D_R1655_33.7x2_17362150_17362560.STEP',
    '2024-08-05T08:45:41',
    ( '' ),
    ( '' ),
    'SwSTEP 2.0',
    'SolidWorks 2024',
    '' );
FILE_SCHEMA (( 'CONFIG_CONTROL_DESIGN' ));
ENDSEC;

DATA;
#1 = EDGE_CURVE ( 'NONE', #109, #188, #123, .T. ) ;
#2 = DIRECTION ( 'NONE',  ( 0.000000000000000000, 1.000000000000000000, 0.000000000000000000 ) ) ;
#3 = APPROVAL ( #162, 'UNSPECIFIED' ) ;
#4 = DIRECTION ( 'NONE',  ( 2.862147711142303124E-15, 0.000000000000000000, 1.000000000000000000 ) ) ;
#5 = ORIENTED_EDGE ( 'NONE', *, *, #178, .T. ) ;
#6 = ORIENTED_EDGE ( 'NONE', *, *, #244, .T. ) ;
#7 = EDGE_LOOP ( 'NONE', ( #6, #5 ) ) ;
#8 = EDGE_CURVE ( 'NONE', #188, #224, #172, .T. ) ;
#9 = CIRCLE ( 'NONE', #52, 88.84999999999999432 ) ;
#10 = PRODUCT ( '3D_R1655_33.7x2_17362150_17362560', '3D_R1655_33.7x2_17362150_17362560', '', ( #80 ) ) ;
#11 = CC_DESIGN_SECURITY_CLASSIFICATION ( #141, ( #137 ) ) ;
#12 = CC_DESIGN_DATE_AND_TIME_ASSIGNMENT ( #103, #20, ( #141 ) ) ;
#13 = AXIS2_PLACEMENT_3D ( 'NONE', #74, #176, #17 ) ;
#14 = EDGE_CURVE ( 'NONE', #88, #184, #228, .T. ) ;
#15 = DIRECTION ( 'NONE',  ( 0.000000000000000000, 1.000000000000000000, 0.000000000000000000 ) ) ;
#16 = CARTESIAN_POINT ( 'NONE',  ( -88.84999999999999432, 0.000000000000000000, -1.841108372814013055E-14 ) ) ;
#17 = DIRECTION ( 'NONE',  ( 1.000000000000000000, 0.000000000000000000, 3.077090977655028123E-16 ) ) ;
#18 = CLOSED_SHELL ( 'NONE', ( #32, #71, #201, #132, #84, #181 ) ) ;
#19 = PERSON_AND_ORGANIZATION_ROLE ( 'classification_officer' ) ;
#20 = DATE_TIME_ROLE ( 'classification_date' ) ;
#21 = CALENDAR_DATE ( 2024, 5, 8 ) ;
#22 = PERSON_AND_ORGANIZATION ( #54, #26 ) ;
#23 = DATE_AND_TIME ( #21, #81 ) ;
#24 = EDGE_LOOP ( 'NONE', ( #25, #59 ) ) ;
#25 = ORIENTED_EDGE ( 'NONE', *, *, #14, .F. ) ;
#26 = ORGANIZATION ( 'UNSPECIFIED', 'UNSPECIFIED', '' ) ;
#27 = FACE_OUTER_BOUND ( 'NONE', #217, .T. ) ;
#28 = ORIENTED_EDGE ( 'NONE', *, *, #14, .T. ) ;
#29 = CARTESIAN_POINT ( 'NONE',  ( -57.14999999999999147, 0.000000000000000000, -1.758557493729847858E-14 ) ) ;
#30 = DIRECTION ( 'NONE',  ( -3.077090977655027630E-16, 0.000000000000000000, 1.000000000000000000 ) ) ;
#31 = CARTESIAN_POINT ( 'NONE',  ( -2.060746352022458407E-13, 0.000000000000000000, -72.00000000000000000 ) ) ;
#32 = ADVANCED_FACE ( 'NONE', ( #27 ), #76, .F. ) ;
#33 = DIRECTION ( 'NONE',  ( 0.000000000000000000, 1.000000000000000000, 0.000000000000000000 ) ) ;
#34 = DIRECTION ( 'NONE',  ( 1.000000000000000000, 0.000000000000000000, 0.000000000000000000 ) ) ;
#35 = PERSON_AND_ORGANIZATION ( #54, #26 ) ;
#36 = APPLICATION_PROTOCOL_DEFINITION ( 'international standard', 'config_control_design', 1994, #107 ) ;
#37 = DIRECTION ( 'NONE',  ( 0.000000000000000000, 0.000000000000000000, 1.000000000000000000 ) ) ;
#38 = AXIS2_PLACEMENT_3D ( 'NONE', #124, #66, #148 ) ;
#39 = DATE_AND_TIME ( #79, #113 ) ;
#40 = CIRCLE ( 'NONE', #89, 14.85000000000000142 ) ;
#41 = ORIENTED_EDGE ( 'NONE', *, *, #63, .F. ) ;
#42 = VERTEX_POINT ( 'NONE', #127 ) ;
#43 = TOROIDAL_SURFACE ( 'NONE', #222, 72.00000000000000000, 16.85000000000000497 ) ;
#44 = LOCAL_TIME ( 10, 45, 41.00000000000000000, #235 ) ;
#45 = ORIENTED_EDGE ( 'NONE', *, *, #63, .T. ) ;
#46 = UNCERTAINTY_MEASURE_WITH_UNIT (LENGTH_MEASURE( 1.000000000000000082E-05 ), #248, 'distance_accuracy_value', 'NONE');
#47 = EDGE_CURVE ( 'NONE', #42, #224, #230, .T. ) ;
#48 = CC_DESIGN_PERSON_AND_ORGANIZATION_ASSIGNMENT ( #249, #82, ( #10 ) ) ;
#49 =( NAMED_UNIT ( * ) PLANE_ANGLE_UNIT ( ) SI_UNIT ( $, .RADIAN. ) );
#50 = DIRECTION ( 'NONE',  ( 0.000000000000000000, 1.000000000000000000, 0.000000000000000000 ) ) ;
#51 = DIRECTION ( 'NONE',  ( 2.862147711142303913E-15, 0.000000000000000000, 1.000000000000000000 ) ) ;
#52 = AXIS2_PLACEMENT_3D ( 'NONE', #170, #67, #223 ) ;
#53 = FACE_BOUND ( 'NONE', #168, .T. ) ;
#54 = PERSON ( 'UNSPECIFIED', 'UNSPECIFIED', 'UNSPECIFIED', ('UNSPECIFIED'), ('UNSPECIFIED'), ('UNSPECIFIED') ) ;
#55 = LOCAL_TIME ( 10, 45, 41.00000000000000000, #196 ) ;
#56 = EDGE_CURVE ( 'NONE', #184, #88, #173, .T. ) ;
#57 = DIRECTION ( 'NONE',  ( 0.000000000000000000, 0.000000000000000000, 1.000000000000000000 ) ) ;
#58 = PERSON_AND_ORGANIZATION_ROLE ( 'creator' ) ;
#59 = ORIENTED_EDGE ( 'NONE', *, *, #56, .F. ) ;
#60 = COORDINATED_UNIVERSAL_TIME_OFFSET ( 1, 0, .AHEAD. ) ;
#61 = EDGE_LOOP ( 'NONE', ( #28, #45, #68, #129 ) ) ;
#62 = DATE_TIME_ROLE ( 'creation_date' ) ;
#63 = EDGE_CURVE ( 'NONE', #184, #130, #9, .T. ) ;
#64 = DIRECTION ( 'NONE',  ( 0.000000000000000000, 0.000000000000000000, 1.000000000000000000 ) ) ;
#65 = CIRCLE ( 'NONE', #87, 14.85000000000000142 ) ;
#66 = DIRECTION ( 'NONE',  ( -1.000000000000000000, 0.000000000000000000, 2.862147711142303519E-15 ) ) ;
#67 = DIRECTION ( 'NONE',  ( 0.000000000000000000, 1.000000000000000000, 0.000000000000000000 ) ) ;
#68 = ORIENTED_EDGE ( 'NONE', *, *, #244, .F. ) ;
#69 = CIRCLE ( 'NONE', #202, 14.85000000000000142 ) ;
#70 = ORIENTED_EDGE ( 'NONE', *, *, #47, .F. ) ;
#71 = ADVANCED_FACE ( 'NONE', ( #160 ), #200, .T. ) ;
#72 = DIRECTION ( 'NONE',  ( -1.000000000000000000, 0.000000000000000000, 2.862147711142303519E-15 ) ) ;
#73 = DESIGN_CONTEXT ( 'detailed design', #107, 'design' ) ;
#74 = CARTESIAN_POINT ( 'NONE',  ( -72.00000000000000000, 0.000000000000000000, -1.322618543079141020E-14 ) ) ;
#75 = DIRECTION ( 'NONE',  ( 0.000000000000000000, 0.000000000000000000, 1.000000000000000000 ) ) ;
#76 = TOROIDAL_SURFACE ( 'NONE', #214, 72.00000000000000000, 14.85000000000000320 ) ;
#77 = AXIS2_PLACEMENT_3D ( 'NONE', #108, #186, #4 ) ;
#78 = DIRECTION ( 'NONE',  ( 1.000000000000000000, 0.000000000000000000, 3.077090977655028123E-16 ) ) ;
#79 = CALENDAR_DATE ( 2024, 5, 8 ) ;
#80 = MECHANICAL_CONTEXT ( 'NONE', #120, 'mechanical' ) ;
#81 = LOCAL_TIME ( 10, 45, 41.00000000000000000, #146 ) ;
#82 = PERSON_AND_ORGANIZATION_ROLE ( 'design_owner' ) ;
#83 = CALENDAR_DATE ( 2024, 5, 8 ) ;
#84 = ADVANCED_FACE ( 'NONE', ( #135, #179 ), #193, .F. ) ;
#85 = SECURITY_CLASSIFICATION_LEVEL ( 'unclassified' ) ;
#86 = ORIENTED_EDGE ( 'NONE', *, *, #111, .T. ) ;
#87 = AXIS2_PLACEMENT_3D ( 'NONE', #247, #209, #114 ) ;
#88 = VERTEX_POINT ( 'NONE', #207 ) ;
#89 = AXIS2_PLACEMENT_3D ( 'NONE', #31, #72, #51 ) ;
#90 = MANIFOLD_SOLID_BREP ( 'Wandung1', #18 ) ;
#91 = APPROVAL_PERSON_ORGANIZATION ( #96, #155, #164 ) ;
#92 = DIRECTION ( 'NONE',  ( 0.000000000000000000, 1.000000000000000000, 0.000000000000000000 ) ) ;
#93 = CARTESIAN_POINT ( 'NONE',  ( -55.14999999999999147, 0.000000000000000000, -8.041287133442686692E-15 ) ) ;
#94 = DIRECTION ( 'NONE',  ( 0.000000000000000000, 0.000000000000000000, 1.000000000000000000 ) ) ;
#95 =( NAMED_UNIT ( * ) SI_UNIT ( $, .STERADIAN. ) SOLID_ANGLE_UNIT ( ) );
#96 = PERSON_AND_ORGANIZATION ( #54, #26 ) ;
#97 = EDGE_CURVE ( 'NONE', #42, #109, #40, .T. ) ;
#98 = CC_DESIGN_PERSON_AND_ORGANIZATION_ASSIGNMENT ( #166, #58, ( #137 ) ) ;
#99 = AXIS2_PLACEMENT_3D ( 'NONE', #208, #210, #78 ) ;
#100 = SHAPE_DEFINITION_REPRESENTATION ( #191, #105 ) ;
#101 = APPROVAL_DATE_TIME ( #23, #190 ) ;
#102 = CIRCLE ( 'NONE', #13, 16.85000000000000497 ) ;
#103 = DATE_AND_TIME ( #83, #55 ) ;
#104 = CARTESIAN_POINT ( 'NONE',  ( 0.000000000000000000, 0.000000000000000000, 0.000000000000000000 ) ) ;
#105 = ADVANCED_BREP_SHAPE_REPRESENTATION ( '3D_R1655_33.7x2_17362150_17362560', ( #90, #152 ), #175 ) ;
#106 = DIRECTION ( 'NONE',  ( 1.000000000000000000, 0.000000000000000000, 3.077090977655028123E-16 ) ) ;
#107 = APPLICATION_CONTEXT ( 'configuration controlled 3d designs of mechanical parts and assemblies' ) ;
#108 = CARTESIAN_POINT ( 'NONE',  ( -2.150035048105706026E-13, 0.000000000000000000, -72.00000000000000000 ) ) ;
#109 = VERTEX_POINT ( 'NONE', #156 ) ;
#110 = ORIENTED_EDGE ( 'NONE', *, *, #56, .T. ) ;
#111 = EDGE_CURVE ( 'NONE', #88, #236, #169, .T. ) ;
#112 = CARTESIAN_POINT ( 'NONE',  ( 0.000000000000000000, 0.000000000000000000, 0.000000000000000000 ) ) ;
#113 = LOCAL_TIME ( 10, 45, 41.00000000000000000, #60 ) ;
#114 = DIRECTION ( 'NONE',  ( 2.862147711142303913E-15, 0.000000000000000000, 1.000000000000000000 ) ) ;
#115 = DIRECTION ( 'NONE',  ( -1.000000000000000000, 0.000000000000000000, 2.862147711142303519E-15 ) ) ;
#116 = CARTESIAN_POINT ( 'NONE',  ( -72.00000000000000000, 0.000000000000000000, -2.215505503911619578E-14 ) ) ;
#117 = CARTESIAN_POINT ( 'NONE',  ( 0.000000000000000000, 0.000000000000000000, 0.000000000000000000 ) ) ;
#118 = CC_DESIGN_DATE_AND_TIME_ASSIGNMENT ( #122, #62, ( #232 ) ) ;
#119 = APPROVAL_STATUS ( 'not_yet_approved' ) ;
#120 = APPLICATION_CONTEXT ( 'configuration controlled 3d designs of mechanical parts and assemblies' ) ;
#121 = APPLICATION_PROTOCOL_DEFINITION ( 'international standard', 'config_control_design', 1994, #120 ) ;
#122 = DATE_AND_TIME ( #145, #242 ) ;
#123 = CIRCLE ( 'NONE', #136, 57.14999999999999147 ) ;
#124 = CARTESIAN_POINT ( 'NONE',  ( -2.150035048105706026E-13, 0.000000000000000000, -72.00000000000000000 ) ) ;
#125 = APPROVAL_DATE_TIME ( #39, #155 ) ;
#126 = AXIS2_PLACEMENT_3D ( 'NONE', #231, #115, #139 ) ;
#127 = CARTESIAN_POINT ( 'NONE',  ( -2.485775287127090725E-13, 0.000000000000000000, -86.84999999999999432 ) ) ;
#128 = DATE_AND_TIME ( #161, #44 ) ;
#129 = ORIENTED_EDGE ( 'NONE', *, *, #111, .F. ) ;
#130 = VERTEX_POINT ( 'NONE', #16 ) ;
#131 = APPROVAL_PERSON_ORGANIZATION ( #143, #3, #182 ) ;
#132 = ADVANCED_FACE ( 'NONE', ( #53, #154 ), #171, .T. ) ;
#133 = DIRECTION ( 'NONE',  ( -3.077090977655027630E-16, 0.000000000000000000, 1.000000000000000000 ) ) ;
#134 = AXIS2_PLACEMENT_3D ( 'NONE', #226, #50, #75 ) ;
#135 = FACE_BOUND ( 'NONE', #165, .T. ) ;
#136 = AXIS2_PLACEMENT_3D ( 'NONE', #144, #253, #37 ) ;
#137 = PRODUCT_DEFINITION_FORMATION_WITH_SPECIFIED_SOURCE ( 'ANY', '', #10, .NOT_KNOWN. ) ;
#138 = FACE_OUTER_BOUND ( 'NONE', #149, .T. ) ;
#139 = DIRECTION ( 'NONE',  ( 2.862147711142303519E-15, 0.000000000000000000, 1.000000000000000000 ) ) ;
#140 = CARTESIAN_POINT ( 'NONE',  ( -72.00000000000000000, 0.000000000000000000, -1.322618543079141020E-14 ) ) ;
#141 = SECURITY_CLASSIFICATION ( '', '', #85 ) ;
#142 = COORDINATED_UNIVERSAL_TIME_OFFSET ( 1, 0, .AHEAD. ) ;
#143 = PERSON_AND_ORGANIZATION ( #54, #26 ) ;
#144 = CARTESIAN_POINT ( 'NONE',  ( 0.000000000000000000, -1.818600496733819948E-15, 0.000000000000000000 ) ) ;
#145 = CALENDAR_DATE ( 2024, 5, 8 ) ;
#146 = COORDINATED_UNIVERSAL_TIME_OFFSET ( 1, 0, .AHEAD. ) ;
#147 = CC_DESIGN_PERSON_AND_ORGANIZATION_ASSIGNMENT ( #198, #251, ( #232 ) ) ;
#148 = DIRECTION ( 'NONE',  ( 2.862147711142303124E-15, 0.000000000000000000, 1.000000000000000000 ) ) ;
#149 = EDGE_LOOP ( 'NONE', ( #70, #153, #163, #238 ) ) ;
#150 = AXIS2_PLACEMENT_3D ( 'NONE', #117, #33, #245 ) ;
#151 = DIRECTION ( 'NONE',  ( 0.000000000000000000, 1.000000000000000000, 0.000000000000000000 ) ) ;
#152 = AXIS2_PLACEMENT_3D ( 'NONE', #215, #57, #34 ) ;
#153 = ORIENTED_EDGE ( 'NONE', *, *, #159, .F. ) ;
#154 = FACE_OUTER_BOUND ( 'NONE', #7, .T. ) ;
#155 = APPROVAL ( #180, 'UNSPECIFIED' ) ;
#156 = CARTESIAN_POINT ( 'NONE',  ( -1.635717416917826089E-13, 0.000000000000000000, -57.14999999999999147 ) ) ;
#157 = CARTESIAN_POINT ( 'NONE',  ( 0.000000000000000000, 0.000000000000000000, 0.000000000000000000 ) ) ;
#158 = AXIS2_PLACEMENT_3D ( 'NONE', #157, #92, #94 ) ;
#159 = EDGE_CURVE ( 'NONE', #109, #42, #65, .T. ) ;
#160 = FACE_OUTER_BOUND ( 'NONE', #61, .T. ) ;
#161 = CALENDAR_DATE ( 2024, 5, 8 ) ;
#162 = APPROVAL_STATUS ( 'not_yet_approved' ) ;
#163 = ORIENTED_EDGE ( 'NONE', *, *, #1, .T. ) ;
#164 = APPROVAL_ROLE ( '' ) ;
#165 = EDGE_LOOP ( 'NONE', ( #213, #204 ) ) ;
#166 = PERSON_AND_ORGANIZATION ( #54, #26 ) ;
#167 = CARTESIAN_POINT ( 'NONE',  ( -72.00000000000000000, 0.000000000000000000, -2.215505503911619578E-14 ) ) ;
#168 = EDGE_LOOP ( 'NONE', ( #203, #252 ) ) ;
#169 = CIRCLE ( 'NONE', #134, 55.14999999999999147 ) ;
#170 = CARTESIAN_POINT ( 'NONE',  ( 0.000000000000000000, 0.000000000000000000, 0.000000000000000000 ) ) ;
#171 = PLANE ( 'NONE',  #197 ) ;
#172 = CIRCLE ( 'NONE', #199, 14.85000000000000142 ) ;
#173 = CIRCLE ( 'NONE', #77, 16.85000000000000497 ) ;
#174 = EDGE_LOOP ( 'NONE', ( #41, #110, #86, #243 ) ) ;
#175 =( GEOMETRIC_REPRESENTATION_CONTEXT ( 3 ) GLOBAL_UNCERTAINTY_ASSIGNED_CONTEXT ( ( #46 ) ) GLOBAL_UNIT_ASSIGNED_CONTEXT ( ( #248, #49, #95 ) ) REPRESENTATION_CONTEXT ( 'NONE', 'WORKASPACE' ) );
#176 = DIRECTION ( 'NONE',  ( -3.077090977655027630E-16, 0.000000000000000000, 1.000000000000000000 ) ) ;
#177 = CARTESIAN_POINT ( 'NONE',  ( -86.84999999999999432, 0.000000000000000000, -2.672453514093391297E-14 ) ) ;
#178 = EDGE_CURVE ( 'NONE', #130, #236, #206, .T. ) ;
#179 = FACE_OUTER_BOUND ( 'NONE', #24, .T. ) ;
#180 = APPROVAL_STATUS ( 'not_yet_approved' ) ;
#181 = ADVANCED_FACE ( 'NONE', ( #138 ), #240, .F. ) ;
#182 = APPROVAL_ROLE ( '' ) ;
#183 = ORIENTED_EDGE ( 'NONE', *, *, #97, .F. ) ;
#184 = VERTEX_POINT ( 'NONE', #229 ) ;
#185 = CARTESIAN_POINT ( 'NONE',  ( 0.000000000000000000, 0.000000000000000000, 0.000000000000000000 ) ) ;
#186 = DIRECTION ( 'NONE',  ( -1.000000000000000000, 0.000000000000000000, 2.862147711142303519E-15 ) ) ;
#187 = DIRECTION ( 'NONE',  ( -3.077090977655027630E-16, 0.000000000000000000, 1.000000000000000000 ) ) ;
#188 = VERTEX_POINT ( 'NONE', #29 ) ;
#189 = AXIS2_PLACEMENT_3D ( 'NONE', #185, #2, #218 ) ;
#190 = APPROVAL ( #119, 'UNSPECIFIED' ) ;
#191 = PRODUCT_DEFINITION_SHAPE ( 'NONE', 'NONE',  #232 ) ;
#192 = FACE_OUTER_BOUND ( 'NONE', #174, .T. ) ;
#193 = PLANE ( 'NONE',  #126 ) ;
#194 = DIRECTION ( 'NONE',  ( 0.000000000000000000, 0.000000000000000000, 1.000000000000000000 ) ) ;
#195 = CC_DESIGN_PERSON_AND_ORGANIZATION_ASSIGNMENT ( #216, #19, ( #141 ) ) ;
#196 = COORDINATED_UNIVERSAL_TIME_OFFSET ( 1, 0, .AHEAD. ) ;
#197 = AXIS2_PLACEMENT_3D ( 'NONE', #140, #30, #227 ) ;
#198 = PERSON_AND_ORGANIZATION ( #54, #26 ) ;
#199 = AXIS2_PLACEMENT_3D ( 'NONE', #167, #187, #106 ) ;
#200 = TOROIDAL_SURFACE ( 'NONE', #158, 72.00000000000000000, 16.85000000000000497 ) ;
#201 = ADVANCED_FACE ( 'NONE', ( #192 ), #43, .T. ) ;
#202 = AXIS2_PLACEMENT_3D ( 'NONE', #116, #133, #225 ) ;
#203 = ORIENTED_EDGE ( 'NONE', *, *, #8, .F. ) ;
#204 = ORIENTED_EDGE ( 'NONE', *, *, #97, .T. ) ;
#205 = ORIENTED_EDGE ( 'NONE', *, *, #1, .F. ) ;
#206 = CIRCLE ( 'NONE', #99, 16.85000000000000497 ) ;
#207 = CARTESIAN_POINT ( 'NONE',  ( -1.667763158778227922E-13, 0.000000000000000000, -55.14999999999999147 ) ) ;
#208 = CARTESIAN_POINT ( 'NONE',  ( -72.00000000000000000, 0.000000000000000000, -1.322618543079141020E-14 ) ) ;
#209 = DIRECTION ( 'NONE',  ( -1.000000000000000000, 0.000000000000000000, 2.862147711142303519E-15 ) ) ;
#210 = DIRECTION ( 'NONE',  ( -3.077090977655027630E-16, 0.000000000000000000, 1.000000000000000000 ) ) ;
#211 = CC_DESIGN_PERSON_AND_ORGANIZATION_ASSIGNMENT ( #35, #237, ( #137 ) ) ;
#212 = APPROVAL_ROLE ( '' ) ;
#213 = ORIENTED_EDGE ( 'NONE', *, *, #159, .T. ) ;
#214 = AXIS2_PLACEMENT_3D ( 'NONE', #104, #151, #64 ) ;
#215 = CARTESIAN_POINT ( 'NONE',  ( 0.000000000000000000, 0.000000000000000000, 0.000000000000000000 ) ) ;
#216 = PERSON_AND_ORGANIZATION ( #54, #26 ) ;
#217 = EDGE_LOOP ( 'NONE', ( #183, #241, #219, #205 ) ) ;
#218 = DIRECTION ( 'NONE',  ( 0.000000000000000000, 0.000000000000000000, 1.000000000000000000 ) ) ;
#219 = ORIENTED_EDGE ( 'NONE', *, *, #221, .T. ) ;
#220 = PRODUCT_RELATED_PRODUCT_CATEGORY ( 'detail', '', ( #10 ) ) ;
#221 = EDGE_CURVE ( 'NONE', #224, #188, #69, .T. ) ;
#222 = AXIS2_PLACEMENT_3D ( 'NONE', #112, #15, #194 ) ;
#223 = DIRECTION ( 'NONE',  ( 0.000000000000000000, 0.000000000000000000, 1.000000000000000000 ) ) ;
#224 = VERTEX_POINT ( 'NONE', #177 ) ;
#225 = DIRECTION ( 'NONE',  ( 1.000000000000000000, 0.000000000000000000, 3.077090977655028123E-16 ) ) ;
#226 = CARTESIAN_POINT ( 'NONE',  ( 0.000000000000000000, -2.063529856563290638E-15, 0.000000000000000000 ) ) ;
#227 = DIRECTION ( 'NONE',  ( 1.000000000000000000, 0.000000000000000000, 3.077090977655027630E-16 ) ) ;
#228 = CIRCLE ( 'NONE', #38, 16.85000000000000497 ) ;
#229 = CARTESIAN_POINT ( 'NONE',  ( -2.632306937433184636E-13, 0.000000000000000000, -88.84999999999999432 ) ) ;
#230 = CIRCLE ( 'NONE', #189, 86.84999999999999432 ) ;
#231 = CARTESIAN_POINT ( 'NONE',  ( -2.150035048105706026E-13, 0.000000000000000000, -72.00000000000000000 ) ) ;
#232 = PRODUCT_DEFINITION ( 'UNKNOWN', '', #137, #73 ) ;
#233 = CC_DESIGN_APPROVAL ( #190, ( #137 ) ) ;
#234 = APPROVAL_DATE_TIME ( #128, #3 ) ;
#235 = COORDINATED_UNIVERSAL_TIME_OFFSET ( 1, 0, .AHEAD. ) ;
#236 = VERTEX_POINT ( 'NONE', #93 ) ;
#237 = PERSON_AND_ORGANIZATION_ROLE ( 'design_supplier' ) ;
#238 = ORIENTED_EDGE ( 'NONE', *, *, #8, .T. ) ;
#239 = CC_DESIGN_APPROVAL ( #155, ( #141 ) ) ;
#240 = TOROIDAL_SURFACE ( 'NONE', #150, 72.00000000000000000, 14.85000000000000320 ) ;
#241 = ORIENTED_EDGE ( 'NONE', *, *, #47, .T. ) ;
#242 = LOCAL_TIME ( 10, 45, 41.00000000000000000, #142 ) ;
#243 = ORIENTED_EDGE ( 'NONE', *, *, #178, .F. ) ;
#244 = EDGE_CURVE ( 'NONE', #236, #130, #102, .T. ) ;
#245 = DIRECTION ( 'NONE',  ( 0.000000000000000000, 0.000000000000000000, 1.000000000000000000 ) ) ;
#246 = APPROVAL_PERSON_ORGANIZATION ( #22, #190, #212 ) ;
#247 = CARTESIAN_POINT ( 'NONE',  ( -2.060746352022458407E-13, 0.000000000000000000, -72.00000000000000000 ) ) ;
#248 =( LENGTH_UNIT ( ) NAMED_UNIT ( * ) SI_UNIT ( .MILLI., .METRE. ) );
#249 = PERSON_AND_ORGANIZATION ( #54, #26 ) ;
#250 = CC_DESIGN_APPROVAL ( #3, ( #232 ) ) ;
#251 = PERSON_AND_ORGANIZATION_ROLE ( 'creator' ) ;
#252 = ORIENTED_EDGE ( 'NONE', *, *, #221, .F. ) ;
#253 = DIRECTION ( 'NONE',  ( 0.000000000000000000, 1.000000000000000000, 0.000000000000000000 ) ) ;
ENDSEC;
END-ISO-10303-21;
