ISO-10303-21;
HEADER;
/****************************************************************
 * Generated by software with PDElib inside                    *
 * PDElib Version v51a, created Wed 07/06/2011                  *
 * ITI Transcendata (http://www.transcendata.com/)              *
 ****************************************************************/
FILE_DESCRIPTION(('Ferrule_25,4x1,65_L28,7_FL50,5_V03'),'2;1');
FILE_NAME('Ferrule_25,4x1,65_L28,7_FL50,5_V03.stp','2013-11-03T13:13:51',('DOCKWEILER AG'),('DOCKWEILER AG'),'Autodesk Inventor 2012','Autodesk Inventor 2012','');
FILE_SCHEMA(('CONFIG_CONTROL_DESIGN'));
ENDSEC;
DATA;
#5=APPLICATION_CONTEXT('configuration controlled 3D designs of mechanical parts and assemblies');
#6=APPLICATION_PROTOCOL_DEFINITION('International Standard','ap203_configuration_controlled_3d_design_of_mechanical_parts_and_assemblies_mim_lf',2004,#5);
#7=PRODUCT_CONTEXT('',#5,'mechanical');
#8=PRODUCT('N0003_003_001','N0003_003_001',$,(#7));
#9=PRODUCT_RELATED_PRODUCT_CATEGORY('part',$,(#8));
#10=PRODUCT_DEFINITION_FORMATION('',$,#8);
#11=PRODUCT_DEFINITION_CONTEXT('part definition',#5,'design');
#12=PRODUCT_DEFINITION('',$,#10,#11);
#18=(NAMED_UNIT(*)PLANE_ANGLE_UNIT()SI_UNIT($,.RADIAN.));
#19=DIMENSIONAL_EXPONENTS(0.0,0.0,0.0,0.0,0.0,0.0,0.0);
#20=PLANE_ANGLE_MEASURE_WITH_UNIT(PLANE_ANGLE_MEASURE(0.0174532925),#18);
#24=(CONVERSION_BASED_UNIT('DEGREE',#20)NAMED_UNIT(#19)PLANE_ANGLE_UNIT());
#28=(NAMED_UNIT(*)SI_UNIT($,.STERADIAN.)SOLID_ANGLE_UNIT());
#32=(LENGTH_UNIT()NAMED_UNIT(*)SI_UNIT(.MILLI.,.METRE.));
#34=UNCERTAINTY_MEASURE_WITH_UNIT(LENGTH_MEASURE(0.01),#32,'DISTANCE_ACCURACY_VALUE','');
#36=(GEOMETRIC_REPRESENTATION_CONTEXT(3)GLOBAL_UNCERTAINTY_ASSIGNED_CONTEXT((#34))GLOBAL_UNIT_ASSIGNED_CONTEXT((#24,#28,#32))REPRESENTATION_CONTEXT('None','None'));
#37=AXIS2_PLACEMENT_3D('',#38,#39,#40);
#38=CARTESIAN_POINT('',(0.0,0.0,0.0));
#39=DIRECTION('',(0.0,0.0,1.0));
#40=DIRECTION('',(1.0,0.0,0.0));
#41=SHAPE_REPRESENTATION('',(#37),#36);
#42=PRODUCT_DEFINITION_SHAPE('','',#12);
#43=SHAPE_DEFINITION_REPRESENTATION(#42,#41);
#49=(NAMED_UNIT(*)PLANE_ANGLE_UNIT()SI_UNIT($,.RADIAN.));
#50=DIMENSIONAL_EXPONENTS(0.0,0.0,0.0,0.0,0.0,0.0,0.0);
#51=PLANE_ANGLE_MEASURE_WITH_UNIT(PLANE_ANGLE_MEASURE(0.0174532925),#49);
#55=(CONVERSION_BASED_UNIT('DEGREE',#51)NAMED_UNIT(#50)PLANE_ANGLE_UNIT());
#59=(NAMED_UNIT(*)SI_UNIT($,.STERADIAN.)SOLID_ANGLE_UNIT());
#63=(LENGTH_UNIT()NAMED_UNIT(*)SI_UNIT(.MILLI.,.METRE.));
#65=UNCERTAINTY_MEASURE_WITH_UNIT(LENGTH_MEASURE(0.000001),#63,'DISTANCE_ACCURACY_VALUE','');
#67=(GEOMETRIC_REPRESENTATION_CONTEXT(3)GLOBAL_UNCERTAINTY_ASSIGNED_CONTEXT((#65))GLOBAL_UNIT_ASSIGNED_CONTEXT((#55,#59,#63))REPRESENTATION_CONTEXT('','3D'));
#68=CARTESIAN_POINT('',(11.874999999999996,28.700000000000003,0.0));
#69=DIRECTION('',(0.0,1.0,0.0));
#70=DIRECTION('',(0.0,0.0,1.0));
#71=AXIS2_PLACEMENT_3D('',#68,#69,#70);
#72=PLANE('',#71);
#73=CARTESIAN_POINT('',(12.699999999999996,28.700000000000006,0.0));
#74=VERTEX_POINT('',#73);
#75=CARTESIAN_POINT('',(0.0,28.700000000000006,0.0));
#76=DIRECTION('',(0.0,-1.0,0.0));
#77=DIRECTION('',(1.0,0.0,0.0));
#78=AXIS2_PLACEMENT_3D('',#75,#76,#77);
#79=CIRCLE('',#78,12.699999999999996);
#80=EDGE_CURVE('',#74,#74,#79,.T.);
#81=ORIENTED_EDGE('',*,*,#80,.F.);
#82=EDGE_LOOP('',(#81));
#83=FACE_OUTER_BOUND('',#82,.T.);
#84=CARTESIAN_POINT('',(11.049999999999995,28.700000000000003,0.0));
#85=VERTEX_POINT('',#84);
#86=CARTESIAN_POINT('',(0.0,28.700000000000003,0.0));
#87=DIRECTION('',(0.0,-1.0,0.0));
#88=DIRECTION('',(1.0,0.0,0.0));
#89=AXIS2_PLACEMENT_3D('',#86,#87,#88);
#90=CIRCLE('',#89,11.049999999999995);
#91=EDGE_CURVE('',#85,#85,#90,.T.);
#92=ORIENTED_EDGE('',*,*,#91,.T.);
#93=EDGE_LOOP('',(#92));
#94=FACE_BOUND('',#93,.T.);
#95=ADVANCED_FACE('',(#83,#94),#72,.T.);
#96=CARTESIAN_POINT('',(0.0,18.759120758230129,0.0));
#97=DIRECTION('',(0.0,-1.0,0.0));
#98=DIRECTION('',(1.0,0.0,0.0));
#99=AXIS2_PLACEMENT_3D('',#96,#97,#98);
#100=CYLINDRICAL_SURFACE('',#99,12.699999999999999);
#101=CARTESIAN_POINT('',(12.700000000000005,8.818241516460255,0.0));
#102=VERTEX_POINT('',#101);
#103=CARTESIAN_POINT('',(0.0,8.818241516460255,0.0));
#104=DIRECTION('',(0.0,-1.0,0.0));
#105=DIRECTION('',(1.0,0.0,0.0));
#106=AXIS2_PLACEMENT_3D('',#103,#104,#105);
#107=CIRCLE('',#106,12.700000000000005);
#108=EDGE_CURVE('',#102,#102,#107,.T.);
#109=ORIENTED_EDGE('',*,*,#108,.F.);
#110=EDGE_LOOP('',(#109));
#111=FACE_OUTER_BOUND('',#110,.T.);
#112=ORIENTED_EDGE('',*,*,#80,.T.);
#113=EDGE_LOOP('',(#112));
#114=FACE_BOUND('',#113,.T.);
#115=ADVANCED_FACE('',(#111,#114),#100,.T.);
#116=CARTESIAN_POINT('',(0.0,8.818241516460256,0.0));
#117=DIRECTION('',(0.0,-1.0,0.0));
#118=DIRECTION('',(0.0,0.0,-1.0));
#119=AXIS2_PLACEMENT_3D('',#116,#117,#118);
#120=TOROIDAL_SURFACE('',#119,14.700000000000006,2.0);
#121=CARTESIAN_POINT('',(14.01595971334867,6.938856274888439,0.0));
#122=VERTEX_POINT('',#121);
#123=CARTESIAN_POINT('',(0.0,6.938856274888439,0.0));
#124=DIRECTION('',(0.0,-1.0,0.0));
#125=DIRECTION('',(1.0,0.0,0.0));
#126=AXIS2_PLACEMENT_3D('',#123,#124,#125);
#127=CIRCLE('',#126,14.01595971334867);
#128=EDGE_CURVE('',#122,#122,#127,.T.);
#129=ORIENTED_EDGE('',*,*,#128,.F.);
#130=EDGE_LOOP('',(#129));
#131=FACE_OUTER_BOUND('',#130,.T.);
#132=ORIENTED_EDGE('',*,*,#108,.T.);
#133=EDGE_LOOP('',(#132));
#134=FACE_BOUND('',#133,.T.);
#135=ADVANCED_FACE('',(#131,#134),#120,.F.);
#136=CARTESIAN_POINT('',(0.0,4.990222170474699,0.0));
#137=DIRECTION('',(0.0,-1.0,0.0));
#138=DIRECTION('',(1.0,0.0,0.0));
#139=AXIS2_PLACEMENT_3D('',#136,#137,#138);
#140=CONICAL_SURFACE('',#139,19.369787914004604,70.000000000000014);
#141=CARTESIAN_POINT('',(24.72361611466054,3.041588066060959,0.0));
#142=VERTEX_POINT('',#141);
#143=CARTESIAN_POINT('',(0.0,3.041588066060959,0.0));
#144=DIRECTION('',(0.0,-1.0,0.0));
#145=DIRECTION('',(1.0,0.0,0.0));
#146=AXIS2_PLACEMENT_3D('',#143,#144,#145);
#147=CIRCLE('',#146,24.72361611466054);
#148=EDGE_CURVE('',#142,#142,#147,.T.);
#149=ORIENTED_EDGE('',*,*,#148,.F.);
#150=EDGE_LOOP('',(#149));
#151=FACE_OUTER_BOUND('',#150,.T.);
#152=ORIENTED_EDGE('',*,*,#128,.T.);
#153=EDGE_LOOP('',(#152));
#154=FACE_BOUND('',#153,.T.);
#155=ADVANCED_FACE('',(#151,#154),#140,.T.);
#156=CARTESIAN_POINT('',(0.0,2.289833969432235,0.0));
#157=DIRECTION('',(0.0,-1.0,0.0));
#158=DIRECTION('',(0.0,0.0,-1.0));
#159=AXIS2_PLACEMENT_3D('',#156,#157,#158);
#160=TOROIDAL_SURFACE('',#159,24.450000000000003,0.8);
#161=CARTESIAN_POINT('',(25.250000000000004,2.289833969432235,0.0));
#162=VERTEX_POINT('',#161);
#163=CARTESIAN_POINT('',(0.0,2.289833969432235,0.0));
#164=DIRECTION('',(0.0,-1.0,0.0));
#165=DIRECTION('',(1.0,0.0,0.0));
#166=AXIS2_PLACEMENT_3D('',#163,#164,#165);
#167=CIRCLE('',#166,25.250000000000004);
#168=EDGE_CURVE('',#162,#162,#167,.T.);
#169=ORIENTED_EDGE('',*,*,#168,.F.);
#170=EDGE_LOOP('',(#169));
#171=FACE_OUTER_BOUND('',#170,.T.);
#172=ORIENTED_EDGE('',*,*,#148,.T.);
#173=EDGE_LOOP('',(#172));
#174=FACE_BOUND('',#173,.T.);
#175=ADVANCED_FACE('',(#171,#174),#160,.T.);
#176=CARTESIAN_POINT('',(0.0,1.144916984716118,0.0));
#177=DIRECTION('',(0.0,-1.0,0.0));
#178=DIRECTION('',(1.0,0.0,0.0));
#179=AXIS2_PLACEMENT_3D('',#176,#177,#178);
#180=CYLINDRICAL_SURFACE('',#179,25.250000000000004);
#181=CARTESIAN_POINT('',(25.250000000000004,1.665335E-015,0.0));
#182=VERTEX_POINT('',#181);
#183=CARTESIAN_POINT('',(0.0,1.665335E-015,0.0));
#184=DIRECTION('',(0.0,-1.0,0.0));
#185=DIRECTION('',(1.0,0.0,0.0));
#186=AXIS2_PLACEMENT_3D('',#183,#184,#185);
#187=CIRCLE('',#186,25.250000000000004);
#188=EDGE_CURVE('',#182,#182,#187,.T.);
#189=ORIENTED_EDGE('',*,*,#188,.F.);
#190=EDGE_LOOP('',(#189));
#191=FACE_OUTER_BOUND('',#190,.T.);
#192=ORIENTED_EDGE('',*,*,#168,.T.);
#193=EDGE_LOOP('',(#192));
#194=FACE_BOUND('',#193,.T.);
#195=ADVANCED_FACE('',(#191,#194),#180,.T.);
#196=CARTESIAN_POINT('',(24.501465414163381,1.665335E-015,0.0));
#197=DIRECTION('',(0.0,-1.0,0.0));
#198=DIRECTION('',(0.0,0.0,-1.0));
#199=AXIS2_PLACEMENT_3D('',#196,#197,#198);
#200=PLANE('',#199);
#201=ORIENTED_EDGE('',*,*,#188,.T.);
#202=EDGE_LOOP('',(#201));
#203=FACE_OUTER_BOUND('',#202,.T.);
#204=CARTESIAN_POINT('',(23.752930828326761,1.665335E-015,0.0));
#205=VERTEX_POINT('',#204);
#206=CARTESIAN_POINT('',(0.0,1.665335E-015,0.0));
#207=DIRECTION('',(0.0,-1.0,0.0));
#208=DIRECTION('',(1.0,0.0,0.0));
#209=AXIS2_PLACEMENT_3D('',#206,#207,#208);
#210=CIRCLE('',#209,23.752930828326761);
#211=EDGE_CURVE('',#205,#205,#210,.T.);
#212=ORIENTED_EDGE('',*,*,#211,.F.);
#213=EDGE_LOOP('',(#212));
#214=FACE_BOUND('',#213,.T.);
#215=ADVANCED_FACE('',(#203,#214),#200,.T.);
#216=CARTESIAN_POINT('',(0.0,0.800000000000002,0.0));
#217=DIRECTION('',(0.0,-1.0,0.0));
#218=DIRECTION('',(0.0,0.0,-1.0));
#219=AXIS2_PLACEMENT_3D('',#216,#217,#218);
#220=TOROIDAL_SURFACE('',#219,23.752930828326761,0.8);
#221=CARTESIAN_POINT('',(23.016526945564806,0.487415097208581,0.0));
#222=VERTEX_POINT('',#221);
#223=CARTESIAN_POINT('',(0.0,0.487415097208581,0.0));
#224=DIRECTION('',(0.0,-1.0,0.0));
#225=DIRECTION('',(1.0,0.0,0.0));
#226=AXIS2_PLACEMENT_3D('',#223,#224,#225);
#227=CIRCLE('',#226,23.016526945564806);
#228=EDGE_CURVE('',#222,#222,#227,.T.);
#229=ORIENTED_EDGE('',*,*,#228,.F.);
#230=EDGE_LOOP('',(#229));
#231=FACE_OUTER_BOUND('',#230,.T.);
#232=ORIENTED_EDGE('',*,*,#211,.T.);
#233=EDGE_LOOP('',(#232));
#234=FACE_BOUND('',#233,.T.);
#235=ADVANCED_FACE('',(#231,#234),#220,.T.);
#236=CARTESIAN_POINT('',(0.0,0.678146225697859,0.0));
#237=DIRECTION('',(0.0,-1.0,0.0));
#238=DIRECTION('',(1.0,0.0,0.0));
#239=AXIS2_PLACEMENT_3D('',#236,#237,#238);
#240=CONICAL_SURFACE('',#239,22.935566384853864,23.000000000001116);
#241=CARTESIAN_POINT('',(22.854605824142922,0.868877354187136,0.0));
#242=VERTEX_POINT('',#241);
#243=CARTESIAN_POINT('',(0.0,0.868877354187136,0.0));
#244=DIRECTION('',(0.0,-1.0,0.0));
#245=DIRECTION('',(1.0,0.0,0.0));
#246=AXIS2_PLACEMENT_3D('',#243,#244,#245);
#247=CIRCLE('',#246,22.854605824142922);
#248=EDGE_CURVE('',#242,#242,#247,.T.);
#249=ORIENTED_EDGE('',*,*,#248,.F.);
#250=EDGE_LOOP('',(#249));
#251=FACE_OUTER_BOUND('',#250,.T.);
#252=ORIENTED_EDGE('',*,*,#228,.T.);
#253=EDGE_LOOP('',(#252));
#254=FACE_BOUND('',#253,.T.);
#255=ADVANCED_FACE('',(#251,#254),#240,.F.);
#256=CARTESIAN_POINT('',(0.0,0.400000000000006,0.0));
#257=DIRECTION('',(0.0,-1.0,0.0));
#258=DIRECTION('',(0.0,0.0,-1.0));
#259=AXIS2_PLACEMENT_3D('',#256,#257,#258);
#260=TOROIDAL_SURFACE('',#259,21.75,1.2);
#261=CARTESIAN_POINT('',(20.645394175857071,0.868877354187135,0.0));
#262=VERTEX_POINT('',#261);
#263=CARTESIAN_POINT('',(0.0,0.868877354187135,0.0));
#264=DIRECTION('',(0.0,-1.0,0.0));
#265=DIRECTION('',(1.0,0.0,0.0));
#266=AXIS2_PLACEMENT_3D('',#263,#264,#265);
#267=CIRCLE('',#266,20.645394175857071);
#268=EDGE_CURVE('',#262,#262,#267,.T.);
#269=ORIENTED_EDGE('',*,*,#268,.F.);
#270=EDGE_LOOP('',(#269));
#271=FACE_OUTER_BOUND('',#270,.T.);
#272=ORIENTED_EDGE('',*,*,#248,.T.);
#273=EDGE_LOOP('',(#272));
#274=FACE_BOUND('',#273,.T.);
#275=ADVANCED_FACE('',(#271,#274),#260,.F.);
#276=CARTESIAN_POINT('',(0.0,0.678146225697858,0.0));
#277=DIRECTION('',(0.0,1.0,0.0));
#278=DIRECTION('',(1.0,0.0,0.0));
#279=AXIS2_PLACEMENT_3D('',#276,#277,#278);
#280=CONICAL_SURFACE('',#279,20.564433615146132,23.00000000000108);
#281=CARTESIAN_POINT('',(20.483473054435191,0.48741509720858,0.0));
#282=VERTEX_POINT('',#281);
#283=CARTESIAN_POINT('',(0.0,0.48741509720858,0.0));
#284=DIRECTION('',(0.0,-1.0,0.0));
#285=DIRECTION('',(1.0,0.0,0.0));
#286=AXIS2_PLACEMENT_3D('',#283,#284,#285);
#287=CIRCLE('',#286,20.483473054435191);
#288=EDGE_CURVE('',#282,#282,#287,.T.);
#289=ORIENTED_EDGE('',*,*,#288,.F.);
#290=EDGE_LOOP('',(#289));
#291=FACE_OUTER_BOUND('',#290,.T.);
#292=ORIENTED_EDGE('',*,*,#268,.T.);
#293=EDGE_LOOP('',(#292));
#294=FACE_BOUND('',#293,.T.);
#295=ADVANCED_FACE('',(#291,#294),#280,.T.);
#296=CARTESIAN_POINT('',(0.0,0.799999999999997,0.0));
#297=DIRECTION('',(0.0,-1.0,0.0));
#298=DIRECTION('',(0.0,0.0,-1.0));
#299=AXIS2_PLACEMENT_3D('',#296,#297,#298);
#300=TOROIDAL_SURFACE('',#299,19.747069171673246,0.8);
#301=CARTESIAN_POINT('',(19.747069171673246,-3.538714E-015,0.0));
#302=VERTEX_POINT('',#301);
#303=CARTESIAN_POINT('',(0.0,-3.538836E-015,0.0));
#304=DIRECTION('',(0.0,-1.0,0.0));
#305=DIRECTION('',(1.0,0.0,0.0));
#306=AXIS2_PLACEMENT_3D('',#303,#304,#305);
#307=CIRCLE('',#306,19.747069171673246);
#308=EDGE_CURVE('',#302,#302,#307,.T.);
#309=ORIENTED_EDGE('',*,*,#308,.F.);
#310=EDGE_LOOP('',(#309));
#311=FACE_OUTER_BOUND('',#310,.T.);
#312=ORIENTED_EDGE('',*,*,#288,.T.);
#313=EDGE_LOOP('',(#312));
#314=FACE_BOUND('',#313,.T.);
#315=ADVANCED_FACE('',(#311,#314),#300,.T.);
#316=CARTESIAN_POINT('',(15.398534585836629,-2.445952E-015,0.0));
#317=DIRECTION('',(0.0,-1.0,0.0));
#318=DIRECTION('',(0.0,0.0,-1.0));
#319=AXIS2_PLACEMENT_3D('',#316,#317,#318);
#320=PLANE('',#319);
#321=ORIENTED_EDGE('',*,*,#308,.T.);
#322=EDGE_LOOP('',(#321));
#323=FACE_OUTER_BOUND('',#322,.T.);
#324=CARTESIAN_POINT('',(11.050000000000011,-1.353191E-015,0.0));
#325=VERTEX_POINT('',#324);
#326=CARTESIAN_POINT('',(0.0,-1.353084E-015,0.0));
#327=DIRECTION('',(0.0,-1.0,0.0));
#328=DIRECTION('',(1.0,0.0,0.0));
#329=AXIS2_PLACEMENT_3D('',#326,#327,#328);
#330=CIRCLE('',#329,11.050000000000011);
#331=EDGE_CURVE('',#325,#325,#330,.T.);
#332=ORIENTED_EDGE('',*,*,#331,.F.);
#333=EDGE_LOOP('',(#332));
#334=FACE_BOUND('',#333,.T.);
#335=ADVANCED_FACE('',(#323,#334),#320,.T.);
#336=CARTESIAN_POINT('',(0.0,14.350000000000001,0.0));
#337=DIRECTION('',(0.0,-1.0,0.0));
#338=DIRECTION('',(1.0,0.0,0.0));
#339=AXIS2_PLACEMENT_3D('',#336,#337,#338);
#340=CYLINDRICAL_SURFACE('',#339,11.050000000000004);
#341=ORIENTED_EDGE('',*,*,#91,.F.);
#342=EDGE_LOOP('',(#341));
#343=FACE_OUTER_BOUND('',#342,.T.);
#344=ORIENTED_EDGE('',*,*,#331,.T.);
#345=EDGE_LOOP('',(#344));
#346=FACE_BOUND('',#345,.T.);
#347=ADVANCED_FACE('',(#343,#346),#340,.F.);
#348=CLOSED_SHELL('',(#95,#115,#135,#155,#175,#195,#215,#235,#255,#275,#295,#315,#335,#347));
#349=MANIFOLD_SOLID_BREP('Volumenk\S\vrper1',#348);
#350=COLOUR_RGB('Metall - Stahl',0.639216005802155,0.639216005802155,0.686275005340576);
#351=FILL_AREA_STYLE_COLOUR('Metall - Stahl',#350);
#352=FILL_AREA_STYLE('Metall - Stahl',(#351));
#353=SURFACE_STYLE_FILL_AREA(#352);
#354=SURFACE_SIDE_STYLE('Metall - Stahl',(#353));
#355=SURFACE_STYLE_USAGE(.BOTH.,#354);
#356=PRESENTATION_STYLE_ASSIGNMENT((#355));
#357=STYLED_ITEM('',(#356),#349);
#358=MECHANICAL_DESIGN_GEOMETRIC_PRESENTATION_REPRESENTATION('',(#357),#36);
#359=ADVANCED_BREP_SHAPE_REPRESENTATION('ABSR',(#349),#36);
#360=SHAPE_REPRESENTATION_RELATIONSHIP('SRR','None',#359,#41);
ENDSEC;
END-ISO-10303-21;
