ISO-10303-21;
HEADER;
FILE_DESCRIPTION (( 'STEP AP203' ),
    '1' );
FILE_NAME ('3D-M2102P_17.2x1.5_174114010.STEP',
    '2024-09-05T09:14:54',
    ( '' ),
    ( '' ),
    'SwSTEP 2.0',
    'SolidWorks 2024',
    '' );
FILE_SCHEMA (( 'CONFIG_CONTROL_DESIGN' ));
ENDSEC;

DATA;
#1 = CC_DESIGN_APPROVAL ( #300, ( #217 ) ) ;
#2 = DIRECTION ( 'NONE',  ( -1.000000000000000000, -0.000000000000000000, -0.000000000000000000 ) ) ;
#3 = CARTESIAN_POINT ( 'NONE',  ( 1.000000000000000888, 7.347880794884119736E-16, 5.000000000000000000 ) ) ;
#4 = FACE_OUTER_BOUND ( 'NONE', #317, .T. ) ;
#5 = DIRECTION ( 'NONE',  ( 1.000000000000000000, 0.000000000000000000, 0.000000000000000000 ) ) ;
#6 = APPROVAL_DATE_TIME ( #74, #300 ) ;
#7 = ADVANCED_FACE ( 'NONE', ( #160 ), #365, .F. ) ;
#8 = DIRECTION ( 'NONE',  ( -1.000000000000000000, -0.000000000000000000, -0.000000000000000000 ) ) ;
#9 = SECURITY_CLASSIFICATION_LEVEL ( 'unclassified' ) ;
#10 = DIRECTION ( 'NONE',  ( -1.000000000000000000, -0.000000000000000000, -0.000000000000000000 ) ) ;
#11 = LOCAL_TIME ( 11, 14, 54.00000000000000000, #289 ) ;
#12 = DIRECTION ( 'NONE',  ( 0.000000000000000000, 0.000000000000000000, -1.000000000000000000 ) ) ;
#13 = ADVANCED_FACE ( 'NONE', ( #200 ), #98, .F. ) ;
#14 = EDGE_LOOP ( 'NONE', ( #310, #225 ) ) ;
#15 = CARTESIAN_POINT ( 'NONE',  ( 6.500000000000000000, 8.599999999999999645, 0.000000000000000000 ) ) ;
#16 = CARTESIAN_POINT ( 'NONE',  ( -16.64708581120227038, 1.053196247266723694E-15, -8.599999999999999645 ) ) ;
#17 = EDGE_CURVE ( 'NONE', #25, #286, #366, .T. ) ;
#18 = DIRECTION ( 'NONE',  ( -1.000000000000000000, 0.000000000000000000, -0.000000000000000000 ) ) ;
#19 = ORIENTED_EDGE ( 'NONE', *, *, #151, .T. ) ;
#20 = APPROVAL_ROLE ( '' ) ;
#21 = EDGE_LOOP ( 'NONE', ( #154, #398, #264, #347 ) ) ;
#22 = PERSON_AND_ORGANIZATION ( #134, #385 ) ;
#23 = ORIENTED_EDGE ( 'NONE', *, *, #275, .T. ) ;
#24 = DIRECTION ( 'NONE',  ( 0.000000000000000000, 0.000000000000000000, 1.000000000000000000 ) ) ;
#25 = VERTEX_POINT ( 'NONE', #3 ) ;
#26 = APPROVAL ( #92, 'UNSPECIFIED' ) ;
#27 = EDGE_LOOP ( 'NONE', ( #395, #62 ) ) ;
#28 = ORIENTED_EDGE ( 'NONE', *, *, #97, .F. ) ;
#29 = VERTEX_POINT ( 'NONE', #101 ) ;
#30 = CIRCLE ( 'NONE', #274, 5.000000000000000000 ) ;
#31 = DIRECTION ( 'NONE',  ( -1.000000000000000000, -0.000000000000000000, -0.000000000000000000 ) ) ;
#32 = FACE_OUTER_BOUND ( 'NONE', #428, .T. ) ;
#33 = CARTESIAN_POINT ( 'NONE',  ( -16.64708581120227038, 0.000000000000000000, 0.000000000000000000 ) ) ;
#34 = CALENDAR_DATE ( 2024, 5, 9 ) ;
#35 = EDGE_CURVE ( 'NONE', #291, #56, #36, .T. ) ;
#36 = CIRCLE ( 'NONE', #148, 14.00000000000000000 ) ;
#37 = AXIS2_PLACEMENT_3D ( 'NONE', #361, #198, #318 ) ;
#38 = CARTESIAN_POINT ( 'NONE',  ( 6.499999999999999112, 0.000000000000000000, 0.000000000000000000 ) ) ;
#39 = PERSON_AND_ORGANIZATION_ROLE ( 'design_supplier' ) ;
#40 = DIRECTION ( 'NONE',  ( 0.000000000000000000, 0.000000000000000000, 1.000000000000000000 ) ) ;
#41 = APPROVAL_DATE_TIME ( #210, #214 ) ;
#42 = EDGE_CURVE ( 'NONE', #358, #216, #243, .T. ) ;
#43 = LINE ( 'NONE', #16, #172 ) ;
#44 = ORIENTED_EDGE ( 'NONE', *, *, #161, .F. ) ;
#45 = AXIS2_PLACEMENT_3D ( 'NONE', #418, #251, #212 ) ;
#46 = DIRECTION ( 'NONE',  ( 0.000000000000000000, 0.000000000000000000, 1.000000000000000000 ) ) ;
#47 = EDGE_LOOP ( 'NONE', ( #321, #179 ) ) ;
#48 = FACE_OUTER_BOUND ( 'NONE', #165, .T. ) ;
#49 = PRODUCT ( '3D-M2102P_17.2x1.5_174114010', '3D-M2102P_17.2x1.5_174114010', '', ( #353 ) ) ;
#50 = ORIENTED_EDGE ( 'NONE', *, *, #414, .T. ) ;
#51 = DIRECTION ( 'NONE',  ( -1.000000000000000000, -0.000000000000000000, -0.000000000000000000 ) ) ;
#52 = ADVANCED_FACE ( 'NONE', ( #32 ), #383, .T. ) ;
#53 = CONICAL_SURFACE ( 'NONE', #350, 14.00000000000000000, 0.2617993877991505736 ) ;
#54 = DIRECTION ( 'NONE',  ( 0.9912279006826347771, 1.618538767728719094E-17, 0.1321637200910179555 ) ) ;
#55 = CARTESIAN_POINT ( 'NONE',  ( 16.00000000000000000, 0.000000000000000000, 0.000000000000000000 ) ) ;
#56 = VERTEX_POINT ( 'NONE', #242 ) ;
#57 = EDGE_CURVE ( 'NONE', #401, #228, #370, .T. ) ;
#58 = COORDINATED_UNIVERSAL_TIME_OFFSET ( 1, 0, .AHEAD. ) ;
#59 = ORIENTED_EDGE ( 'NONE', *, *, #166, .F. ) ;
#60 = DIRECTION ( 'NONE',  ( -1.000000000000000000, -0.000000000000000000, -0.000000000000000000 ) ) ;
#61 = LOCAL_TIME ( 11, 14, 54.00000000000000000, #58 ) ;
#62 = ORIENTED_EDGE ( 'NONE', *, *, #35, .F. ) ;
#63 = DIRECTION ( 'NONE',  ( 0.000000000000000000, 0.000000000000000000, 1.000000000000000000 ) ) ;
#64 = ORIENTED_EDGE ( 'NONE', *, *, #121, .T. ) ;
#65 = COORDINATED_UNIVERSAL_TIME_OFFSET ( 1, 0, .AHEAD. ) ;
#66 = ADVANCED_FACE ( 'NONE', ( #69 ), #138, .T. ) ;
#67 = DIRECTION ( 'NONE',  ( -1.000000000000000000, -0.000000000000000000, -0.000000000000000000 ) ) ;
#68 = DIRECTION ( 'NONE',  ( -1.000000000000000000, -0.000000000000000000, -0.000000000000000000 ) ) ;
#69 = FACE_OUTER_BOUND ( 'NONE', #219, .T. ) ;
#70 = FACE_OUTER_BOUND ( 'NONE', #14, .T. ) ;
#71 = PRODUCT_DEFINITION ( 'UNKNOWN', '', #344, #284 ) ;
#72 = DIRECTION ( 'NONE',  ( -1.000000000000000000, -0.000000000000000000, -0.000000000000000000 ) ) ;
#73 = CARTESIAN_POINT ( 'NONE',  ( 17.00000000000000000, 0.000000000000000000, 0.000000000000000000 ) ) ;
#74 = DATE_AND_TIME ( #173, #195 ) ;
#75 = CC_DESIGN_APPROVAL ( #26, ( #71 ) ) ;
#76 = CARTESIAN_POINT ( 'NONE',  ( 16.00000000000000000, 0.000000000000000000, 0.000000000000000000 ) ) ;
#77 = ADVANCED_FACE ( 'NONE', ( #4 ), #402, .T. ) ;
#78 = DIRECTION ( 'NONE',  ( 0.000000000000000000, 0.000000000000000000, 1.000000000000000000 ) ) ;
#79 = DIRECTION ( 'NONE',  ( 0.000000000000000000, 0.000000000000000000, 1.000000000000000000 ) ) ;
#80 = VECTOR ( 'NONE', #333, 1000.000000000000000 ) ;
#81 = CIRCLE ( 'NONE', #393, 12.25833024919769443 ) ;
#82 = CARTESIAN_POINT ( 'NONE',  ( -16.64708581120227038, 6.123233995736766282E-16, -5.000000000000000000 ) ) ;
#83 = EDGE_LOOP ( 'NONE', ( #258, #19 ) ) ;
#84 = CARTESIAN_POINT ( 'NONE',  ( 6.499999999999999112, 1.053196247266723694E-15, -8.599999999999999645 ) ) ;
#85 = ADVANCED_FACE ( 'NONE', ( #270 ), #53, .T. ) ;
#86 = CARTESIAN_POINT ( 'NONE',  ( 17.00000000000000000, 0.000000000000000000, 7.000000000000000000 ) ) ;
#87 = CIRCLE ( 'NONE', #343, 8.599999999999999645 ) ;
#88 =( LENGTH_UNIT ( ) NAMED_UNIT ( * ) SI_UNIT ( .MILLI., .METRE. ) );
#89 = CIRCLE ( 'NONE', #230, 14.00000000000000000 ) ;
#90 = DIRECTION ( 'NONE',  ( 0.000000000000000000, 0.000000000000000000, 1.000000000000000000 ) ) ;
#91 = EDGE_CURVE ( 'NONE', #401, #25, #208, .T. ) ;
#92 = APPROVAL_STATUS ( 'not_yet_approved' ) ;
#93 = ORIENTED_EDGE ( 'NONE', *, *, #17, .T. ) ;
#94 = CARTESIAN_POINT ( 'NONE',  ( 6.499999999999999112, 0.000000000000000000, 0.000000000000000000 ) ) ;
#95 = VERTEX_POINT ( 'NONE', #137 ) ;
#96 =( NAMED_UNIT ( * ) PLANE_ANGLE_UNIT ( ) SI_UNIT ( $, .RADIAN. ) );
#97 = EDGE_CURVE ( 'NONE', #216, #358, #87, .T. ) ;
#98 = CYLINDRICAL_SURFACE ( 'NONE', #335, 7.000000000000000000 ) ;
#99 = APPLICATION_PROTOCOL_DEFINITION ( 'international standard', 'config_control_design', 1994, #325 ) ;
#100 = ORIENTED_EDGE ( 'NONE', *, *, #42, .T. ) ;
#101 = CARTESIAN_POINT ( 'NONE',  ( 0.000000000000000000, 6.123233995736766282E-16, -5.000000000000000000 ) ) ;
#102 = DIRECTION ( 'NONE',  ( -1.000000000000000000, -0.000000000000000000, -0.000000000000000000 ) ) ;
#103 = CC_DESIGN_PERSON_AND_ORGANIZATION_ASSIGNMENT ( #177, #334, ( #217 ) ) ;
#104 = LINE ( 'NONE', #407, #130 ) ;
#105 = CALENDAR_DATE ( 2024, 5, 9 ) ;
#106 = DIRECTION ( 'NONE',  ( -1.000000000000000000, -0.000000000000000000, -0.000000000000000000 ) ) ;
#107 = SHAPE_DEFINITION_REPRESENTATION ( #381, #355 ) ;
#108 = DIRECTION ( 'NONE',  ( 0.000000000000000000, 0.000000000000000000, 1.000000000000000000 ) ) ;
#109 = APPROVAL_STATUS ( 'not_yet_approved' ) ;
#110 = CIRCLE ( 'NONE', #307, 7.000000000000000000 ) ;
#111 = AXIS2_PLACEMENT_3D ( 'NONE', #252, #181, #387 ) ;
#112 = CARTESIAN_POINT ( 'NONE',  ( 0.000000000000000000, 1.607859004531704006E-15, 12.25833024919769443 ) ) ;
#113 = DIRECTION ( 'NONE',  ( -1.000000000000000000, -0.000000000000000000, -0.000000000000000000 ) ) ;
#114 = ORIENTED_EDGE ( 'NONE', *, *, #201, .F. ) ;
#115 = DIRECTION ( 'NONE',  ( -1.000000000000000000, -0.000000000000000000, -0.000000000000000000 ) ) ;
#116 = ORIENTED_EDGE ( 'NONE', *, *, #129, .T. ) ;
#117 = CC_DESIGN_PERSON_AND_ORGANIZATION_ASSIGNMENT ( #293, #162, ( #49 ) ) ;
#118 = CYLINDRICAL_SURFACE ( 'NONE', #143, 7.000000000000000000 ) ;
#119 = PLANE ( 'NONE',  #405 ) ;
#120 = DIRECTION ( 'NONE',  ( 0.000000000000000000, 0.000000000000000000, 1.000000000000000000 ) ) ;
#121 = EDGE_CURVE ( 'NONE', #95, #351, #314, .T. ) ;
#122 = DIRECTION ( 'NONE',  ( 0.9659258262890679791, 0.000000000000000000, -0.2588190451025218497 ) ) ;
#123 = VECTOR ( 'NONE', #152, 1000.000000000000000 ) ;
#124 = ORIENTED_EDGE ( 'NONE', *, *, #246, .F. ) ;
#125 = APPROVAL_ROLE ( '' ) ;
#126 = ORIENTED_EDGE ( 'NONE', *, *, #166, .T. ) ;
#127 = CARTESIAN_POINT ( 'NONE',  ( -16.64708581120227038, 0.000000000000000000, 7.000000000000000000 ) ) ;
#128 = CARTESIAN_POINT ( 'NONE',  ( -16.64708581120227038, 0.000000000000000000, 0.000000000000000000 ) ) ;
#129 = EDGE_CURVE ( 'NONE', #213, #291, #104, .T. ) ;
#130 = VECTOR ( 'NONE', #207, 1000.000000000000000 ) ;
#131 = APPROVAL_PERSON_ORGANIZATION ( #22, #26, #20 ) ;
#132 = ORIENTED_EDGE ( 'NONE', *, *, #304, .T. ) ;
#133 = CARTESIAN_POINT ( 'NONE',  ( 6.499999999999999112, 0.000000000000000000, 0.000000000000000000 ) ) ;
#134 = PERSON ( 'UNSPECIFIED', 'UNSPECIFIED', 'UNSPECIFIED', ('UNSPECIFIED'), ('UNSPECIFIED'), ('UNSPECIFIED') ) ;
#135 = DIRECTION ( 'NONE',  ( 1.000000000000000000, 0.000000000000000000, 0.000000000000000000 ) ) ;
#136 = CC_DESIGN_PERSON_AND_ORGANIZATION_ASSIGNMENT ( #241, #339, ( #344 ) ) ;
#137 = CARTESIAN_POINT ( 'NONE',  ( 17.00000000000000000, 8.572527594031473190E-16, -7.000000000000000000 ) ) ;
#138 = CYLINDRICAL_SURFACE ( 'NONE', #222, 8.599999999999999645 ) ;
#139 = ADVANCED_FACE ( 'NONE', ( #170 ), #261, .F. ) ;
#140 = CARTESIAN_POINT ( 'NONE',  ( 17.00000000000000000, 0.000000000000000000, 0.000000000000000000 ) ) ;
#141 = DIRECTION ( 'NONE',  ( 0.000000000000000000, 0.000000000000000000, 1.000000000000000000 ) ) ;
#142 = AXIS2_PLACEMENT_3D ( 'NONE', #140, #410, #108 ) ;
#143 = AXIS2_PLACEMENT_3D ( 'NONE', #188, #415, #46 ) ;
#144 = CARTESIAN_POINT ( 'NONE',  ( -16.64708581120227038, 0.000000000000000000, 0.000000000000000000 ) ) ;
#145 = ORIENTED_EDGE ( 'NONE', *, *, #201, .T. ) ;
#146 = CARTESIAN_POINT ( 'NONE',  ( 17.00000000000000000, 0.000000000000000000, 8.599999999999999645 ) ) ;
#147 = CYLINDRICAL_SURFACE ( 'NONE', #419, 5.000000000000000000 ) ;
#148 = AXIS2_PLACEMENT_3D ( 'NONE', #38, #302, #238 ) ;
#149 = LINE ( 'NONE', #277, #411 ) ;
#150 = ORIENTED_EDGE ( 'NONE', *, *, #373, .F. ) ;
#151 = EDGE_CURVE ( 'NONE', #199, #324, #374, .T. ) ;
#152 = DIRECTION ( 'NONE',  ( -1.000000000000000000, -0.000000000000000000, -0.000000000000000000 ) ) ;
#153 = DATE_AND_TIME ( #283, #61 ) ;
#154 = ORIENTED_EDGE ( 'NONE', *, *, #129, .F. ) ;
#155 = CIRCLE ( 'NONE', #375, 12.25833024919769443 ) ;
#156 = APPROVAL_STATUS ( 'not_yet_approved' ) ;
#157 = LOCAL_TIME ( 11, 14, 54.00000000000000000, #65 ) ;
#158 = EDGE_LOOP ( 'NONE', ( #426, #132, #388, #231 ) ) ;
#159 =( NAMED_UNIT ( * ) SI_UNIT ( $, .STERADIAN. ) SOLID_ANGLE_UNIT ( ) );
#160 = FACE_OUTER_BOUND ( 'NONE', #290, .T. ) ;
#161 = EDGE_CURVE ( 'NONE', #351, #95, #202, .T. ) ;
#162 = PERSON_AND_ORGANIZATION_ROLE ( 'design_owner' ) ;
#163 = ORIENTED_EDGE ( 'NONE', *, *, #151, .F. ) ;
#164 = AXIS2_PLACEMENT_3D ( 'NONE', #345, #115, #141 ) ;
#165 = EDGE_LOOP ( 'NONE', ( #114, #223, #357, #59 ) ) ;
#166 = EDGE_CURVE ( 'NONE', #327, #228, #110, .T. ) ;
#167 = CARTESIAN_POINT ( 'NONE',  ( 17.00000000000000000, 0.000000000000000000, 0.000000000000000000 ) ) ;
#168 = MANIFOLD_SOLID_BREP ( 'Rotation1', #229 ) ;
#169 = CARTESIAN_POINT ( 'NONE',  ( 1.000000000000000888, 0.000000000000000000, 0.000000000000000000 ) ) ;
#170 = FACE_OUTER_BOUND ( 'NONE', #278, .T. ) ;
#171 = AXIS2_PLACEMENT_3D ( 'NONE', #169, #31, #266 ) ;
#172 = VECTOR ( 'NONE', #220, 1000.000000000000000 ) ;
#173 = CALENDAR_DATE ( 2024, 5, 9 ) ;
#174 = CARTESIAN_POINT ( 'NONE',  ( 6.499999999999999112, 0.000000000000000000, 0.000000000000000000 ) ) ;
#175 = PERSON_AND_ORGANIZATION ( #134, #385 ) ;
#176 = DIRECTION ( 'NONE',  ( 0.000000000000000000, 0.000000000000000000, 1.000000000000000000 ) ) ;
#177 = PERSON_AND_ORGANIZATION ( #134, #385 ) ;
#178 = CARTESIAN_POINT ( 'NONE',  ( 0.000000000000000000, 0.000000000000000000, 5.000000000000000000 ) ) ;
#179 = ORIENTED_EDGE ( 'NONE', *, *, #197, .F. ) ;
#180 = CIRCLE ( 'NONE', #45, 8.599999999999999645 ) ;
#181 = DIRECTION ( 'NONE',  ( 1.000000000000000000, 0.000000000000000000, 0.000000000000000000 ) ) ;
#182 = CC_DESIGN_PERSON_AND_ORGANIZATION_ASSIGNMENT ( #206, #39, ( #344 ) ) ;
#183 = FACE_BOUND ( 'NONE', #191, .T. ) ;
#184 = ORIENTED_EDGE ( 'NONE', *, *, #226, .T. ) ;
#185 = FACE_OUTER_BOUND ( 'NONE', #354, .T. ) ;
#186 = ORIENTED_EDGE ( 'NONE', *, *, #161, .T. ) ;
#187 = ADVANCED_FACE ( 'NONE', ( #369, #70 ), #338, .F. ) ;
#188 = CARTESIAN_POINT ( 'NONE',  ( -16.64708581120227038, 0.000000000000000000, 0.000000000000000000 ) ) ;
#189 = UNCERTAINTY_MEASURE_WITH_UNIT (LENGTH_MEASURE( 1.000000000000000082E-05 ), #88, 'distance_accuracy_value', 'NONE');
#190 = ORIENTED_EDGE ( 'NONE', *, *, #292, .F. ) ;
#191 = EDGE_LOOP ( 'NONE', ( #186, #64 ) ) ;
#192 = DATE_AND_TIME ( #356, #11 ) ;
#193 = ORIENTED_EDGE ( 'NONE', *, *, #234, .F. ) ;
#194 = AXIS2_PLACEMENT_3D ( 'NONE', #73, #102, #40 ) ;
#195 = LOCAL_TIME ( 11, 14, 54.00000000000000000, #371 ) ;
#196 = ORIENTED_EDGE ( 'NONE', *, *, #363, .T. ) ;
#197 = EDGE_CURVE ( 'NONE', #29, #286, #288, .T. ) ;
#198 = DIRECTION ( 'NONE',  ( 0.000000000000000000, 0.000000000000000000, 1.000000000000000000 ) ) ;
#199 = VERTEX_POINT ( 'NONE', #84 ) ;
#200 = FACE_OUTER_BOUND ( 'NONE', #416, .T. ) ;
#201 = EDGE_CURVE ( 'NONE', #25, #327, #149, .T. ) ;
#202 = CIRCLE ( 'NONE', #142, 7.000000000000000000 ) ;
#203 = DIRECTION ( 'NONE',  ( -1.000000000000000000, -0.000000000000000000, -0.000000000000000000 ) ) ;
#204 = LINE ( 'NONE', #276, #330 ) ;
#205 = CARTESIAN_POINT ( 'NONE',  ( -16.64708581120227038, 0.000000000000000000, 0.000000000000000000 ) ) ;
#206 = PERSON_AND_ORGANIZATION ( #134, #385 ) ;
#207 = DIRECTION ( 'NONE',  ( 0.9659258262890679791, 3.169619151431778500E-17, 0.2588190451025218497 ) ) ;
#208 = CIRCLE ( 'NONE', #171, 5.000000000000000000 ) ;
#209 = CC_DESIGN_APPROVAL ( #214, ( #344 ) ) ;
#210 = DATE_AND_TIME ( #105, #157 ) ;
#211 = DIRECTION ( 'NONE',  ( 0.000000000000000000, 0.000000000000000000, 1.000000000000000000 ) ) ;
#212 = DIRECTION ( 'NONE',  ( 0.000000000000000000, 0.000000000000000000, 1.000000000000000000 ) ) ;
#213 = VERTEX_POINT ( 'NONE', #112 ) ;
#214 = APPROVAL ( #156, 'UNSPECIFIED' ) ;
#215 = CARTESIAN_POINT ( 'NONE',  ( 0.000000000000000000, 0.000000000000000000, -12.25833024919769443 ) ) ;
#216 = VERTEX_POINT ( 'NONE', #313 ) ;
#217 = SECURITY_CLASSIFICATION ( '', '', #9 ) ;
#218 = CARTESIAN_POINT ( 'NONE',  ( 1.000000000000000888, 0.000000000000000000, 0.000000000000000000 ) ) ;
#219 = EDGE_LOOP ( 'NONE', ( #362, #297, #233, #163 ) ) ;
#220 = DIRECTION ( 'NONE',  ( -1.000000000000000000, -0.000000000000000000, -0.000000000000000000 ) ) ;
#221 = FACE_OUTER_BOUND ( 'NONE', #248, .T. ) ;
#222 = AXIS2_PLACEMENT_3D ( 'NONE', #205, #203, #268 ) ;
#223 = ORIENTED_EDGE ( 'NONE', *, *, #234, .T. ) ;
#224 = PERSON_AND_ORGANIZATION_ROLE ( 'creator' ) ;
#225 = ORIENTED_EDGE ( 'NONE', *, *, #420, .T. ) ;
#226 = EDGE_CURVE ( 'NONE', #286, #29, #30, .T. ) ;
#227 = CARTESIAN_POINT ( 'NONE',  ( 0.000000000000000000, 0.000000000000000000, 0.000000000000000000 ) ) ;
#228 = VERTEX_POINT ( 'NONE', #306 ) ;
#229 = CLOSED_SHELL ( 'NONE', ( #77, #52, #7, #139, #337, #13, #346, #287, #187, #85, #352, #66, #269 ) ) ;
#230 = AXIS2_PLACEMENT_3D ( 'NONE', #94, #316, #390 ) ;
#231 = ORIENTED_EDGE ( 'NONE', *, *, #414, .F. ) ;
#232 = DIRECTION ( 'NONE',  ( -1.000000000000000000, -0.000000000000000000, -0.000000000000000000 ) ) ;
#233 = ORIENTED_EDGE ( 'NONE', *, *, #292, .T. ) ;
#234 = EDGE_CURVE ( 'NONE', #25, #401, #329, .T. ) ;
#235 = CARTESIAN_POINT ( 'NONE',  ( 1.000000000000000888, 0.000000000000000000, -5.000000000000000000 ) ) ;
#236 = AXIS2_PLACEMENT_3D ( 'NONE', #167, #72, #372 ) ;
#237 = DIRECTION ( 'NONE',  ( -1.000000000000000000, -0.000000000000000000, -0.000000000000000000 ) ) ;
#238 = DIRECTION ( 'NONE',  ( 0.000000000000000000, 0.000000000000000000, 1.000000000000000000 ) ) ;
#239 = DATE_TIME_ROLE ( 'classification_date' ) ;
#240 = DIRECTION ( 'NONE',  ( 0.000000000000000000, 0.000000000000000000, -1.000000000000000000 ) ) ;
#241 = PERSON_AND_ORGANIZATION ( #134, #385 ) ;
#242 = CARTESIAN_POINT ( 'NONE',  ( 6.499999999999999112, 0.000000000000000000, -14.00000000000000000 ) ) ;
#243 = CIRCLE ( 'NONE', #236, 8.599999999999999645 ) ;
#244 = VECTOR ( 'NONE', #113, 1000.000000000000000 ) ;
#245 = FACE_OUTER_BOUND ( 'NONE', #27, .T. ) ;
#246 = EDGE_CURVE ( 'NONE', #324, #199, #180, .T. ) ;
#247 = CARTESIAN_POINT ( 'NONE',  ( 6.499999999999999112, 1.714505518806294638E-15, 14.00000000000000000 ) ) ;
#248 = EDGE_LOOP ( 'NONE', ( #380, #28 ) ) ;
#249 = CARTESIAN_POINT ( 'NONE',  ( 0.000000000000000000, 0.000000000000000000, 0.000000000000000000 ) ) ;
#250 = CONICAL_SURFACE ( 'NONE', #111, 5.000000000000000000, 0.1325515322966740184 ) ;
#251 = DIRECTION ( 'NONE',  ( -1.000000000000000000, -0.000000000000000000, -0.000000000000000000 ) ) ;
#252 = CARTESIAN_POINT ( 'NONE',  ( 1.000000000000000888, 0.000000000000000000, 0.000000000000000000 ) ) ;
#253 = ORIENTED_EDGE ( 'NONE', *, *, #304, .F. ) ;
#254 = AXIS2_PLACEMENT_3D ( 'NONE', #305, #386, #12 ) ;
#255 = LINE ( 'NONE', #127, #123 ) ;
#256 = ORIENTED_EDGE ( 'NONE', *, *, #420, .F. ) ;
#257 = CC_DESIGN_PERSON_AND_ORGANIZATION_ASSIGNMENT ( #394, #224, ( #71 ) ) ;
#258 = ORIENTED_EDGE ( 'NONE', *, *, #246, .T. ) ;
#259 = CARTESIAN_POINT ( 'NONE',  ( 1.000000000000000888, 0.000000000000000000, -5.000000000000000000 ) ) ;
#260 = DIRECTION ( 'NONE',  ( 0.000000000000000000, 0.000000000000000000, 1.000000000000000000 ) ) ;
#261 = CONICAL_SURFACE ( 'NONE', #417, 5.000000000000000000, 0.1325515322966740184 ) ;
#262 = VECTOR ( 'NONE', #232, 1000.000000000000000 ) ;
#263 = CARTESIAN_POINT ( 'NONE',  ( 0.000000000000000000, 0.000000000000000000, 0.000000000000000000 ) ) ;
#264 = ORIENTED_EDGE ( 'NONE', *, *, #373, .T. ) ;
#265 = DIRECTION ( 'NONE',  ( -1.000000000000000000, -0.000000000000000000, -0.000000000000000000 ) ) ;
#266 = DIRECTION ( 'NONE',  ( 0.000000000000000000, 0.000000000000000000, 1.000000000000000000 ) ) ;
#267 = CC_DESIGN_SECURITY_CLASSIFICATION ( #217, ( #344 ) ) ;
#268 = DIRECTION ( 'NONE',  ( 0.000000000000000000, 0.000000000000000000, 1.000000000000000000 ) ) ;
#269 = ADVANCED_FACE ( 'NONE', ( #221, #183 ), #119, .F. ) ;
#270 = FACE_OUTER_BOUND ( 'NONE', #21, .T. ) ;
#271 = DATE_AND_TIME ( #34, #322 ) ;
#272 = CARTESIAN_POINT ( 'NONE',  ( 17.00000000000000000, 0.000000000000000000, 0.000000000000000000 ) ) ;
#273 = CARTESIAN_POINT ( 'NONE',  ( 6.499999999999999112, 0.000000000000000000, 8.599999999999999645 ) ) ;
#274 = AXIS2_PLACEMENT_3D ( 'NONE', #249, #311, #413 ) ;
#275 = EDGE_CURVE ( 'NONE', #216, #199, #43, .T. ) ;
#276 = CARTESIAN_POINT ( 'NONE',  ( -16.64708581120227038, 0.000000000000000000, 8.599999999999999645 ) ) ;
#277 = CARTESIAN_POINT ( 'NONE',  ( 1.000000000000000888, 6.123233995736766282E-16, 5.000000000000000000 ) ) ;
#278 = EDGE_LOOP ( 'NONE', ( #424, #145, #319, #294 ) ) ;
#279 = DIRECTION ( 'NONE',  ( -0.000000000000000000, 0.000000000000000000, 1.000000000000000000 ) ) ;
#280 = APPLICATION_CONTEXT ( 'configuration controlled 3d designs of mechanical parts and assemblies' ) ;
#281 = AXIS2_PLACEMENT_3D ( 'NONE', #376, #5, #298 ) ;
#282 = DIRECTION ( 'NONE',  ( -0.000000000000000000, 0.000000000000000000, 1.000000000000000000 ) ) ;
#283 = CALENDAR_DATE ( 2024, 5, 9 ) ;
#284 = DESIGN_CONTEXT ( 'detailed design', #325, 'design' ) ;
#285 = APPROVAL_DATE_TIME ( #153, #26 ) ;
#286 = VERTEX_POINT ( 'NONE', #178 ) ;
#287 = ADVANCED_FACE ( 'NONE', ( #185 ), #147, .F. ) ;
#288 = CIRCLE ( 'NONE', #164, 5.000000000000000000 ) ;
#289 = COORDINATED_UNIVERSAL_TIME_OFFSET ( 1, 0, .AHEAD. ) ;
#290 = EDGE_LOOP ( 'NONE', ( #422, #196, #396, #392 ) ) ;
#291 = VERTEX_POINT ( 'NONE', #247 ) ;
#292 = EDGE_CURVE ( 'NONE', #358, #324, #204, .T. ) ;
#293 = PERSON_AND_ORGANIZATION ( #134, #385 ) ;
#294 = ORIENTED_EDGE ( 'NONE', *, *, #57, .F. ) ;
#295 = AXIS2_PLACEMENT_3D ( 'NONE', #174, #265, #303 ) ;
#296 =( GEOMETRIC_REPRESENTATION_CONTEXT ( 3 ) GLOBAL_UNCERTAINTY_ASSIGNED_CONTEXT ( ( #189 ) ) GLOBAL_UNIT_ASSIGNED_CONTEXT ( ( #88, #96, #159 ) ) REPRESENTATION_CONTEXT ( 'NONE', 'WORKASPACE' ) );
#297 = ORIENTED_EDGE ( 'NONE', *, *, #97, .T. ) ;
#298 = DIRECTION ( 'NONE',  ( 0.000000000000000000, 0.000000000000000000, -1.000000000000000000 ) ) ;
#299 = CARTESIAN_POINT ( 'NONE',  ( -16.64708581120227038, 0.000000000000000000, 5.000000000000000000 ) ) ;
#300 = APPROVAL ( #109, 'UNSPECIFIED' ) ;
#301 = APPROVAL_PERSON_ORGANIZATION ( #320, #214, #125 ) ;
#302 = DIRECTION ( 'NONE',  ( -1.000000000000000000, -0.000000000000000000, -0.000000000000000000 ) ) ;
#303 = DIRECTION ( 'NONE',  ( 0.000000000000000000, 0.000000000000000000, 1.000000000000000000 ) ) ;
#304 = EDGE_CURVE ( 'NONE', #95, #228, #342, .T. ) ;
#305 = CARTESIAN_POINT ( 'NONE',  ( 2.671288160659348189E-16, 12.25833024919769443, 0.000000000000000000 ) ) ;
#306 = CARTESIAN_POINT ( 'NONE',  ( 16.00000000000000000, 8.572527594031473190E-16, -7.000000000000000000 ) ) ;
#307 = AXIS2_PLACEMENT_3D ( 'NONE', #76, #237, #211 ) ;
#308 = VECTOR ( 'NONE', #122, 1000.000000000000000 ) ;
#309 = FACE_BOUND ( 'NONE', #83, .T. ) ;
#310 = ORIENTED_EDGE ( 'NONE', *, *, #403, .T. ) ;
#311 = DIRECTION ( 'NONE',  ( -1.000000000000000000, -0.000000000000000000, -0.000000000000000000 ) ) ;
#312 = VERTEX_POINT ( 'NONE', #215 ) ;
#313 = CARTESIAN_POINT ( 'NONE',  ( 17.00000000000000000, 1.053196247266723694E-15, -8.599999999999999645 ) ) ;
#314 = CIRCLE ( 'NONE', #194, 7.000000000000000000 ) ;
#315 = CIRCLE ( 'NONE', #400, 7.000000000000000000 ) ;
#316 = DIRECTION ( 'NONE',  ( -1.000000000000000000, -0.000000000000000000, -0.000000000000000000 ) ) ;
#317 = EDGE_LOOP ( 'NONE', ( #100, #23, #124, #190 ) ) ;
#318 = DIRECTION ( 'NONE',  ( 1.000000000000000000, 0.000000000000000000, 0.000000000000000000 ) ) ;
#319 = ORIENTED_EDGE ( 'NONE', *, *, #427, .F. ) ;
#320 = PERSON_AND_ORGANIZATION ( #134, #385 ) ;
#321 = ORIENTED_EDGE ( 'NONE', *, *, #226, .F. ) ;
#322 = LOCAL_TIME ( 11, 14, 54.00000000000000000, #377 ) ;
#323 = DIRECTION ( 'NONE',  ( -1.000000000000000000, -0.000000000000000000, -0.000000000000000000 ) ) ;
#324 = VERTEX_POINT ( 'NONE', #273 ) ;
#325 = APPLICATION_CONTEXT ( 'configuration controlled 3d designs of mechanical parts and assemblies' ) ;
#326 = APPLICATION_PROTOCOL_DEFINITION ( 'international standard', 'config_control_design', 1994, #280 ) ;
#327 = VERTEX_POINT ( 'NONE', #421 ) ;
#328 = CARTESIAN_POINT ( 'NONE',  ( -16.64708581120227038, 0.000000000000000000, 0.000000000000000000 ) ) ;
#329 = CIRCLE ( 'NONE', #367, 5.000000000000000000 ) ;
#330 = VECTOR ( 'NONE', #51, 1000.000000000000000 ) ;
#331 = DIRECTION ( 'NONE',  ( 1.000000000000000000, 0.000000000000000000, 0.000000000000000000 ) ) ;
#332 = DIRECTION ( 'NONE',  ( 0.9912279006826347771, 0.000000000000000000, -0.1321637200910179555 ) ) ;
#333 = DIRECTION ( 'NONE',  ( -1.000000000000000000, -0.000000000000000000, -0.000000000000000000 ) ) ;
#334 = PERSON_AND_ORGANIZATION_ROLE ( 'classification_officer' ) ;
#335 = AXIS2_PLACEMENT_3D ( 'NONE', #328, #2, #90 ) ;
#336 = CARTESIAN_POINT ( 'NONE',  ( 1.000000000000000888, 0.000000000000000000, 0.000000000000000000 ) ) ;
#337 = ADVANCED_FACE ( 'NONE', ( #412 ), #118, .F. ) ;
#338 = PLANE ( 'NONE',  #254 ) ;
#339 = PERSON_AND_ORGANIZATION_ROLE ( 'creator' ) ;
#340 = CARTESIAN_POINT ( 'NONE',  ( 17.00000000000000000, 8.599999999999999645, 0.000000000000000000 ) ) ;
#341 = ORIENTED_EDGE ( 'NONE', *, *, #35, .T. ) ;
#342 = LINE ( 'NONE', #379, #244 ) ;
#343 = AXIS2_PLACEMENT_3D ( 'NONE', #272, #106, #176 ) ;
#344 = PRODUCT_DEFINITION_FORMATION_WITH_SPECIFIED_SOURCE ( 'ANY', '', #49, .NOT_KNOWN. ) ;
#345 = CARTESIAN_POINT ( 'NONE',  ( 0.000000000000000000, 0.000000000000000000, 0.000000000000000000 ) ) ;
#346 = ADVANCED_FACE ( 'NONE', ( #48 ), #250, .F. ) ;
#347 = ORIENTED_EDGE ( 'NONE', *, *, #389, .T. ) ;
#348 = DIRECTION ( 'NONE',  ( -1.000000000000000000, -0.000000000000000000, -0.000000000000000000 ) ) ;
#349 = DIRECTION ( 'NONE',  ( -1.000000000000000000, 0.000000000000000000, -0.000000000000000000 ) ) ;
#350 = AXIS2_PLACEMENT_3D ( 'NONE', #133, #331, #240 ) ;
#351 = VERTEX_POINT ( 'NONE', #86 ) ;
#352 = ADVANCED_FACE ( 'NONE', ( #245, #309 ), #378, .F. ) ;
#353 = MECHANICAL_CONTEXT ( 'NONE', #280, 'mechanical' ) ;
#354 = EDGE_LOOP ( 'NONE', ( #429, #193, #93, #184 ) ) ;
#355 = ADVANCED_BREP_SHAPE_REPRESENTATION ( '3D-M2102P_17.2x1.5_174114010', ( #168, #37 ), #296 ) ;
#356 = CALENDAR_DATE ( 2024, 5, 9 ) ;
#357 = ORIENTED_EDGE ( 'NONE', *, *, #57, .T. ) ;
#358 = VERTEX_POINT ( 'NONE', #146 ) ;
#359 = AXIS2_PLACEMENT_3D ( 'NONE', #33, #8, #408 ) ;
#360 = AXIS2_PLACEMENT_3D ( 'NONE', #15, #349, #279 ) ;
#361 = CARTESIAN_POINT ( 'NONE',  ( 0.000000000000000000, 0.000000000000000000, 0.000000000000000000 ) ) ;
#362 = ORIENTED_EDGE ( 'NONE', *, *, #275, .F. ) ;
#363 = EDGE_CURVE ( 'NONE', #401, #29, #384, .T. ) ;
#364 = CARTESIAN_POINT ( 'NONE',  ( 6.499999999999999112, 0.000000000000000000, -14.00000000000000000 ) ) ;
#365 = CYLINDRICAL_SURFACE ( 'NONE', #391, 5.000000000000000000 ) ;
#366 = LINE ( 'NONE', #299, #80 ) ;
#367 = AXIS2_PLACEMENT_3D ( 'NONE', #218, #10, #78 ) ;
#368 = CC_DESIGN_DATE_AND_TIME_ASSIGNMENT ( #192, #425, ( #71 ) ) ;
#369 = FACE_BOUND ( 'NONE', #47, .T. ) ;
#370 = LINE ( 'NONE', #235, #399 ) ;
#371 = COORDINATED_UNIVERSAL_TIME_OFFSET ( 1, 0, .AHEAD. ) ;
#372 = DIRECTION ( 'NONE',  ( 0.000000000000000000, 0.000000000000000000, 1.000000000000000000 ) ) ;
#373 = EDGE_CURVE ( 'NONE', #312, #56, #423, .T. ) ;
#374 = CIRCLE ( 'NONE', #295, 8.599999999999999645 ) ;
#375 = AXIS2_PLACEMENT_3D ( 'NONE', #263, #60, #63 ) ;
#376 = CARTESIAN_POINT ( 'NONE',  ( 6.499999999999999112, 0.000000000000000000, 0.000000000000000000 ) ) ;
#377 = COORDINATED_UNIVERSAL_TIME_OFFSET ( 1, 0, .AHEAD. ) ;
#378 = PLANE ( 'NONE',  #360 ) ;
#379 = CARTESIAN_POINT ( 'NONE',  ( -16.64708581120227038, 8.572527594031473190E-16, -7.000000000000000000 ) ) ;
#380 = ORIENTED_EDGE ( 'NONE', *, *, #42, .F. ) ;
#381 = PRODUCT_DEFINITION_SHAPE ( 'NONE', 'NONE',  #71 ) ;
#382 = CC_DESIGN_DATE_AND_TIME_ASSIGNMENT ( #271, #239, ( #217 ) ) ;
#383 = CONICAL_SURFACE ( 'NONE', #281, 14.00000000000000000, 0.2617993877991505736 ) ;
#384 = LINE ( 'NONE', #82, #262 ) ;
#385 = ORGANIZATION ( 'UNSPECIFIED', 'UNSPECIFIED', '' ) ;
#386 = DIRECTION ( 'NONE',  ( 1.000000000000000000, 0.000000000000000000, 0.000000000000000000 ) ) ;
#387 = DIRECTION ( 'NONE',  ( 0.000000000000000000, 0.000000000000000000, -1.000000000000000000 ) ) ;
#388 = ORIENTED_EDGE ( 'NONE', *, *, #427, .T. ) ;
#389 = EDGE_CURVE ( 'NONE', #56, #291, #89, .T. ) ;
#390 = DIRECTION ( 'NONE',  ( 0.000000000000000000, 0.000000000000000000, 1.000000000000000000 ) ) ;
#391 = AXIS2_PLACEMENT_3D ( 'NONE', #128, #68, #260 ) ;
#392 = ORIENTED_EDGE ( 'NONE', *, *, #17, .F. ) ;
#393 = AXIS2_PLACEMENT_3D ( 'NONE', #227, #67, #120 ) ;
#394 = PERSON_AND_ORGANIZATION ( #134, #385 ) ;
#395 = ORIENTED_EDGE ( 'NONE', *, *, #389, .F. ) ;
#396 = ORIENTED_EDGE ( 'NONE', *, *, #197, .T. ) ;
#397 = PRODUCT_RELATED_PRODUCT_CATEGORY ( 'detail', '', ( #49 ) ) ;
#398 = ORIENTED_EDGE ( 'NONE', *, *, #403, .F. ) ;
#399 = VECTOR ( 'NONE', #332, 999.9999999999998863 ) ;
#400 = AXIS2_PLACEMENT_3D ( 'NONE', #55, #323, #24 ) ;
#401 = VERTEX_POINT ( 'NONE', #259 ) ;
#402 = CYLINDRICAL_SURFACE ( 'NONE', #359, 8.599999999999999645 ) ;
#403 = EDGE_CURVE ( 'NONE', #312, #213, #81, .T. ) ;
#404 = DIRECTION ( 'NONE',  ( 0.000000000000000000, 0.000000000000000000, -1.000000000000000000 ) ) ;
#405 = AXIS2_PLACEMENT_3D ( 'NONE', #340, #18, #282 ) ;
#406 = APPROVAL_PERSON_ORGANIZATION ( #175, #300, #409 ) ;
#407 = CARTESIAN_POINT ( 'NONE',  ( 6.499999999999999112, 1.714505518806294638E-15, 14.00000000000000000 ) ) ;
#408 = DIRECTION ( 'NONE',  ( 0.000000000000000000, 0.000000000000000000, 1.000000000000000000 ) ) ;
#409 = APPROVAL_ROLE ( '' ) ;
#410 = DIRECTION ( 'NONE',  ( -1.000000000000000000, -0.000000000000000000, -0.000000000000000000 ) ) ;
#411 = VECTOR ( 'NONE', #54, 999.9999999999998863 ) ;
#412 = FACE_OUTER_BOUND ( 'NONE', #158, .T. ) ;
#413 = DIRECTION ( 'NONE',  ( 0.000000000000000000, 0.000000000000000000, 1.000000000000000000 ) ) ;
#414 = EDGE_CURVE ( 'NONE', #351, #327, #255, .T. ) ;
#415 = DIRECTION ( 'NONE',  ( -1.000000000000000000, -0.000000000000000000, -0.000000000000000000 ) ) ;
#416 = EDGE_LOOP ( 'NONE', ( #253, #44, #50, #126 ) ) ;
#417 = AXIS2_PLACEMENT_3D ( 'NONE', #336, #135, #404 ) ;
#418 = CARTESIAN_POINT ( 'NONE',  ( 6.499999999999999112, 0.000000000000000000, 0.000000000000000000 ) ) ;
#419 = AXIS2_PLACEMENT_3D ( 'NONE', #144, #348, #79 ) ;
#420 = EDGE_CURVE ( 'NONE', #213, #312, #155, .T. ) ;
#421 = CARTESIAN_POINT ( 'NONE',  ( 16.00000000000000000, 0.000000000000000000, 7.000000000000000000 ) ) ;
#422 = ORIENTED_EDGE ( 'NONE', *, *, #91, .F. ) ;
#423 = LINE ( 'NONE', #364, #308 ) ;
#424 = ORIENTED_EDGE ( 'NONE', *, *, #91, .T. ) ;
#425 = DATE_TIME_ROLE ( 'creation_date' ) ;
#426 = ORIENTED_EDGE ( 'NONE', *, *, #121, .F. ) ;
#427 = EDGE_CURVE ( 'NONE', #228, #327, #315, .T. ) ;
#428 = EDGE_LOOP ( 'NONE', ( #256, #116, #341, #150 ) ) ;
#429 = ORIENTED_EDGE ( 'NONE', *, *, #363, .F. ) ;
ENDSEC;
END-ISO-10303-21;
