ISO-10303-21;
HEADER;
FILE_DESCRIPTION (( 'STEP AP203' ),
    '1' );
FILE_NAME ('3D_M8012_DN25_17481120.STEP',
    '2024-09-03T14:04:21',
    ( '' ),
    ( '' ),
    'SwSTEP 2.0',
    'SolidWorks 2024',
    '' );
FILE_SCHEMA (( 'CONFIG_CONTROL_DESIGN' ));
ENDSEC;

DATA;
#1 = ORIENTED_EDGE ( 'NONE', *, *, #126, .F. ) ;
#2 = PRODUCT ( '3D_M8012_DN25_17481120', '3D_M8012_DN25_17481120', '', ( #128 ) ) ;
#3 = APPROVAL ( #121, 'UNSPECIFIED' ) ;
#4 = CYLINDRICAL_SURFACE ( 'NONE', #184, 14.50000000000000000 ) ;
#5 = ADVANCED_FACE ( 'NONE', ( #174 ), #4, .T. ) ;
#6 = AXIS2_PLACEMENT_3D ( 'NONE', #58, #138, #209 ) ;
#7 = DIRECTION ( 'NONE',  ( 1.000000000000000000, 0.000000000000000000, 1.224646799147352961E-16 ) ) ;
#8 = VECTOR ( 'NONE', #44, 1000.000000000000000 ) ;
#9 = CC_DESIGN_PERSON_AND_ORGANIZATION_ASSIGNMENT ( #216, #64, ( #185 ) ) ;
#10 = CARTESIAN_POINT ( 'NONE',  ( 9.236488298952508525E-16, 0.000000000000000000, 0.000000000000000000 ) ) ;
#11 = FACE_OUTER_BOUND ( 'NONE', #137, .T. ) ;
#12 = LOCAL_TIME ( 16, 4, 21.00000000000000000, #100 ) ;
#13 = PERSON_AND_ORGANIZATION_ROLE ( 'design_owner' ) ;
#14 = ADVANCED_FACE ( 'NONE', ( #205 ), #115, .T. ) ;
#15 = ADVANCED_BREP_SHAPE_REPRESENTATION ( '3D_M8012_DN25_17481120', ( #87, #139 ), #149 ) ;
#16 = ORIENTED_EDGE ( 'NONE', *, *, #234, .T. ) ;
#17 = ORIENTED_EDGE ( 'NONE', *, *, #32, .F. ) ;
#18 = CARTESIAN_POINT ( 'NONE',  ( 1.734723475976807094E-15, 2.260129588726067507, 0.000000000000000000 ) ) ;
#19 = CARTESIAN_POINT ( 'NONE',  ( 9.462010814456066155E-16, 4.905880899790826533, 0.000000000000000000 ) ) ;
#20 = AXIS2_PLACEMENT_3D ( 'NONE', #161, #80, #177 ) ;
#21 = PERSON_AND_ORGANIZATION ( #109, #56 ) ;
#22 = FACE_OUTER_BOUND ( 'NONE', #244, .T. ) ;
#23 = PERSON_AND_ORGANIZATION_ROLE ( 'classification_officer' ) ;
#24 = DIRECTION ( 'NONE',  ( -1.000000000000000000, 0.000000000000000000, 0.000000000000000000 ) ) ;
#25 = AXIS2_PLACEMENT_3D ( 'NONE', #40, #98, #215 ) ;
#26 = COORDINATED_UNIVERSAL_TIME_OFFSET ( 1, 0, .AHEAD. ) ;
#27 = PERSON_AND_ORGANIZATION_ROLE ( 'creator' ) ;
#28 = ADVANCED_FACE ( 'NONE', ( #75 ), #247, .T. ) ;
#29 = SECURITY_CLASSIFICATION ( '', '', #144 ) ;
#30 = APPROVAL_ROLE ( '' ) ;
#31 = EDGE_LOOP ( 'NONE', ( #201, #91 ) ) ;
#32 = EDGE_CURVE ( 'NONE', #92, #151, #51, .T. ) ;
#33 = ORIENTED_EDGE ( 'NONE', *, *, #189, .T. ) ;
#34 = AXIS2_PLACEMENT_3D ( 'NONE', #39, #116, #191 ) ;
#35 = PRODUCT_DEFINITION ( 'UNKNOWN', '', #185, #59 ) ;
#36 = CARTESIAN_POINT ( 'NONE',  ( 9.340386074015759371E-16, 2.260129588726123018, 0.000000000000000000 ) ) ;
#37 = ORIENTED_EDGE ( 'NONE', *, *, #105, .F. ) ;
#38 = DIRECTION ( 'NONE',  ( -1.000000000000000000, 0.000000000000000000, 0.000000000000000000 ) ) ;
#39 = CARTESIAN_POINT ( 'NONE',  ( 10.50000000000000000, 2.260129588726067507, 1.285879139104720633E-15 ) ) ;
#40 = CARTESIAN_POINT ( 'NONE',  ( 9.236488298952508525E-16, 0.000000000000000000, 0.000000000000000000 ) ) ;
#41 = AXIS2_PLACEMENT_3D ( 'NONE', #217, #221, #180 ) ;
#42 = CARTESIAN_POINT ( 'NONE',  ( 13.50000000000000000, 4.905880899790826533, 1.714505518806294638E-15 ) ) ;
#43 = CALENDAR_DATE ( 2024, 3, 9 ) ;
#44 = DIRECTION ( 'NONE',  ( 4.596983092540343816E-18, 1.000000000000000000, -0.000000000000000000 ) ) ;
#45 = DIRECTION ( 'NONE',  ( -1.000000000000000000, 0.000000000000000000, 0.000000000000000000 ) ) ;
#46 = CC_DESIGN_PERSON_AND_ORGANIZATION_ASSIGNMENT ( #212, #79, ( #185 ) ) ;
#47 = DATE_AND_TIME ( #157, #72 ) ;
#48 = DIRECTION ( 'NONE',  ( 0.000000000000000000, 0.000000000000000000, 1.000000000000000000 ) ) ;
#49 = PERSON_AND_ORGANIZATION ( #109, #56 ) ;
#50 = ORIENTED_EDGE ( 'NONE', *, *, #234, .F. ) ;
#51 = CIRCLE ( 'NONE', #192, 14.50000000000000000 ) ;
#52 = CC_DESIGN_APPROVAL ( #3, ( #29 ) ) ;
#53 = CC_DESIGN_PERSON_AND_ORGANIZATION_ASSIGNMENT ( #223, #13, ( #2 ) ) ;
#54 = DIRECTION ( 'NONE',  ( 4.596983092540343816E-18, 1.000000000000000000, -0.000000000000000000 ) ) ;
#55 = ORIENTED_EDGE ( 'NONE', *, *, #107, .F. ) ;
#56 = ORGANIZATION ( 'UNSPECIFIED', 'UNSPECIFIED', '' ) ;
#57 = EDGE_LOOP ( 'NONE', ( #73, #246, #127, #187 ) ) ;
#58 = CARTESIAN_POINT ( 'NONE',  ( 9.462010814456066155E-16, 4.905880899790826533, 0.000000000000000000 ) ) ;
#59 = DESIGN_CONTEXT ( 'detailed design', #172, 'design' ) ;
#60 = CARTESIAN_POINT ( 'NONE',  ( 1.184927814898344137E-15, 10.99999999999999645, 0.000000000000000000 ) ) ;
#61 = APPROVAL_PERSON_ORGANIZATION ( #21, #3, #142 ) ;
#62 = DATE_AND_TIME ( #237, #198 ) ;
#63 = LINE ( 'NONE', #241, #8 ) ;
#64 = PERSON_AND_ORGANIZATION_ROLE ( 'design_supplier' ) ;
#65 = CARTESIAN_POINT ( 'NONE',  ( 2.204364238465235428E-15, -6.999999999999999112, 0.000000000000000000 ) ) ;
#66 = EDGE_CURVE ( 'NONE', #151, #92, #134, .T. ) ;
#67 =( NAMED_UNIT ( * ) SI_UNIT ( $, .STERADIAN. ) SOLID_ANGLE_UNIT ( ) );
#68 = ORIENTED_EDGE ( 'NONE', *, *, #89, .F. ) ;
#69 = ORIENTED_EDGE ( 'NONE', *, *, #105, .T. ) ;
#70 = DIRECTION ( 'NONE',  ( 0.000000000000000000, 0.000000000000000000, 1.000000000000000000 ) ) ;
#71 = CARTESIAN_POINT ( 'NONE',  ( -1.532088382599879305E-34, -3.332812742091749113E-17, 0.000000000000000000 ) ) ;
#72 = LOCAL_TIME ( 16, 4, 21.00000000000000000, #179 ) ;
#73 = ORIENTED_EDGE ( 'NONE', *, *, #189, .F. ) ;
#74 = DIRECTION ( 'NONE',  ( -1.000000000000000000, 0.000000000000000000, 0.000000000000000000 ) ) ;
#75 = FACE_OUTER_BOUND ( 'NONE', #133, .T. ) ;
#76 = AXIS2_PLACEMENT_3D ( 'NONE', #19, #168, #24 ) ;
#77 = CARTESIAN_POINT ( 'NONE',  ( -13.49999999999999645, 4.905880899790826533, 0.000000000000000000 ) ) ;
#78 = PERSON_AND_ORGANIZATION ( #109, #56 ) ;
#79 = PERSON_AND_ORGANIZATION_ROLE ( 'creator' ) ;
#80 = DIRECTION ( 'NONE',  ( -0.000000000000000000, 0.000000000000000000, -1.000000000000000000 ) ) ;
#81 = FACE_OUTER_BOUND ( 'NONE', #153, .T. ) ;
#82 = CALENDAR_DATE ( 2024, 3, 9 ) ;
#83 = CC_DESIGN_PERSON_AND_ORGANIZATION_ASSIGNMENT ( #225, #27, ( #35 ) ) ;
#84 = AXIS2_PLACEMENT_3D ( 'NONE', #90, #188, #93 ) ;
#85 = CC_DESIGN_SECURITY_CLASSIFICATION ( #29, ( #185 ) ) ;
#86 = APPROVAL_STATUS ( 'not_yet_approved' ) ;
#87 = MANIFOLD_SOLID_BREP ( 'Rotation2', #242 ) ;
#88 = CALENDAR_DATE ( 2024, 3, 9 ) ;
#89 = EDGE_CURVE ( 'NONE', #222, #251, #123, .T. ) ;
#90 = CARTESIAN_POINT ( 'NONE',  ( 9.340386074015759371E-16, 2.260129588726123018, 0.000000000000000000 ) ) ;
#91 = ORIENTED_EDGE ( 'NONE', *, *, #147, .F. ) ;
#92 = VERTEX_POINT ( 'NONE', #253 ) ;
#93 = DIRECTION ( 'NONE',  ( -1.000000000000000000, 0.000000000000000000, 0.000000000000000000 ) ) ;
#94 = UNCERTAINTY_MEASURE_WITH_UNIT (LENGTH_MEASURE( 1.000000000000000082E-05 ), #183, 'distance_accuracy_value', 'NONE');
#95 = APPROVAL_PERSON_ORGANIZATION ( #78, #224, #196 ) ;
#96 = CARTESIAN_POINT ( 'NONE',  ( 14.50000000000000178, -6.665625484183498225E-17, 1.775737858763662015E-15 ) ) ;
#97 = DATE_TIME_ROLE ( 'classification_date' ) ;
#98 = DIRECTION ( 'NONE',  ( 4.596983092540343816E-18, 1.000000000000000000, -0.000000000000000000 ) ) ;
#99 = DIRECTION ( 'NONE',  ( 4.596983092540343816E-18, 1.000000000000000000, -0.000000000000000000 ) ) ;
#100 = COORDINATED_UNIVERSAL_TIME_OFFSET ( 1, 0, .AHEAD. ) ;
#101 = CIRCLE ( 'NONE', #76, 13.49999999999999822 ) ;
#102 = CARTESIAN_POINT ( 'NONE',  ( 1.387778780781445676E-14, 2817.965330118411202, 0.000000000000000000 ) ) ;
#103 = AXIS2_PLACEMENT_3D ( 'NONE', #18, #152, #111 ) ;
#104 = CIRCLE ( 'NONE', #25, 14.50000000000000000 ) ;
#105 = EDGE_CURVE ( 'NONE', #222, #208, #218, .T. ) ;
#106 = CC_DESIGN_DATE_AND_TIME_ASSIGNMENT ( #155, #97, ( #29 ) ) ;
#107 = EDGE_CURVE ( 'NONE', #151, #222, #193, .T. ) ;
#108 = AXIS2_PLACEMENT_3D ( 'NONE', #10, #99, #238 ) ;
#109 = PERSON ( 'UNSPECIFIED', 'UNSPECIFIED', 'UNSPECIFIED', ('UNSPECIFIED'), ('UNSPECIFIED'), ('UNSPECIFIED') ) ;
#110 = ORIENTED_EDGE ( 'NONE', *, *, #186, .T. ) ;
#111 = DIRECTION ( 'NONE',  ( -1.000000000000000000, 4.596983092540343816E-18, 0.000000000000000000 ) ) ;
#112 = EDGE_CURVE ( 'NONE', #208, #222, #101, .T. ) ;
#113 = ORIENTED_EDGE ( 'NONE', *, *, #89, .T. ) ;
#114 = ADVANCED_FACE ( 'NONE', ( #22 ), #239, .T. ) ;
#115 = PLANE ( 'NONE',  #207 ) ;
#116 = DIRECTION ( 'NONE',  ( -1.224646799147353207E-16, 5.629680630014033300E-34, 1.000000000000000000 ) ) ;
#117 = APPROVAL_PERSON_ORGANIZATION ( #49, #219, #30 ) ;
#118 = APPROVAL_DATE_TIME ( #62, #3 ) ;
#119 = LINE ( 'NONE', #160, #166 ) ;
#120 = APPROVAL_STATUS ( 'not_yet_approved' ) ;
#121 = APPROVAL_STATUS ( 'not_yet_approved' ) ;
#122 = DIRECTION ( 'NONE',  ( 4.596983092540343816E-18, 1.000000000000000000, -0.000000000000000000 ) ) ;
#123 = CIRCLE ( 'NONE', #226, 17.99999999999999645 ) ;
#124 = DIRECTION ( 'NONE',  ( -0.000000000000000000, 0.000000000000000000, -1.000000000000000000 ) ) ;
#125 = CARTESIAN_POINT ( 'NONE',  ( 1.734723475976807094E-15, 2.260129588726067507, 0.000000000000000000 ) ) ;
#126 = EDGE_CURVE ( 'NONE', #92, #208, #232, .T. ) ;
#127 = ORIENTED_EDGE ( 'NONE', *, *, #202, .T. ) ;
#128 = MECHANICAL_CONTEXT ( 'NONE', #210, 'mechanical' ) ;
#129 = CC_DESIGN_APPROVAL ( #219, ( #35 ) ) ;
#130 = ORIENTED_EDGE ( 'NONE', *, *, #126, .T. ) ;
#131 = ADVANCED_FACE ( 'NONE', ( #81 ), #252, .T. ) ;
#132 = CARTESIAN_POINT ( 'NONE',  ( 1.387778780781445676E-14, 2817.965330118411202, 0.000000000000000000 ) ) ;
#133 = EDGE_LOOP ( 'NONE', ( #190, #203, #231, #1 ) ) ;
#134 = CIRCLE ( 'NONE', #84, 14.50000000000000000 ) ;
#135 = CIRCLE ( 'NONE', #108, 14.50000000000000000 ) ;
#136 = PRODUCT_DEFINITION_SHAPE ( 'NONE', 'NONE',  #35 ) ;
#137 = EDGE_LOOP ( 'NONE', ( #110, #33, #17, #173 ) ) ;
#138 = DIRECTION ( 'NONE',  ( 4.596983092540343816E-18, 1.000000000000000000, -0.000000000000000000 ) ) ;
#139 = AXIS2_PLACEMENT_3D ( 'NONE', #248, #70, #200 ) ;
#140 = DIRECTION ( 'NONE',  ( 4.596983092540343816E-18, 1.000000000000000000, -0.000000000000000000 ) ) ;
#141 = CYLINDRICAL_SURFACE ( 'NONE', #220, 14.50000000000000000 ) ;
#142 = APPROVAL_ROLE ( '' ) ;
#143 = DIRECTION ( 'NONE',  ( -1.000000000000000000, 4.596983092540343816E-18, 0.000000000000000000 ) ) ;
#144 = SECURITY_CLASSIFICATION_LEVEL ( 'unclassified' ) ;
#145 = AXIS2_PLACEMENT_3D ( 'NONE', #235, #48, #45 ) ;
#146 = APPLICATION_PROTOCOL_DEFINITION ( 'international standard', 'config_control_design', 1994, #172 ) ;
#147 = EDGE_CURVE ( 'NONE', #148, #227, #135, .T. ) ;
#148 = VERTEX_POINT ( 'NONE', #96 ) ;
#149 =( GEOMETRIC_REPRESENTATION_CONTEXT ( 3 ) GLOBAL_UNCERTAINTY_ASSIGNED_CONTEXT ( ( #94 ) ) GLOBAL_UNIT_ASSIGNED_CONTEXT ( ( #183, #236, #67 ) ) REPRESENTATION_CONTEXT ( 'NONE', 'WORKASPACE' ) );
#150 = DIRECTION ( 'NONE',  ( 4.596983092540343816E-18, 1.000000000000000000, -0.000000000000000000 ) ) ;
#151 = VERTEX_POINT ( 'NONE', #197 ) ;
#152 = DIRECTION ( 'NONE',  ( 4.596983092540343816E-18, 1.000000000000000000, -0.000000000000000000 ) ) ;
#153 = EDGE_LOOP ( 'NONE', ( #55, #228, #130, #37 ) ) ;
#154 = FACE_OUTER_BOUND ( 'NONE', #164, .T. ) ;
#155 = DATE_AND_TIME ( #43, #170 ) ;
#156 = DIRECTION ( 'NONE',  ( -1.000000000000000000, 0.000000000000000000, 0.000000000000000000 ) ) ;
#157 = CALENDAR_DATE ( 2024, 3, 9 ) ;
#158 = DIRECTION ( 'NONE',  ( 4.596983092540343816E-18, 1.000000000000000000, -0.000000000000000000 ) ) ;
#159 = PERSON_AND_ORGANIZATION ( #109, #56 ) ;
#160 = CARTESIAN_POINT ( 'NONE',  ( -14.49999999999998757, 2817.965330118411202, 0.000000000000000000 ) ) ;
#161 = CARTESIAN_POINT ( 'NONE',  ( -10.49999999999999645, 2.260129588726067507, 0.000000000000000000 ) ) ;
#162 = CC_DESIGN_APPROVAL ( #224, ( #185 ) ) ;
#163 = COORDINATED_UNIVERSAL_TIME_OFFSET ( 1, 0, .AHEAD. ) ;
#164 = EDGE_LOOP ( 'NONE', ( #230, #113, #50 ) ) ;
#165 = ADVANCED_FACE ( 'NONE', ( #11 ), #141, .T. ) ;
#166 = VECTOR ( 'NONE', #122, 1000.000000000000000 ) ;
#167 = DATE_AND_TIME ( #88, #204 ) ;
#168 = DIRECTION ( 'NONE',  ( 4.596983092540343816E-18, 1.000000000000000000, -0.000000000000000000 ) ) ;
#169 = CARTESIAN_POINT ( 'NONE',  ( 2.204364238465235428E-15, -6.999999999999999112, 0.000000000000000000 ) ) ;
#170 = LOCAL_TIME ( 16, 4, 21.00000000000000000, #26 ) ;
#171 = PRODUCT_RELATED_PRODUCT_CATEGORY ( 'detail', '', ( #2 ) ) ;
#172 = APPLICATION_CONTEXT ( 'configuration controlled 3d designs of mechanical parts and assemblies' ) ;
#173 = ORIENTED_EDGE ( 'NONE', *, *, #202, .F. ) ;
#174 = FACE_OUTER_BOUND ( 'NONE', #57, .T. ) ;
#175 = DIRECTION ( 'NONE',  ( -1.224646799147353207E-16, 5.629680630014033300E-34, 1.000000000000000000 ) ) ;
#176 = CIRCLE ( 'NONE', #243, 17.99999999999999645 ) ;
#177 = DIRECTION ( 'NONE',  ( -1.000000000000000000, 0.000000000000000000, 0.000000000000000000 ) ) ;
#178 = SHAPE_DEFINITION_REPRESENTATION ( #136, #15 ) ;
#179 = COORDINATED_UNIVERSAL_TIME_OFFSET ( 1, 0, .AHEAD. ) ;
#180 = DIRECTION ( 'NONE',  ( -1.000000000000000000, 0.000000000000000000, 0.000000000000000000 ) ) ;
#181 = COORDINATED_UNIVERSAL_TIME_OFFSET ( 1, 0, .AHEAD. ) ;
#182 = DIRECTION ( 'NONE',  ( -1.000000000000000000, 0.000000000000000000, 0.000000000000000000 ) ) ;
#183 =( LENGTH_UNIT ( ) NAMED_UNIT ( * ) SI_UNIT ( .MILLI., .METRE. ) );
#184 = AXIS2_PLACEMENT_3D ( 'NONE', #132, #150, #38 ) ;
#185 = PRODUCT_DEFINITION_FORMATION_WITH_SPECIFIED_SOURCE ( 'ANY', '', #2, .NOT_KNOWN. ) ;
#186 = EDGE_CURVE ( 'NONE', #227, #148, #104, .T. ) ;
#187 = ORIENTED_EDGE ( 'NONE', *, *, #66, .F. ) ;
#188 = DIRECTION ( 'NONE',  ( 4.596983092540343816E-18, 1.000000000000000000, -0.000000000000000000 ) ) ;
#189 = EDGE_CURVE ( 'NONE', #148, #151, #63, .T. ) ;
#190 = ORIENTED_EDGE ( 'NONE', *, *, #32, .T. ) ;
#191 = DIRECTION ( 'NONE',  ( 1.000000000000000000, 0.000000000000000000, 1.224646799147353947E-16 ) ) ;
#192 = AXIS2_PLACEMENT_3D ( 'NONE', #36, #54, #74 ) ;
#193 = CIRCLE ( 'NONE', #34, 3.999999999999998224 ) ;
#194 = DATE_TIME_ROLE ( 'creation_date' ) ;
#195 = CARTESIAN_POINT ( 'NONE',  ( -14.49999999999999822, 6.665625484183498225E-17, 0.000000000000000000 ) ) ;
#196 = APPROVAL_ROLE ( '' ) ;
#197 = CARTESIAN_POINT ( 'NONE',  ( 14.50000000000000178, 2.260129588726123018, 1.775737858763662015E-15 ) ) ;
#198 = LOCAL_TIME ( 16, 4, 21.00000000000000000, #181 ) ;
#199 = SPHERICAL_SURFACE ( 'NONE', #145, 17.99999999999999645 ) ;
#200 = DIRECTION ( 'NONE',  ( 1.000000000000000000, 0.000000000000000000, 0.000000000000000000 ) ) ;
#201 = ORIENTED_EDGE ( 'NONE', *, *, #186, .F. ) ;
#202 = EDGE_CURVE ( 'NONE', #227, #92, #119, .T. ) ;
#203 = ORIENTED_EDGE ( 'NONE', *, *, #107, .T. ) ;
#204 = LOCAL_TIME ( 16, 4, 21.00000000000000000, #163 ) ;
#205 = FACE_OUTER_BOUND ( 'NONE', #31, .T. ) ;
#206 = DIRECTION ( 'NONE',  ( -4.596983092540343816E-18, -1.000000000000000000, 0.000000000000000000 ) ) ;
#207 = AXIS2_PLACEMENT_3D ( 'NONE', #71, #206, #233 ) ;
#208 = VERTEX_POINT ( 'NONE', #77 ) ;
#209 = DIRECTION ( 'NONE',  ( -1.000000000000000000, 0.000000000000000000, 0.000000000000000000 ) ) ;
#210 = APPLICATION_CONTEXT ( 'configuration controlled 3d designs of mechanical parts and assemblies' ) ;
#211 = AXIS2_PLACEMENT_3D ( 'NONE', #125, #140, #143 ) ;
#212 = PERSON_AND_ORGANIZATION ( #109, #56 ) ;
#213 = APPLICATION_PROTOCOL_DEFINITION ( 'international standard', 'config_control_design', 1994, #210 ) ;
#214 = APPROVAL_DATE_TIME ( #47, #224 ) ;
#215 = DIRECTION ( 'NONE',  ( -1.000000000000000000, 4.596983092540343816E-18, 0.000000000000000000 ) ) ;
#216 = PERSON_AND_ORGANIZATION ( #109, #56 ) ;
#217 = CARTESIAN_POINT ( 'NONE',  ( 2.204364238465235428E-15, -6.999999999999999112, 0.000000000000000000 ) ) ;
#218 = CIRCLE ( 'NONE', #6, 13.49999999999999822 ) ;
#219 = APPROVAL ( #86, 'UNSPECIFIED' ) ;
#220 = AXIS2_PLACEMENT_3D ( 'NONE', #102, #158, #182 ) ;
#221 = DIRECTION ( 'NONE',  ( 0.000000000000000000, 0.000000000000000000, 1.000000000000000000 ) ) ;
#222 = VERTEX_POINT ( 'NONE', #42 ) ;
#223 = PERSON_AND_ORGANIZATION ( #109, #56 ) ;
#224 = APPROVAL ( #120, 'UNSPECIFIED' ) ;
#225 = PERSON_AND_ORGANIZATION ( #109, #56 ) ;
#226 = AXIS2_PLACEMENT_3D ( 'NONE', #169, #175, #7 ) ;
#227 = VERTEX_POINT ( 'NONE', #195 ) ;
#228 = ORIENTED_EDGE ( 'NONE', *, *, #66, .T. ) ;
#229 = ADVANCED_FACE ( 'NONE', ( #154 ), #199, .T. ) ;
#230 = ORIENTED_EDGE ( 'NONE', *, *, #112, .T. ) ;
#231 = ORIENTED_EDGE ( 'NONE', *, *, #112, .F. ) ;
#232 = CIRCLE ( 'NONE', #20, 3.999999999999998224 ) ;
#233 = DIRECTION ( 'NONE',  ( 1.000000000000000000, -4.596983092540343816E-18, 0.000000000000000000 ) ) ;
#234 = EDGE_CURVE ( 'NONE', #208, #251, #176, .T. ) ;
#235 = CARTESIAN_POINT ( 'NONE',  ( 2.204364238465235428E-15, -6.999999999999999112, 0.000000000000000000 ) ) ;
#236 =( NAMED_UNIT ( * ) PLANE_ANGLE_UNIT ( ) SI_UNIT ( $, .RADIAN. ) );
#237 = CALENDAR_DATE ( 2024, 3, 9 ) ;
#238 = DIRECTION ( 'NONE',  ( -1.000000000000000000, 4.596983092540343816E-18, 0.000000000000000000 ) ) ;
#239 = SPHERICAL_SURFACE ( 'NONE', #41, 17.99999999999999645 ) ;
#240 = DATE_AND_TIME ( #82, #12 ) ;
#241 = CARTESIAN_POINT ( 'NONE',  ( 14.50000000000001421, 2817.965330118411202, 1.775737858763662015E-15 ) ) ;
#242 = CLOSED_SHELL ( 'NONE', ( #229, #28, #165, #14, #5, #131, #114 ) ) ;
#243 = AXIS2_PLACEMENT_3D ( 'NONE', #65, #124, #156 ) ;
#244 = EDGE_LOOP ( 'NONE', ( #68, #69, #16 ) ) ;
#245 = CC_DESIGN_PERSON_AND_ORGANIZATION_ASSIGNMENT ( #159, #23, ( #29 ) ) ;
#246 = ORIENTED_EDGE ( 'NONE', *, *, #147, .T. ) ;
#247 = TOROIDAL_SURFACE ( 'NONE', #103, 10.49999999999999822, 3.999999999999999112 ) ;
#248 = CARTESIAN_POINT ( 'NONE',  ( 0.000000000000000000, 0.000000000000000000, 0.000000000000000000 ) ) ;
#249 = APPROVAL_DATE_TIME ( #167, #219 ) ;
#250 = CC_DESIGN_DATE_AND_TIME_ASSIGNMENT ( #240, #194, ( #35 ) ) ;
#251 = VERTEX_POINT ( 'NONE', #60 ) ;
#252 = TOROIDAL_SURFACE ( 'NONE', #211, 10.49999999999999822, 3.999999999999999112 ) ;
#253 = CARTESIAN_POINT ( 'NONE',  ( -14.49999999999999822, 2.260129588726123018, 0.000000000000000000 ) ) ;
ENDSEC;
END-ISO-10303-21;
