ISO-10303-21;
HEADER;
FILE_DESCRIPTION (( 'STEP AP203' ),
    '1' );
FILE_NAME ('3D_R152_DN50_17305210.STEP',
    '2024-08-13T07:37:28',
    ( '' ),
    ( '' ),
    'SwSTEP 2.0',
    'SolidWorks 2024',
    '' );
FILE_SCHEMA (( 'CONFIG_CONTROL_DESIGN' ));
ENDSEC;

DATA;
#1 = FACE_OUTER_BOUND ( 'NONE', #151, .T. ) ;
#2 = CARTESIAN_POINT ( 'NONE',  ( 1.298125607096194621E-14, 8.000000000000000000, 106.0000000000000142 ) ) ;
#3 = APPLICATION_CONTEXT ( 'configuration controlled 3d designs of mechanical parts and assemblies' ) ;
#4 = LINE ( 'NONE', #37, #165 ) ;
#5 = AXIS2_PLACEMENT_3D ( 'NONE', #145, #65, #166 ) ;
#6 = COORDINATED_UNIVERSAL_TIME_OFFSET ( 1, 0, .AHEAD. ) ;
#7 = LOCAL_TIME ( 9, 37, 28.00000000000000000, #35 ) ;
#8 = CC_DESIGN_PERSON_AND_ORGANIZATION_ASSIGNMENT ( #36, #226, ( #175 ) ) ;
#9 = AXIS2_PLACEMENT_3D ( 'NONE', #230, #195, #158 ) ;
#10 = CARTESIAN_POINT ( 'NONE',  ( 0.000000000000000000, 0.000000000000000000, -106.0000000000000142 ) ) ;
#11 = DATE_AND_TIME ( #72, #30 ) ;
#12 = APPROVAL_ROLE ( '' ) ;
#13 = ORIENTED_EDGE ( 'NONE', *, *, #222, .F. ) ;
#14 = EDGE_LOOP ( 'NONE', ( #75, #98 ) ) ;
#15 = ADVANCED_FACE ( 'NONE', ( #249, #209 ), #215, .F. ) ;
#16 = EDGE_LOOP ( 'NONE', ( #244, #78, #223, #173 ) ) ;
#17 = PERSON_AND_ORGANIZATION_ROLE ( 'design_supplier' ) ;
#18 = VECTOR ( 'NONE', #119, 1000.000000000000000 ) ;
#19 = VERTEX_POINT ( 'NONE', #136 ) ;
#20 = ADVANCED_FACE ( 'NONE', ( #56 ), #102, .F. ) ;
#21 = CARTESIAN_POINT ( 'NONE',  ( 0.000000000000000000, 0.000000000000000000, 0.000000000000000000 ) ) ;
#22 = LOCAL_TIME ( 9, 37, 28.00000000000000000, #6 ) ;
#23 = LINE ( 'NONE', #79, #128 ) ;
#24 = CARTESIAN_POINT ( 'NONE',  ( 0.000000000000000000, 0.000000000000000000, 0.000000000000000000 ) ) ;
#25 = CARTESIAN_POINT ( 'NONE',  ( 0.000000000000000000, 8.000000000000000000, 0.000000000000000000 ) ) ;
#26 = ADVANCED_FACE ( 'NONE', ( #84 ), #198, .T. ) ;
#27 = CARTESIAN_POINT ( 'NONE',  ( 0.000000000000000000, 8.000000000000000000, -106.0000000000000142 ) ) ;
#28 = AXIS2_PLACEMENT_3D ( 'NONE', #160, #126, #201 ) ;
#29 = PRODUCT_RELATED_PRODUCT_CATEGORY ( 'detail', '', ( #107 ) ) ;
#30 = LOCAL_TIME ( 9, 37, 28.00000000000000000, #224 ) ;
#31 = PERSON_AND_ORGANIZATION ( #142, #164 ) ;
#32 = PRODUCT_DEFINITION_SHAPE ( 'NONE', 'NONE',  #206 ) ;
#33 = APPROVAL_DATE_TIME ( #127, #116 ) ;
#34 = EDGE_LOOP ( 'NONE', ( #120, #40 ) ) ;
#35 = COORDINATED_UNIVERSAL_TIME_OFFSET ( 1, 0, .AHEAD. ) ;
#36 = PERSON_AND_ORGANIZATION ( #142, #164 ) ;
#37 = CARTESIAN_POINT ( 'NONE',  ( 6.245698675651500444E-15, 8.000000000000000000, 51.00000000000000000 ) ) ;
#38 = CARTESIAN_POINT ( 'NONE',  ( 0.000000000000000000, 8.000000000000000000, -51.00000000000000000 ) ) ;
#39 = MANIFOLD_SOLID_BREP ( 'Aufsatz-Linear austragen1', #172 ) ;
#40 = ORIENTED_EDGE ( 'NONE', *, *, #187, .T. ) ;
#41 =( GEOMETRIC_REPRESENTATION_CONTEXT ( 3 ) GLOBAL_UNCERTAINTY_ASSIGNED_CONTEXT ( ( #159 ) ) GLOBAL_UNIT_ASSIGNED_CONTEXT ( ( #121, #241, #50 ) ) REPRESENTATION_CONTEXT ( 'NONE', 'WORKASPACE' ) );
#42 = AXIS2_PLACEMENT_3D ( 'NONE', #155, #234, #58 ) ;
#43 = CARTESIAN_POINT ( 'NONE',  ( 0.000000000000000000, 8.000000000000000000, -106.0000000000000142 ) ) ;
#44 = EDGE_CURVE ( 'NONE', #96, #189, #23, .T. ) ;
#45 = APPLICATION_CONTEXT ( 'configuration controlled 3d designs of mechanical parts and assemblies' ) ;
#46 = ORIENTED_EDGE ( 'NONE', *, *, #59, .F. ) ;
#47 = DIRECTION ( 'NONE',  ( 0.000000000000000000, 1.000000000000000000, 0.000000000000000000 ) ) ;
#48 = EDGE_CURVE ( 'NONE', #177, #197, #122, .T. ) ;
#49 = DIRECTION ( 'NONE',  ( -0.000000000000000000, -1.000000000000000000, -0.000000000000000000 ) ) ;
#50 =( NAMED_UNIT ( * ) SI_UNIT ( $, .STERADIAN. ) SOLID_ANGLE_UNIT ( ) );
#51 = AXIS2_PLACEMENT_3D ( 'NONE', #24, #193, #82 ) ;
#52 = COORDINATED_UNIVERSAL_TIME_OFFSET ( 1, 0, .AHEAD. ) ;
#53 = PERSON_AND_ORGANIZATION ( #142, #164 ) ;
#54 = CC_DESIGN_PERSON_AND_ORGANIZATION_ASSIGNMENT ( #31, #186, ( #107 ) ) ;
#55 = DATE_AND_TIME ( #148, #64 ) ;
#56 = FACE_OUTER_BOUND ( 'NONE', #235, .T. ) ;
#57 = DIRECTION ( 'NONE',  ( -0.000000000000000000, -1.000000000000000000, -0.000000000000000000 ) ) ;
#58 = DIRECTION ( 'NONE',  ( 0.000000000000000000, 0.000000000000000000, -1.000000000000000000 ) ) ;
#59 = EDGE_CURVE ( 'NONE', #190, #19, #4, .T. ) ;
#60 = CIRCLE ( 'NONE', #9, 51.00000000000000000 ) ;
#61 = ORIENTED_EDGE ( 'NONE', *, *, #93, .F. ) ;
#62 = CALENDAR_DATE ( 2024, 13, 8 ) ;
#63 = DESIGN_CONTEXT ( 'detailed design', #45, 'design' ) ;
#64 = LOCAL_TIME ( 9, 37, 28.00000000000000000, #52 ) ;
#65 = DIRECTION ( 'NONE',  ( 0.000000000000000000, 1.000000000000000000, 0.000000000000000000 ) ) ;
#66 = CARTESIAN_POINT ( 'NONE',  ( 0.000000000000000000, 0.000000000000000000, 0.000000000000000000 ) ) ;
#67 = DIRECTION ( 'NONE',  ( 0.000000000000000000, 1.000000000000000000, 0.000000000000000000 ) ) ;
#68 = APPROVAL_STATUS ( 'not_yet_approved' ) ;
#69 = CC_DESIGN_PERSON_AND_ORGANIZATION_ASSIGNMENT ( #109, #111, ( #88 ) ) ;
#70 = APPROVAL_STATUS ( 'not_yet_approved' ) ;
#71 = APPROVAL_STATUS ( 'not_yet_approved' ) ;
#72 = CALENDAR_DATE ( 2024, 13, 8 ) ;
#73 = CC_DESIGN_PERSON_AND_ORGANIZATION_ASSIGNMENT ( #53, #17, ( #175 ) ) ;
#74 = EDGE_LOOP ( 'NONE', ( #153, #13 ) ) ;
#75 = ORIENTED_EDGE ( 'NONE', *, *, #93, .T. ) ;
#76 = DATE_AND_TIME ( #150, #194 ) ;
#77 = ORIENTED_EDGE ( 'NONE', *, *, #44, .F. ) ;
#78 = ORIENTED_EDGE ( 'NONE', *, *, #240, .F. ) ;
#79 = CARTESIAN_POINT ( 'NONE',  ( 0.000000000000000000, 8.000000000000000000, -51.00000000000000000 ) ) ;
#80 = DIRECTION ( 'NONE',  ( 0.000000000000000000, 1.000000000000000000, 0.000000000000000000 ) ) ;
#81 = CYLINDRICAL_SURFACE ( 'NONE', #42, 51.00000000000000000 ) ;
#82 = DIRECTION ( 'NONE',  ( 0.000000000000000000, -0.000000000000000000, 1.000000000000000000 ) ) ;
#83 = AXIS2_PLACEMENT_3D ( 'NONE', #202, #47, #89 ) ;
#84 = FACE_OUTER_BOUND ( 'NONE', #16, .T. ) ;
#85 = FACE_OUTER_BOUND ( 'NONE', #245, .T. ) ;
#86 = CARTESIAN_POINT ( 'NONE',  ( 0.000000000000000000, 8.000000000000000000, 0.000000000000000000 ) ) ;
#87 = CARTESIAN_POINT ( 'NONE',  ( 0.000000000000000000, 0.000000000000000000, 0.000000000000000000 ) ) ;
#88 = SECURITY_CLASSIFICATION ( '', '', #91 ) ;
#89 = DIRECTION ( 'NONE',  ( 0.000000000000000000, 0.000000000000000000, 1.000000000000000000 ) ) ;
#90 = CYLINDRICAL_SURFACE ( 'NONE', #210, 106.0000000000000142 ) ;
#91 = SECURITY_CLASSIFICATION_LEVEL ( 'unclassified' ) ;
#92 = CIRCLE ( 'NONE', #149, 51.00000000000000000 ) ;
#93 = EDGE_CURVE ( 'NONE', #189, #19, #60, .T. ) ;
#94 = ORIENTED_EDGE ( 'NONE', *, *, #157, .F. ) ;
#95 = CALENDAR_DATE ( 2024, 13, 8 ) ;
#96 = VERTEX_POINT ( 'NONE', #38 ) ;
#97 = DIRECTION ( 'NONE',  ( -0.000000000000000000, -1.000000000000000000, -0.000000000000000000 ) ) ;
#98 = ORIENTED_EDGE ( 'NONE', *, *, #135, .T. ) ;
#99 = APPROVAL_PERSON_ORGANIZATION ( #185, #116, #182 ) ;
#100 = AXIS2_PLACEMENT_3D ( 'NONE', #114, #180, #174 ) ;
#101 = CARTESIAN_POINT ( 'NONE',  ( 1.298125607096194621E-14, 8.000000000000000000, 106.0000000000000142 ) ) ;
#102 = CYLINDRICAL_SURFACE ( 'NONE', #225, 51.00000000000000000 ) ;
#103 = DIRECTION ( 'NONE',  ( -0.000000000000000000, -1.000000000000000000, -0.000000000000000000 ) ) ;
#104 = CIRCLE ( 'NONE', #5, 106.0000000000000142 ) ;
#105 = FACE_OUTER_BOUND ( 'NONE', #34, .T. ) ;
#106 = APPLICATION_PROTOCOL_DEFINITION ( 'international standard', 'config_control_design', 1994, #45 ) ;
#107 = PRODUCT ( '3D_R152_DN50_17305210', '3D_R152_DN50_17305210', '', ( #218 ) ) ;
#108 = CARTESIAN_POINT ( 'NONE',  ( 0.000000000000000000, 0.000000000000000000, -51.00000000000000000 ) ) ;
#109 = PERSON_AND_ORGANIZATION ( #142, #164 ) ;
#110 = VERTEX_POINT ( 'NONE', #101 ) ;
#111 = PERSON_AND_ORGANIZATION_ROLE ( 'classification_officer' ) ;
#112 = EDGE_CURVE ( 'NONE', #190, #96, #92, .T. ) ;
#113 = CIRCLE ( 'NONE', #83, 106.0000000000000142 ) ;
#114 = CARTESIAN_POINT ( 'NONE',  ( 0.000000000000000000, 0.000000000000000000, 0.000000000000000000 ) ) ;
#115 = ORIENTED_EDGE ( 'NONE', *, *, #135, .F. ) ;
#116 = APPROVAL ( #68, 'UNSPECIFIED' ) ;
#117 = ORIENTED_EDGE ( 'NONE', *, *, #205, .F. ) ;
#118 = CIRCLE ( 'NONE', #200, 51.00000000000000000 ) ;
#119 = DIRECTION ( 'NONE',  ( -0.000000000000000000, -1.000000000000000000, -0.000000000000000000 ) ) ;
#120 = ORIENTED_EDGE ( 'NONE', *, *, #240, .T. ) ;
#121 =( LENGTH_UNIT ( ) NAMED_UNIT ( * ) SI_UNIT ( .MILLI., .METRE. ) );
#122 = CIRCLE ( 'NONE', #100, 106.0000000000000142 ) ;
#123 = PLANE ( 'NONE',  #130 ) ;
#124 = CC_DESIGN_APPROVAL ( #213, ( #175 ) ) ;
#125 = CARTESIAN_POINT ( 'NONE',  ( 1.298125607096194621E-14, 0.000000000000000000, 106.0000000000000142 ) ) ;
#126 = DIRECTION ( 'NONE',  ( 0.000000000000000000, 1.000000000000000000, 0.000000000000000000 ) ) ;
#127 = DATE_AND_TIME ( #62, #22 ) ;
#128 = VECTOR ( 'NONE', #232, 1000.000000000000000 ) ;
#129 = APPROVAL_ROLE ( '' ) ;
#130 = AXIS2_PLACEMENT_3D ( 'NONE', #162, #237, #217 ) ;
#131 = COORDINATED_UNIVERSAL_TIME_OFFSET ( 1, 0, .AHEAD. ) ;
#132 = CC_DESIGN_DATE_AND_TIME_ASSIGNMENT ( #55, #243, ( #88 ) ) ;
#133 = DIRECTION ( 'NONE',  ( 0.000000000000000000, 1.000000000000000000, 0.000000000000000000 ) ) ;
#134 = DIRECTION ( 'NONE',  ( 0.000000000000000000, 0.000000000000000000, -1.000000000000000000 ) ) ;
#135 = EDGE_CURVE ( 'NONE', #19, #189, #118, .T. ) ;
#136 = CARTESIAN_POINT ( 'NONE',  ( 6.245698675651500444E-15, 0.000000000000000000, 51.00000000000000000 ) ) ;
#137 = ORIENTED_EDGE ( 'NONE', *, *, #222, .T. ) ;
#138 = VECTOR ( 'NONE', #239, 1000.000000000000000 ) ;
#139 = ORIENTED_EDGE ( 'NONE', *, *, #44, .T. ) ;
#140 = APPROVAL ( #70, 'UNSPECIFIED' ) ;
#141 = DIRECTION ( 'NONE',  ( 0.000000000000000000, 0.000000000000000000, -1.000000000000000000 ) ) ;
#142 = PERSON ( 'UNSPECIFIED', 'UNSPECIFIED', 'UNSPECIFIED', ('UNSPECIFIED'), ('UNSPECIFIED'), ('UNSPECIFIED') ) ;
#143 = APPLICATION_PROTOCOL_DEFINITION ( 'international standard', 'config_control_design', 1994, #3 ) ;
#144 = ADVANCED_BREP_SHAPE_REPRESENTATION ( '3D_R152_DN50_17305210', ( #39, #214 ), #41 ) ;
#145 = CARTESIAN_POINT ( 'NONE',  ( 0.000000000000000000, 8.000000000000000000, 0.000000000000000000 ) ) ;
#146 = FACE_BOUND ( 'NONE', #192, .T. ) ;
#147 = CC_DESIGN_APPROVAL ( #140, ( #88 ) ) ;
#148 = CALENDAR_DATE ( 2024, 13, 8 ) ;
#149 = AXIS2_PLACEMENT_3D ( 'NONE', #211, #133, #236 ) ;
#150 = CALENDAR_DATE ( 2024, 13, 8 ) ;
#151 = EDGE_LOOP ( 'NONE', ( #46, #247, #139, #115 ) ) ;
#152 = ADVANCED_FACE ( 'NONE', ( #1 ), #81, .F. ) ;
#153 = ORIENTED_EDGE ( 'NONE', *, *, #48, .F. ) ;
#154 = DIRECTION ( 'NONE',  ( 0.000000000000000000, 0.000000000000000000, 1.000000000000000000 ) ) ;
#155 = CARTESIAN_POINT ( 'NONE',  ( 0.000000000000000000, 8.000000000000000000, 0.000000000000000000 ) ) ;
#156 = LINE ( 'NONE', #43, #18 ) ;
#157 = EDGE_CURVE ( 'NONE', #171, #177, #156, .T. ) ;
#158 = DIRECTION ( 'NONE',  ( 0.000000000000000000, 0.000000000000000000, 1.000000000000000000 ) ) ;
#159 = UNCERTAINTY_MEASURE_WITH_UNIT (LENGTH_MEASURE( 1.000000000000000082E-05 ), #121, 'distance_accuracy_value', 'NONE');
#160 = CARTESIAN_POINT ( 'NONE',  ( 0.000000000000000000, 8.000000000000000000, 0.000000000000000000 ) ) ;
#161 = APPROVAL_PERSON_ORGANIZATION ( #208, #213, #129 ) ;
#162 = CARTESIAN_POINT ( 'NONE',  ( 0.000000000000000000, 8.000000000000000000, 0.000000000000000000 ) ) ;
#163 = EDGE_CURVE ( 'NONE', #110, #197, #178, .T. ) ;
#164 = ORGANIZATION ( 'UNSPECIFIED', 'UNSPECIFIED', '' ) ;
#165 = VECTOR ( 'NONE', #97, 1000.000000000000000 ) ;
#166 = DIRECTION ( 'NONE',  ( 0.000000000000000000, 0.000000000000000000, 1.000000000000000000 ) ) ;
#167 = CARTESIAN_POINT ( 'NONE',  ( 6.245698675651500444E-15, 8.000000000000000000, 51.00000000000000000 ) ) ;
#168 = PERSON_AND_ORGANIZATION_ROLE ( 'creator' ) ;
#169 = SHAPE_DEFINITION_REPRESENTATION ( #32, #144 ) ;
#170 = ORIENTED_EDGE ( 'NONE', *, *, #205, .T. ) ;
#171 = VERTEX_POINT ( 'NONE', #27 ) ;
#172 = CLOSED_SHELL ( 'NONE', ( #20, #183, #233, #15, #26, #152 ) ) ;
#173 = ORIENTED_EDGE ( 'NONE', *, *, #48, .T. ) ;
#174 = DIRECTION ( 'NONE',  ( 0.000000000000000000, 0.000000000000000000, 1.000000000000000000 ) ) ;
#175 = PRODUCT_DEFINITION_FORMATION_WITH_SPECIFIED_SOURCE ( 'ANY', '', #107, .NOT_KNOWN. ) ;
#176 = DIRECTION ( 'NONE',  ( 0.000000000000000000, 0.000000000000000000, -1.000000000000000000 ) ) ;
#177 = VERTEX_POINT ( 'NONE', #10 ) ;
#178 = LINE ( 'NONE', #2, #138 ) ;
#179 = CC_DESIGN_SECURITY_CLASSIFICATION ( #88, ( #175 ) ) ;
#180 = DIRECTION ( 'NONE',  ( 0.000000000000000000, 1.000000000000000000, 0.000000000000000000 ) ) ;
#181 = AXIS2_PLACEMENT_3D ( 'NONE', #25, #57, #176 ) ;
#182 = APPROVAL_ROLE ( '' ) ;
#183 = ADVANCED_FACE ( 'NONE', ( #85 ), #90, .T. ) ;
#184 = CIRCLE ( 'NONE', #238, 106.0000000000000142 ) ;
#185 = PERSON_AND_ORGANIZATION ( #142, #164 ) ;
#186 = PERSON_AND_ORGANIZATION_ROLE ( 'design_owner' ) ;
#187 = EDGE_CURVE ( 'NONE', #110, #171, #113, .T. ) ;
#188 = DATE_TIME_ROLE ( 'creation_date' ) ;
#189 = VERTEX_POINT ( 'NONE', #108 ) ;
#190 = VERTEX_POINT ( 'NONE', #167 ) ;
#191 = PERSON_AND_ORGANIZATION ( #142, #164 ) ;
#192 = EDGE_LOOP ( 'NONE', ( #117, #227 ) ) ;
#193 = DIRECTION ( 'NONE',  ( 0.000000000000000000, 1.000000000000000000, 0.000000000000000000 ) ) ;
#194 = LOCAL_TIME ( 9, 37, 28.00000000000000000, #131 ) ;
#195 = DIRECTION ( 'NONE',  ( 0.000000000000000000, 1.000000000000000000, 0.000000000000000000 ) ) ;
#196 = CC_DESIGN_PERSON_AND_ORGANIZATION_ASSIGNMENT ( #204, #168, ( #206 ) ) ;
#197 = VERTEX_POINT ( 'NONE', #125 ) ;
#198 = CYLINDRICAL_SURFACE ( 'NONE', #181, 106.0000000000000142 ) ;
#199 = DIRECTION ( 'NONE',  ( 0.000000000000000000, 0.000000000000000000, 1.000000000000000000 ) ) ;
#200 = AXIS2_PLACEMENT_3D ( 'NONE', #21, #80, #154 ) ;
#201 = DIRECTION ( 'NONE',  ( 0.000000000000000000, 0.000000000000000000, 1.000000000000000000 ) ) ;
#202 = CARTESIAN_POINT ( 'NONE',  ( 0.000000000000000000, 8.000000000000000000, 0.000000000000000000 ) ) ;
#203 = APPROVAL_PERSON_ORGANIZATION ( #191, #140, #12 ) ;
#204 = PERSON_AND_ORGANIZATION ( #142, #164 ) ;
#205 = EDGE_CURVE ( 'NONE', #96, #190, #231, .T. ) ;
#206 = PRODUCT_DEFINITION ( 'UNKNOWN', '', #175, #63 ) ;
#207 = DATE_AND_TIME ( #95, #7 ) ;
#208 = PERSON_AND_ORGANIZATION ( #142, #164 ) ;
#209 = FACE_BOUND ( 'NONE', #14, .T. ) ;
#210 = AXIS2_PLACEMENT_3D ( 'NONE', #86, #49, #141 ) ;
#211 = CARTESIAN_POINT ( 'NONE',  ( 0.000000000000000000, 8.000000000000000000, 0.000000000000000000 ) ) ;
#212 = ORIENTED_EDGE ( 'NONE', *, *, #59, .T. ) ;
#213 = APPROVAL ( #71, 'UNSPECIFIED' ) ;
#214 = AXIS2_PLACEMENT_3D ( 'NONE', #66, #219, #220 ) ;
#215 = PLANE ( 'NONE',  #51 ) ;
#216 = ORIENTED_EDGE ( 'NONE', *, *, #163, .T. ) ;
#217 = DIRECTION ( 'NONE',  ( 0.000000000000000000, -0.000000000000000000, 1.000000000000000000 ) ) ;
#218 = MECHANICAL_CONTEXT ( 'NONE', #3, 'mechanical' ) ;
#219 = DIRECTION ( 'NONE',  ( 0.000000000000000000, 0.000000000000000000, 1.000000000000000000 ) ) ;
#220 = DIRECTION ( 'NONE',  ( 1.000000000000000000, 0.000000000000000000, 0.000000000000000000 ) ) ;
#221 = APPROVAL_DATE_TIME ( #207, #213 ) ;
#222 = EDGE_CURVE ( 'NONE', #197, #177, #184, .T. ) ;
#223 = ORIENTED_EDGE ( 'NONE', *, *, #157, .T. ) ;
#224 = COORDINATED_UNIVERSAL_TIME_OFFSET ( 1, 0, .AHEAD. ) ;
#225 = AXIS2_PLACEMENT_3D ( 'NONE', #248, #103, #134 ) ;
#226 = PERSON_AND_ORGANIZATION_ROLE ( 'creator' ) ;
#227 = ORIENTED_EDGE ( 'NONE', *, *, #112, .F. ) ;
#228 = CC_DESIGN_DATE_AND_TIME_ASSIGNMENT ( #76, #188, ( #206 ) ) ;
#229 = ORIENTED_EDGE ( 'NONE', *, *, #187, .F. ) ;
#230 = CARTESIAN_POINT ( 'NONE',  ( 0.000000000000000000, 0.000000000000000000, 0.000000000000000000 ) ) ;
#231 = CIRCLE ( 'NONE', #28, 51.00000000000000000 ) ;
#232 = DIRECTION ( 'NONE',  ( -0.000000000000000000, -1.000000000000000000, -0.000000000000000000 ) ) ;
#233 = ADVANCED_FACE ( 'NONE', ( #105, #146 ), #123, .T. ) ;
#234 = DIRECTION ( 'NONE',  ( -0.000000000000000000, -1.000000000000000000, -0.000000000000000000 ) ) ;
#235 = EDGE_LOOP ( 'NONE', ( #170, #212, #61, #77 ) ) ;
#236 = DIRECTION ( 'NONE',  ( 0.000000000000000000, 0.000000000000000000, 1.000000000000000000 ) ) ;
#237 = DIRECTION ( 'NONE',  ( 0.000000000000000000, 1.000000000000000000, 0.000000000000000000 ) ) ;
#238 = AXIS2_PLACEMENT_3D ( 'NONE', #87, #67, #199 ) ;
#239 = DIRECTION ( 'NONE',  ( -0.000000000000000000, -1.000000000000000000, -0.000000000000000000 ) ) ;
#240 = EDGE_CURVE ( 'NONE', #171, #110, #104, .T. ) ;
#241 =( NAMED_UNIT ( * ) PLANE_ANGLE_UNIT ( ) SI_UNIT ( $, .RADIAN. ) );
#242 = APPROVAL_DATE_TIME ( #11, #140 ) ;
#243 = DATE_TIME_ROLE ( 'classification_date' ) ;
#244 = ORIENTED_EDGE ( 'NONE', *, *, #163, .F. ) ;
#245 = EDGE_LOOP ( 'NONE', ( #229, #216, #137, #94 ) ) ;
#246 = CC_DESIGN_APPROVAL ( #116, ( #206 ) ) ;
#247 = ORIENTED_EDGE ( 'NONE', *, *, #112, .T. ) ;
#248 = CARTESIAN_POINT ( 'NONE',  ( 0.000000000000000000, 8.000000000000000000, 0.000000000000000000 ) ) ;
#249 = FACE_OUTER_BOUND ( 'NONE', #74, .T. ) ;
ENDSEC;
END-ISO-10303-21;
