ISO-10303-21;
HEADER;
FILE_DESCRIPTION (( 'STEP AP203' ),
    '1' );
FILE_NAME ('3D_R243_219.1_17386600.STEP',
    '2024-08-06T10:07:43',
    ( '' ),
    ( '' ),
    'SwSTEP 2.0',
    'SolidWorks 2024',
    '' );
FILE_SCHEMA (( 'CONFIG_CONTROL_DESIGN' ));
ENDSEC;

DATA;
#1 = PERSON_AND_ORGANIZATION ( #243, #100 ) ;
#2 = EDGE_CURVE ( 'NONE', #249, #26, #204, .T. ) ;
#3 = DIRECTION ( 'NONE',  ( -0.000000000000000000, -1.000000000000000000, -0.000000000000000000 ) ) ;
#4 = ORIENTED_EDGE ( 'NONE', *, *, #13, .T. ) ;
#5 = ADVANCED_FACE ( 'NONE', ( #95, #17 ), #91, .F. ) ;
#6 = PRODUCT_DEFINITION_SHAPE ( 'NONE', 'NONE',  #148 ) ;
#7 = ORIENTED_EDGE ( 'NONE', *, *, #161, .T. ) ;
#8 = CC_DESIGN_PERSON_AND_ORGANIZATION_ASSIGNMENT ( #155, #213, ( #85 ) ) ;
#9 = DIRECTION ( 'NONE',  ( -0.000000000000000000, -1.000000000000000000, -0.000000000000000000 ) ) ;
#10 = LINE ( 'NONE', #69, #77 ) ;
#11 = PERSON_AND_ORGANIZATION ( #243, #100 ) ;
#12 = DIRECTION ( 'NONE',  ( 0.000000000000000000, 1.000000000000000000, 0.000000000000000000 ) ) ;
#13 = EDGE_CURVE ( 'NONE', #142, #180, #146, .T. ) ;
#14 = LOCAL_TIME ( 12, 7, 43.00000000000000000, #190 ) ;
#15 = DIRECTION ( 'NONE',  ( 0.000000000000000000, 1.000000000000000000, 0.000000000000000000 ) ) ;
#16 = CC_DESIGN_PERSON_AND_ORGANIZATION_ASSIGNMENT ( #1, #225, ( #151 ) ) ;
#17 = FACE_BOUND ( 'NONE', #35, .T. ) ;
#18 = AXIS2_PLACEMENT_3D ( 'NONE', #203, #231, #89 ) ;
#19 = CALENDAR_DATE ( 2024, 6, 8 ) ;
#20 = CARTESIAN_POINT ( 'NONE',  ( 0.000000000000000000, 0.000000000000000000, 0.000000000000000000 ) ) ;
#21 = PERSON_AND_ORGANIZATION_ROLE ( 'creator' ) ;
#22 = ADVANCED_FACE ( 'NONE', ( #183 ), #209, .F. ) ;
#23 = COORDINATED_UNIVERSAL_TIME_OFFSET ( 1, 0, .AHEAD. ) ;
#24 = ORIENTED_EDGE ( 'NONE', *, *, #143, .T. ) ;
#25 = SHAPE_DEFINITION_REPRESENTATION ( #6, #92 ) ;
#26 = VERTEX_POINT ( 'NONE', #228 ) ;
#27 = LINE ( 'NONE', #212, #36 ) ;
#28 = APPROVAL_STATUS ( 'not_yet_approved' ) ;
#29 = CARTESIAN_POINT ( 'NONE',  ( 0.000000000000000000, 4.000000000000000000, 0.000000000000000000 ) ) ;
#30 = LOCAL_TIME ( 12, 7, 43.00000000000000000, #59 ) ;
#31 = APPROVAL ( #28, 'UNSPECIFIED' ) ;
#32 = DATE_AND_TIME ( #19, #30 ) ;
#33 = CARTESIAN_POINT ( 'NONE',  ( 1.714505518806294914E-14, 0.000000000000000000, 140.0000000000000284 ) ) ;
#34 = DIRECTION ( 'NONE',  ( 0.000000000000000000, 0.000000000000000000, -1.000000000000000000 ) ) ;
#35 = EDGE_LOOP ( 'NONE', ( #55, #188 ) ) ;
#36 = VECTOR ( 'NONE', #187, 1000.000000000000000 ) ;
#37 = LOCAL_TIME ( 12, 7, 43.00000000000000000, #23 ) ;
#38 = DIRECTION ( 'NONE',  ( 0.000000000000000000, 0.000000000000000000, 1.000000000000000000 ) ) ;
#39 = DATE_AND_TIME ( #222, #198 ) ;
#40 = CARTESIAN_POINT ( 'NONE',  ( 0.000000000000000000, 4.000000000000000000, 0.000000000000000000 ) ) ;
#41 = DIRECTION ( 'NONE',  ( -0.000000000000000000, -1.000000000000000000, -0.000000000000000000 ) ) ;
#42 = DIRECTION ( 'NONE',  ( 0.000000000000000000, 1.000000000000000000, 0.000000000000000000 ) ) ;
#43 = CC_DESIGN_PERSON_AND_ORGANIZATION_ASSIGNMENT ( #165, #21, ( #167 ) ) ;
#44 = ORIENTED_EDGE ( 'NONE', *, *, #121, .T. ) ;
#45 = CARTESIAN_POINT ( 'NONE',  ( 0.000000000000000000, 0.000000000000000000, 0.000000000000000000 ) ) ;
#46 = PERSON_AND_ORGANIZATION_ROLE ( 'design_supplier' ) ;
#47 = APPROVAL_PERSON_ORGANIZATION ( #11, #31, #82 ) ;
#48 = ORIENTED_EDGE ( 'NONE', *, *, #121, .F. ) ;
#49 = APPROVAL_PERSON_ORGANIZATION ( #247, #52, #129 ) ;
#50 = CIRCLE ( 'NONE', #181, 110.0000000000000000 ) ;
#51 = DIRECTION ( 'NONE',  ( 0.000000000000000000, 0.000000000000000000, -1.000000000000000000 ) ) ;
#52 = APPROVAL ( #145, 'UNSPECIFIED' ) ;
#53 = EDGE_LOOP ( 'NONE', ( #48, #211, #24, #132 ) ) ;
#54 = DIRECTION ( 'NONE',  ( -0.000000000000000000, -1.000000000000000000, -0.000000000000000000 ) ) ;
#55 = ORIENTED_EDGE ( 'NONE', *, *, #216, .T. ) ;
#56 = CYLINDRICAL_SURFACE ( 'NONE', #114, 110.0000000000000000 ) ;
#57 = DIRECTION ( 'NONE',  ( 0.000000000000000000, 1.000000000000000000, 0.000000000000000000 ) ) ;
#58 = CIRCLE ( 'NONE', #173, 110.0000000000000000 ) ;
#59 = COORDINATED_UNIVERSAL_TIME_OFFSET ( 1, 0, .AHEAD. ) ;
#60 = ORIENTED_EDGE ( 'NONE', *, *, #160, .F. ) ;
#61 = PERSON_AND_ORGANIZATION ( #243, #100 ) ;
#62 = CARTESIAN_POINT ( 'NONE',  ( 1.347111479062088523E-14, 0.000000000000000000, 110.0000000000000000 ) ) ;
#63 = CARTESIAN_POINT ( 'NONE',  ( 0.000000000000000000, 4.000000000000000000, 0.000000000000000000 ) ) ;
#64 = CIRCLE ( 'NONE', #18, 140.0000000000000284 ) ;
#65 =( GEOMETRIC_REPRESENTATION_CONTEXT ( 3 ) GLOBAL_UNCERTAINTY_ASSIGNED_CONTEXT ( ( #170 ) ) GLOBAL_UNIT_ASSIGNED_CONTEXT ( ( #168, #123, #90 ) ) REPRESENTATION_CONTEXT ( 'NONE', 'WORKASPACE' ) );
#66 = DIRECTION ( 'NONE',  ( 0.000000000000000000, 0.000000000000000000, 1.000000000000000000 ) ) ;
#67 = VERTEX_POINT ( 'NONE', #33 ) ;
#68 = CALENDAR_DATE ( 2024, 6, 8 ) ;
#69 = CARTESIAN_POINT ( 'NONE',  ( 1.347111479062088523E-14, 4.000000000000000000, 110.0000000000000000 ) ) ;
#70 = VECTOR ( 'NONE', #149, 1000.000000000000000 ) ;
#71 = CC_DESIGN_DATE_AND_TIME_ASSIGNMENT ( #235, #137, ( #85 ) ) ;
#72 = DIRECTION ( 'NONE',  ( 0.000000000000000000, 0.000000000000000000, 1.000000000000000000 ) ) ;
#73 = DIRECTION ( 'NONE',  ( 0.000000000000000000, 0.000000000000000000, 1.000000000000000000 ) ) ;
#74 = ORIENTED_EDGE ( 'NONE', *, *, #161, .F. ) ;
#75 = CARTESIAN_POINT ( 'NONE',  ( 0.000000000000000000, 0.000000000000000000, 0.000000000000000000 ) ) ;
#76 = VERTEX_POINT ( 'NONE', #86 ) ;
#77 = VECTOR ( 'NONE', #119, 1000.000000000000000 ) ;
#78 = DIRECTION ( 'NONE',  ( 0.000000000000000000, 1.000000000000000000, 0.000000000000000000 ) ) ;
#79 = CARTESIAN_POINT ( 'NONE',  ( 0.000000000000000000, 0.000000000000000000, 0.000000000000000000 ) ) ;
#80 = SECURITY_CLASSIFICATION_LEVEL ( 'unclassified' ) ;
#81 = FACE_OUTER_BOUND ( 'NONE', #53, .T. ) ;
#82 = APPROVAL_ROLE ( '' ) ;
#83 = COORDINATED_UNIVERSAL_TIME_OFFSET ( 1, 0, .AHEAD. ) ;
#84 = AXIS2_PLACEMENT_3D ( 'NONE', #63, #42, #72 ) ;
#85 = SECURITY_CLASSIFICATION ( '', '', #80 ) ;
#86 = CARTESIAN_POINT ( 'NONE',  ( 1.347111479062088523E-14, 4.000000000000000000, 110.0000000000000000 ) ) ;
#87 = PRODUCT_RELATED_PRODUCT_CATEGORY ( 'detail', '', ( #151 ) ) ;
#88 = MECHANICAL_CONTEXT ( 'NONE', #120, 'mechanical' ) ;
#89 = DIRECTION ( 'NONE',  ( 0.000000000000000000, 0.000000000000000000, 1.000000000000000000 ) ) ;
#90 =( NAMED_UNIT ( * ) SI_UNIT ( $, .STERADIAN. ) SOLID_ANGLE_UNIT ( ) );
#91 = PLANE ( 'NONE',  #245 ) ;
#92 = ADVANCED_BREP_SHAPE_REPRESENTATION ( '3D_R243_219.1_17386600', ( #215, #238 ), #65 ) ;
#93 = APPLICATION_CONTEXT ( 'configuration controlled 3d designs of mechanical parts and assemblies' ) ;
#94 = PERSON_AND_ORGANIZATION ( #243, #100 ) ;
#95 = FACE_OUTER_BOUND ( 'NONE', #150, .T. ) ;
#96 = VERTEX_POINT ( 'NONE', #226 ) ;
#97 = ORIENTED_EDGE ( 'NONE', *, *, #214, .T. ) ;
#98 = AXIS2_PLACEMENT_3D ( 'NONE', #79, #12, #109 ) ;
#99 = CLOSED_SHELL ( 'NONE', ( #22, #194, #175, #5, #207, #229 ) ) ;
#100 = ORGANIZATION ( 'UNSPECIFIED', 'UNSPECIFIED', '' ) ;
#101 = CARTESIAN_POINT ( 'NONE',  ( 0.000000000000000000, 4.000000000000000000, 0.000000000000000000 ) ) ;
#102 = LOCAL_TIME ( 12, 7, 43.00000000000000000, #127 ) ;
#103 = DIRECTION ( 'NONE',  ( 0.000000000000000000, 1.000000000000000000, 0.000000000000000000 ) ) ;
#104 = DIRECTION ( 'NONE',  ( 0.000000000000000000, -0.000000000000000000, 1.000000000000000000 ) ) ;
#105 = DIRECTION ( 'NONE',  ( 1.000000000000000000, 0.000000000000000000, 0.000000000000000000 ) ) ;
#106 = VERTEX_POINT ( 'NONE', #62 ) ;
#107 = APPLICATION_PROTOCOL_DEFINITION ( 'international standard', 'config_control_design', 1994, #93 ) ;
#108 = DIRECTION ( 'NONE',  ( 0.000000000000000000, 1.000000000000000000, 0.000000000000000000 ) ) ;
#109 = DIRECTION ( 'NONE',  ( 0.000000000000000000, 0.000000000000000000, 1.000000000000000000 ) ) ;
#110 = CARTESIAN_POINT ( 'NONE',  ( 0.000000000000000000, 4.000000000000000000, 0.000000000000000000 ) ) ;
#111 = CC_DESIGN_DATE_AND_TIME_ASSIGNMENT ( #32, #163, ( #148 ) ) ;
#112 = CARTESIAN_POINT ( 'NONE',  ( 0.000000000000000000, 4.000000000000000000, -140.0000000000000284 ) ) ;
#113 = ORIENTED_EDGE ( 'NONE', *, *, #143, .F. ) ;
#114 = AXIS2_PLACEMENT_3D ( 'NONE', #184, #41, #34 ) ;
#115 = EDGE_LOOP ( 'NONE', ( #185, #186 ) ) ;
#116 = EDGE_CURVE ( 'NONE', #96, #67, #210, .T. ) ;
#117 = ORIENTED_EDGE ( 'NONE', *, *, #221, .T. ) ;
#118 = AXIS2_PLACEMENT_3D ( 'NONE', #224, #57, #125 ) ;
#119 = DIRECTION ( 'NONE',  ( -0.000000000000000000, -1.000000000000000000, -0.000000000000000000 ) ) ;
#120 = APPLICATION_CONTEXT ( 'configuration controlled 3d designs of mechanical parts and assemblies' ) ;
#121 = EDGE_CURVE ( 'NONE', #26, #249, #64, .T. ) ;
#122 = EDGE_LOOP ( 'NONE', ( #60, #197, #117, #169 ) ) ;
#123 =( NAMED_UNIT ( * ) PLANE_ANGLE_UNIT ( ) SI_UNIT ( $, .RADIAN. ) );
#124 = CARTESIAN_POINT ( 'NONE',  ( 0.000000000000000000, 4.000000000000000000, -110.0000000000000000 ) ) ;
#125 = DIRECTION ( 'NONE',  ( 0.000000000000000000, 0.000000000000000000, 1.000000000000000000 ) ) ;
#126 = AXIS2_PLACEMENT_3D ( 'NONE', #136, #9, #176 ) ;
#127 = COORDINATED_UNIVERSAL_TIME_OFFSET ( 1, 0, .AHEAD. ) ;
#128 = EDGE_CURVE ( 'NONE', #76, #142, #138, .T. ) ;
#129 = APPROVAL_ROLE ( '' ) ;
#130 = EDGE_LOOP ( 'NONE', ( #74, #236, #4, #156 ) ) ;
#131 = VECTOR ( 'NONE', #54, 1000.000000000000000 ) ;
#132 = ORIENTED_EDGE ( 'NONE', *, *, #221, .F. ) ;
#133 = APPROVAL ( #230, 'UNSPECIFIED' ) ;
#134 = CC_DESIGN_APPROVAL ( #133, ( #148 ) ) ;
#135 = ORIENTED_EDGE ( 'NONE', *, *, #216, .F. ) ;
#136 = CARTESIAN_POINT ( 'NONE',  ( 0.000000000000000000, 4.000000000000000000, 0.000000000000000000 ) ) ;
#137 = DATE_TIME_ROLE ( 'classification_date' ) ;
#138 = CIRCLE ( 'NONE', #84, 110.0000000000000000 ) ;
#139 = CARTESIAN_POINT ( 'NONE',  ( 0.000000000000000000, 0.000000000000000000, -110.0000000000000000 ) ) ;
#140 = DIRECTION ( 'NONE',  ( 0.000000000000000000, 0.000000000000000000, 1.000000000000000000 ) ) ;
#141 = CC_DESIGN_APPROVAL ( #31, ( #85 ) ) ;
#142 = VERTEX_POINT ( 'NONE', #147 ) ;
#143 = EDGE_CURVE ( 'NONE', #67, #96, #233, .T. ) ;
#144 = ORIENTED_EDGE ( 'NONE', *, *, #116, .F. ) ;
#145 = APPROVAL_STATUS ( 'not_yet_approved' ) ;
#146 = LINE ( 'NONE', #124, #70 ) ;
#147 = CARTESIAN_POINT ( 'NONE',  ( 0.000000000000000000, 4.000000000000000000, -110.0000000000000000 ) ) ;
#148 = PRODUCT_DEFINITION ( 'UNKNOWN', '', #167, #232 ) ;
#149 = DIRECTION ( 'NONE',  ( -0.000000000000000000, -1.000000000000000000, -0.000000000000000000 ) ) ;
#150 = EDGE_LOOP ( 'NONE', ( #144, #113 ) ) ;
#151 = PRODUCT ( '3D_R243_219.1_17386600', '3D_R243_219.1_17386600', '', ( #88 ) ) ;
#152 = EDGE_CURVE ( 'NONE', #106, #180, #50, .T. ) ;
#153 = AXIS2_PLACEMENT_3D ( 'NONE', #189, #78, #234 ) ;
#154 = DIRECTION ( 'NONE',  ( 0.000000000000000000, 1.000000000000000000, 0.000000000000000000 ) ) ;
#155 = PERSON_AND_ORGANIZATION ( #243, #100 ) ;
#156 = ORIENTED_EDGE ( 'NONE', *, *, #152, .F. ) ;
#157 = APPROVAL_PERSON_ORGANIZATION ( #244, #133, #227 ) ;
#158 = CYLINDRICAL_SURFACE ( 'NONE', #171, 140.0000000000000284 ) ;
#159 = CALENDAR_DATE ( 2024, 6, 8 ) ;
#160 = EDGE_CURVE ( 'NONE', #26, #67, #27, .T. ) ;
#161 = EDGE_CURVE ( 'NONE', #76, #106, #10, .T. ) ;
#162 = AXIS2_PLACEMENT_3D ( 'NONE', #40, #3, #200 ) ;
#163 = DATE_TIME_ROLE ( 'creation_date' ) ;
#164 = DIRECTION ( 'NONE',  ( 0.000000000000000000, -0.000000000000000000, 1.000000000000000000 ) ) ;
#165 = PERSON_AND_ORGANIZATION ( #243, #100 ) ;
#166 = DIRECTION ( 'NONE',  ( 0.000000000000000000, 1.000000000000000000, 0.000000000000000000 ) ) ;
#167 = PRODUCT_DEFINITION_FORMATION_WITH_SPECIFIED_SOURCE ( 'ANY', '', #151, .NOT_KNOWN. ) ;
#168 =( LENGTH_UNIT ( ) NAMED_UNIT ( * ) SI_UNIT ( .MILLI., .METRE. ) );
#169 = ORIENTED_EDGE ( 'NONE', *, *, #116, .T. ) ;
#170 = UNCERTAINTY_MEASURE_WITH_UNIT (LENGTH_MEASURE( 1.000000000000000082E-05 ), #168, 'distance_accuracy_value', 'NONE');
#171 = AXIS2_PLACEMENT_3D ( 'NONE', #101, #241, #51 ) ;
#172 = EDGE_LOOP ( 'NONE', ( #174, #44 ) ) ;
#173 = AXIS2_PLACEMENT_3D ( 'NONE', #217, #15, #140 ) ;
#174 = ORIENTED_EDGE ( 'NONE', *, *, #2, .T. ) ;
#175 = ADVANCED_FACE ( 'NONE', ( #191, #240 ), #196, .T. ) ;
#176 = DIRECTION ( 'NONE',  ( 0.000000000000000000, 0.000000000000000000, -1.000000000000000000 ) ) ;
#177 = APPROVAL_DATE_TIME ( #218, #31 ) ;
#178 = ORIENTED_EDGE ( 'NONE', *, *, #13, .F. ) ;
#179 = APPLICATION_PROTOCOL_DEFINITION ( 'international standard', 'config_control_design', 1994, #120 ) ;
#180 = VERTEX_POINT ( 'NONE', #139 ) ;
#181 = AXIS2_PLACEMENT_3D ( 'NONE', #45, #154, #66 ) ;
#182 = DATE_AND_TIME ( #223, #102 ) ;
#183 = FACE_OUTER_BOUND ( 'NONE', #220, .T. ) ;
#184 = CARTESIAN_POINT ( 'NONE',  ( 0.000000000000000000, 4.000000000000000000, 0.000000000000000000 ) ) ;
#185 = ORIENTED_EDGE ( 'NONE', *, *, #214, .F. ) ;
#186 = ORIENTED_EDGE ( 'NONE', *, *, #128, .F. ) ;
#187 = DIRECTION ( 'NONE',  ( -0.000000000000000000, -1.000000000000000000, -0.000000000000000000 ) ) ;
#188 = ORIENTED_EDGE ( 'NONE', *, *, #152, .T. ) ;
#189 = CARTESIAN_POINT ( 'NONE',  ( 0.000000000000000000, 0.000000000000000000, 0.000000000000000000 ) ) ;
#190 = COORDINATED_UNIVERSAL_TIME_OFFSET ( 1, 0, .AHEAD. ) ;
#191 = FACE_OUTER_BOUND ( 'NONE', #172, .T. ) ;
#192 = AXIS2_PLACEMENT_3D ( 'NONE', #110, #166, #38 ) ;
#193 = FACE_OUTER_BOUND ( 'NONE', #122, .T. ) ;
#194 = ADVANCED_FACE ( 'NONE', ( #81 ), #158, .T. ) ;
#195 = CIRCLE ( 'NONE', #98, 110.0000000000000000 ) ;
#196 = PLANE ( 'NONE',  #219 ) ;
#197 = ORIENTED_EDGE ( 'NONE', *, *, #2, .F. ) ;
#198 = LOCAL_TIME ( 12, 7, 43.00000000000000000, #83 ) ;
#199 = APPROVAL_DATE_TIME ( #39, #133 ) ;
#200 = DIRECTION ( 'NONE',  ( 0.000000000000000000, 0.000000000000000000, -1.000000000000000000 ) ) ;
#201 = FACE_OUTER_BOUND ( 'NONE', #130, .T. ) ;
#202 = CC_DESIGN_PERSON_AND_ORGANIZATION_ASSIGNMENT ( #61, #248, ( #148 ) ) ;
#203 = CARTESIAN_POINT ( 'NONE',  ( 0.000000000000000000, 4.000000000000000000, 0.000000000000000000 ) ) ;
#204 = CIRCLE ( 'NONE', #192, 140.0000000000000284 ) ;
#205 = CARTESIAN_POINT ( 'NONE',  ( 0.000000000000000000, 4.000000000000000000, -140.0000000000000284 ) ) ;
#206 = APPROVAL_DATE_TIME ( #182, #52 ) ;
#207 = ADVANCED_FACE ( 'NONE', ( #193 ), #239, .T. ) ;
#208 = LINE ( 'NONE', #112, #131 ) ;
#209 = CYLINDRICAL_SURFACE ( 'NONE', #162, 110.0000000000000000 ) ;
#210 = CIRCLE ( 'NONE', #118, 140.0000000000000284 ) ;
#211 = ORIENTED_EDGE ( 'NONE', *, *, #160, .T. ) ;
#212 = CARTESIAN_POINT ( 'NONE',  ( 1.714505518806294914E-14, 4.000000000000000000, 140.0000000000000284 ) ) ;
#213 = PERSON_AND_ORGANIZATION_ROLE ( 'classification_officer' ) ;
#214 = EDGE_CURVE ( 'NONE', #142, #76, #58, .T. ) ;
#215 = MANIFOLD_SOLID_BREP ( 'Aufsatz-Linear austragen1', #99 ) ;
#216 = EDGE_CURVE ( 'NONE', #180, #106, #195, .T. ) ;
#217 = CARTESIAN_POINT ( 'NONE',  ( 0.000000000000000000, 4.000000000000000000, 0.000000000000000000 ) ) ;
#218 = DATE_AND_TIME ( #159, #37 ) ;
#219 = AXIS2_PLACEMENT_3D ( 'NONE', #29, #103, #104 ) ;
#220 = EDGE_LOOP ( 'NONE', ( #97, #7, #135, #178 ) ) ;
#221 = EDGE_CURVE ( 'NONE', #249, #96, #208, .T. ) ;
#222 = CALENDAR_DATE ( 2024, 6, 8 ) ;
#223 = CALENDAR_DATE ( 2024, 6, 8 ) ;
#224 = CARTESIAN_POINT ( 'NONE',  ( 0.000000000000000000, 0.000000000000000000, 0.000000000000000000 ) ) ;
#225 = PERSON_AND_ORGANIZATION_ROLE ( 'design_owner' ) ;
#226 = CARTESIAN_POINT ( 'NONE',  ( 0.000000000000000000, 0.000000000000000000, -140.0000000000000284 ) ) ;
#227 = APPROVAL_ROLE ( '' ) ;
#228 = CARTESIAN_POINT ( 'NONE',  ( 1.714505518806294914E-14, 4.000000000000000000, 140.0000000000000284 ) ) ;
#229 = ADVANCED_FACE ( 'NONE', ( #201 ), #56, .F. ) ;
#230 = APPROVAL_STATUS ( 'not_yet_approved' ) ;
#231 = DIRECTION ( 'NONE',  ( 0.000000000000000000, 1.000000000000000000, 0.000000000000000000 ) ) ;
#232 = DESIGN_CONTEXT ( 'detailed design', #93, 'design' ) ;
#233 = CIRCLE ( 'NONE', #153, 140.0000000000000284 ) ;
#234 = DIRECTION ( 'NONE',  ( 0.000000000000000000, 0.000000000000000000, 1.000000000000000000 ) ) ;
#235 = DATE_AND_TIME ( #68, #14 ) ;
#236 = ORIENTED_EDGE ( 'NONE', *, *, #128, .T. ) ;
#237 = CC_DESIGN_SECURITY_CLASSIFICATION ( #85, ( #167 ) ) ;
#238 = AXIS2_PLACEMENT_3D ( 'NONE', #75, #73, #105 ) ;
#239 = CYLINDRICAL_SURFACE ( 'NONE', #126, 140.0000000000000284 ) ;
#240 = FACE_BOUND ( 'NONE', #115, .T. ) ;
#241 = DIRECTION ( 'NONE',  ( -0.000000000000000000, -1.000000000000000000, -0.000000000000000000 ) ) ;
#242 = CC_DESIGN_PERSON_AND_ORGANIZATION_ASSIGNMENT ( #94, #46, ( #167 ) ) ;
#243 = PERSON ( 'UNSPECIFIED', 'UNSPECIFIED', 'UNSPECIFIED', ('UNSPECIFIED'), ('UNSPECIFIED'), ('UNSPECIFIED') ) ;
#244 = PERSON_AND_ORGANIZATION ( #243, #100 ) ;
#245 = AXIS2_PLACEMENT_3D ( 'NONE', #20, #108, #164 ) ;
#246 = CC_DESIGN_APPROVAL ( #52, ( #167 ) ) ;
#247 = PERSON_AND_ORGANIZATION ( #243, #100 ) ;
#248 = PERSON_AND_ORGANIZATION_ROLE ( 'creator' ) ;
#249 = VERTEX_POINT ( 'NONE', #205 ) ;
ENDSEC;
END-ISO-10303-21;
