ISO-10303-21;
HEADER;
FILE_DESCRIPTION (( 'STEP AP203' ),
    '1' );
FILE_NAME ('3D_GR1442_120 x 5_188741201.STEP',
    '2024-10-22T15:41:00',
    ( '' ),
    ( '' ),
    'SwSTEP 2.0',
    'SolidWorks 2023',
    '' );
FILE_SCHEMA (( 'CONFIG_CONTROL_DESIGN' ));
ENDSEC;

DATA;
#1 = CC_DESIGN_APPROVAL ( #212, ( #115 ) ) ;
#2 = APPROVAL_DATE_TIME ( #113, #212 ) ;
#3 = CARTESIAN_POINT ( 'NONE',  ( 7.332572709894776462E-15, 5.000000000000000000, -59.75000000000000000 ) ) ;
#4 = DIRECTION ( 'NONE',  ( 0.000000000000000000, 1.000000000000000000, 0.000000000000000000 ) ) ;
#5 = PERSON_AND_ORGANIZATION ( #216, #192 ) ;
#6 = FACE_OUTER_BOUND ( 'NONE', #134, .T. ) ;
#7 = APPROVAL ( #173, 'UNSPECIFIED' ) ;
#8 = APPROVAL_STATUS ( 'not_yet_approved' ) ;
#9 = FACE_OUTER_BOUND ( 'NONE', #88, .T. ) ;
#10 = DIRECTION ( 'NONE',  ( -0.000000000000000000, -1.000000000000000000, -0.000000000000000000 ) ) ;
#11 = CYLINDRICAL_SURFACE ( 'NONE', #22, 60.00000000000000000 ) ;
#12 = AXIS2_PLACEMENT_3D ( 'NONE', #55, #124, #170 ) ;
#13 = ADVANCED_BREP_SHAPE_REPRESENTATION ( '3D_GR1442_120 x 5_188741201', ( #63, #96 ), #87 ) ;
#14 = AXIS2_PLACEMENT_3D ( 'NONE', #243, #93, #183 ) ;
#15 = APPROVAL ( #8, 'UNSPECIFIED' ) ;
#16 = VERTEX_POINT ( 'NONE', #181 ) ;
#17 = AXIS2_PLACEMENT_3D ( 'NONE', #219, #238, #155 ) ;
#18 = UNCERTAINTY_MEASURE_WITH_UNIT (LENGTH_MEASURE( 1.000000000000000082E-05 ), #32, 'distance_accuracy_value', 'NONE');
#19 = ORIENTED_EDGE ( 'NONE', *, *, #81, .F. ) ;
#20 = VERTEX_POINT ( 'NONE', #72 ) ;
#21 = ORIENTED_EDGE ( 'NONE', *, *, #120, .T. ) ;
#22 = AXIS2_PLACEMENT_3D ( 'NONE', #97, #100, #184 ) ;
#23 = ADVANCED_FACE ( 'NONE', ( #117 ), #239, .T. ) ;
#24 = CALENDAR_DATE ( 2024, 22, 10 ) ;
#25 = CARTESIAN_POINT ( 'NONE',  ( 0.000000000000000000, 0.2500000000000002220, 0.000000000000000000 ) ) ;
#26 = APPLICATION_PROTOCOL_DEFINITION ( 'international standard', 'config_control_design', 1994, #127 ) ;
#27 = DIRECTION ( 'NONE',  ( 0.000000000000000000, 0.000000000000000000, 1.000000000000000000 ) ) ;
#28 = EDGE_CURVE ( 'NONE', #89, #16, #205, .T. ) ;
#29 = DATE_TIME_ROLE ( 'creation_date' ) ;
#30 = AXIS2_PLACEMENT_3D ( 'NONE', #224, #46, #271 ) ;
#31 = DIRECTION ( 'NONE',  ( 0.000000000000000000, 0.000000000000000000, 1.000000000000000000 ) ) ;
#32 =( LENGTH_UNIT ( ) NAMED_UNIT ( * ) SI_UNIT ( .MILLI., .METRE. ) );
#33 = CARTESIAN_POINT ( 'NONE',  ( 0.000000000000000000, 0.2500000000000002220, 0.000000000000000000 ) ) ;
#34 = CARTESIAN_POINT ( 'NONE',  ( 0.000000000000000000, 4.750000000000000000, 0.000000000000000000 ) ) ;
#35 = CC_DESIGN_PERSON_AND_ORGANIZATION_ASSIGNMENT ( #5, #267, ( #115 ) ) ;
#36 = AXIS2_PLACEMENT_3D ( 'NONE', #165, #242, #248 ) ;
#37 = DIRECTION ( 'NONE',  ( -0.000000000000000000, -1.000000000000000000, -0.000000000000000000 ) ) ;
#38 = EDGE_CURVE ( 'NONE', #279, #20, #234, .T. ) ;
#39 = CC_DESIGN_APPROVAL ( #7, ( #246 ) ) ;
#40 = LOCAL_TIME ( 17, 41, 0.000000000000000000, #166 ) ;
#41 = DIRECTION ( 'NONE',  ( 0.000000000000000000, 1.000000000000000000, 0.000000000000000000 ) ) ;
#42 = CC_DESIGN_PERSON_AND_ORGANIZATION_ASSIGNMENT ( #128, #122, ( #82 ) ) ;
#43 = ORIENTED_EDGE ( 'NONE', *, *, #270, .T. ) ;
#44 = CIRCLE ( 'NONE', #118, 60.00000000000000000 ) ;
#45 = COORDINATED_UNIVERSAL_TIME_OFFSET ( 1, 0, .AHEAD. ) ;
#46 = DIRECTION ( 'NONE',  ( -1.000000000000000000, 0.000000000000000000, 0.000000000000000000 ) ) ;
#47 = ADVANCED_FACE ( 'NONE', ( #220 ), #225, .T. ) ;
#48 = COORDINATED_UNIVERSAL_TIME_OFFSET ( 1, 0, .AHEAD. ) ;
#49 = CYLINDRICAL_SURFACE ( 'NONE', #50, 60.00000000000000000 ) ;
#50 = AXIS2_PLACEMENT_3D ( 'NONE', #143, #71, #74 ) ;
#51 = CARTESIAN_POINT ( 'NONE',  ( 7.347880794884118356E-15, 5.000000000000000000, 60.00000000000000000 ) ) ;
#52 = DIRECTION ( 'NONE',  ( -0.000000000000000000, -1.000000000000000000, -0.000000000000000000 ) ) ;
#53 = CC_DESIGN_PERSON_AND_ORGANIZATION_ASSIGNMENT ( #275, #80, ( #82 ) ) ;
#54 = COORDINATED_UNIVERSAL_TIME_OFFSET ( 1, 0, .AHEAD. ) ;
#55 = CARTESIAN_POINT ( 'NONE',  ( 0.000000000000000000, 5.000000000000000000, 0.000000000000000000 ) ) ;
#56 = CALENDAR_DATE ( 2024, 22, 10 ) ;
#57 = CLOSED_SHELL ( 'NONE', ( #227, #47, #69, #105, #148, #95, #102, #23 ) ) ;
#58 = AXIS2_PLACEMENT_3D ( 'NONE', #103, #37, #276 ) ;
#59 = PERSON_AND_ORGANIZATION ( #216, #192 ) ;
#60 = DIRECTION ( 'NONE',  ( -0.000000000000000000, -1.000000000000000000, -0.000000000000000000 ) ) ;
#61 = CIRCLE ( 'NONE', #169, 59.75000000000000000 ) ;
#62 = ORIENTED_EDGE ( 'NONE', *, *, #208, .T. ) ;
#63 = MANIFOLD_SOLID_BREP ( 'Verrundung1', #57 ) ;
#64 = EDGE_CURVE ( 'NONE', #176, #260, #245, .T. ) ;
#65 = EDGE_LOOP ( 'NONE', ( #150, #235, #21, #214 ) ) ;
#66 = ORIENTED_EDGE ( 'NONE', *, *, #252, .F. ) ;
#67 = AXIS2_PLACEMENT_3D ( 'NONE', #240, #207, #209 ) ;
#68 = EDGE_LOOP ( 'NONE', ( #112, #232, #133, #66 ) ) ;
#69 = ADVANCED_FACE ( 'NONE', ( #265 ), #49, .T. ) ;
#70 = AXIS2_PLACEMENT_3D ( 'NONE', #34, #186, #162 ) ;
#71 = DIRECTION ( 'NONE',  ( -0.000000000000000000, -1.000000000000000000, -0.000000000000000000 ) ) ;
#72 = CARTESIAN_POINT ( 'NONE',  ( 7.332572709894776462E-15, 0.000000000000000000, -59.75000000000000000 ) ) ;
#73 = MECHANICAL_CONTEXT ( 'NONE', #127, 'mechanical' ) ;
#74 = DIRECTION ( 'NONE',  ( 0.000000000000000000, 0.000000000000000000, -1.000000000000000000 ) ) ;
#75 = APPROVAL_ROLE ( '' ) ;
#76 = CIRCLE ( 'NONE', #58, 60.00000000000000000 ) ;
#77 = DIRECTION ( 'NONE',  ( 0.000000000000000000, 0.000000000000000000, 1.000000000000000000 ) ) ;
#78 = EDGE_CURVE ( 'NONE', #20, #279, #213, .T. ) ;
#79 = CALENDAR_DATE ( 2024, 22, 10 ) ;
#80 = PERSON_AND_ORGANIZATION_ROLE ( 'creator' ) ;
#81 = EDGE_CURVE ( 'NONE', #91, #16, #253, .T. ) ;
#82 = PRODUCT_DEFINITION_FORMATION_WITH_SPECIFIED_SOURCE ( 'ANY', '', #156, .NOT_KNOWN. ) ;
#83 = APPROVAL_PERSON_ORGANIZATION ( #84, #7, #249 ) ;
#84 = PERSON_AND_ORGANIZATION ( #216, #192 ) ;
#85 = PERSON_AND_ORGANIZATION_ROLE ( 'classification_officer' ) ;
#86 = LINE ( 'NONE', #258, #221 ) ;
#87 =( GEOMETRIC_REPRESENTATION_CONTEXT ( 3 ) GLOBAL_UNCERTAINTY_ASSIGNED_CONTEXT ( ( #18 ) ) GLOBAL_UNIT_ASSIGNED_CONTEXT ( ( #32, #264, #241 ) ) REPRESENTATION_CONTEXT ( 'NONE', 'WORKASPACE' ) );
#88 = EDGE_LOOP ( 'NONE', ( #110, #107 ) ) ;
#89 = VERTEX_POINT ( 'NONE', #119 ) ;
#90 = DESIGN_CONTEXT ( 'detailed design', #262, 'design' ) ;
#91 = VERTEX_POINT ( 'NONE', #157 ) ;
#92 = EDGE_LOOP ( 'NONE', ( #261, #277, #195, #19 ) ) ;
#93 = DIRECTION ( 'NONE',  ( 1.000000000000000000, -0.000000000000000000, 1.224646799147353207E-16 ) ) ;
#94 = DIRECTION ( 'NONE',  ( 0.000000000000000000, 0.000000000000000000, 1.000000000000000000 ) ) ;
#95 = ADVANCED_FACE ( 'NONE', ( #9 ), #263, .F. ) ;
#96 = AXIS2_PLACEMENT_3D ( 'NONE', #218, #154, #206 ) ;
#97 = CARTESIAN_POINT ( 'NONE',  ( 0.000000000000000000, 5.000000000000000000, 0.000000000000000000 ) ) ;
#98 = APPROVAL_ROLE ( '' ) ;
#99 = DIRECTION ( 'NONE',  ( 0.000000000000000000, 1.000000000000000000, 0.000000000000000000 ) ) ;
#100 = DIRECTION ( 'NONE',  ( -0.000000000000000000, -1.000000000000000000, -0.000000000000000000 ) ) ;
#101 = VECTOR ( 'NONE', #10, 1000.000000000000000 ) ;
#102 = ADVANCED_FACE ( 'NONE', ( #121 ), #135, .T. ) ;
#103 = CARTESIAN_POINT ( 'NONE',  ( 0.000000000000000000, 4.750000000000000000, 0.000000000000000000 ) ) ;
#104 = TOROIDAL_SURFACE ( 'NONE', #149, 59.75000000000000000, 0.2500000000000000000 ) ;
#105 = ADVANCED_FACE ( 'NONE', ( #6 ), #11, .T. ) ;
#106 = DIRECTION ( 'NONE',  ( -0.000000000000000000, -1.000000000000000000, -0.000000000000000000 ) ) ;
#107 = ORIENTED_EDGE ( 'NONE', *, *, #78, .T. ) ;
#108 = AXIS2_PLACEMENT_3D ( 'NONE', #33, #99, #94 ) ;
#109 = ORIENTED_EDGE ( 'NONE', *, *, #208, .F. ) ;
#110 = ORIENTED_EDGE ( 'NONE', *, *, #38, .T. ) ;
#111 = LOCAL_TIME ( 17, 41, 0.000000000000000000, #185 ) ;
#112 = ORIENTED_EDGE ( 'NONE', *, *, #78, .F. ) ;
#113 = DATE_AND_TIME ( #24, #178 ) ;
#114 = VERTEX_POINT ( 'NONE', #180 ) ;
#115 = PRODUCT_DEFINITION ( 'UNKNOWN', '', #82, #90 ) ;
#116 = APPLICATION_PROTOCOL_DEFINITION ( 'international standard', 'config_control_design', 1994, #262 ) ;
#117 = FACE_OUTER_BOUND ( 'NONE', #65, .T. ) ;
#118 = AXIS2_PLACEMENT_3D ( 'NONE', #25, #268, #231 ) ;
#119 = CARTESIAN_POINT ( 'NONE',  ( 7.347880794884118356E-15, 4.750000000000000000, 60.00000000000000000 ) ) ;
#120 = EDGE_CURVE ( 'NONE', #89, #176, #274, .T. ) ;
#121 = FACE_OUTER_BOUND ( 'NONE', #92, .T. ) ;
#122 = PERSON_AND_ORGANIZATION_ROLE ( 'design_supplier' ) ;
#123 = AXIS2_PLACEMENT_3D ( 'NONE', #144, #4, #244 ) ;
#124 = DIRECTION ( 'NONE',  ( 0.000000000000000000, 1.000000000000000000, 0.000000000000000000 ) ) ;
#125 = DATE_TIME_ROLE ( 'classification_date' ) ;
#126 = CC_DESIGN_DATE_AND_TIME_ASSIGNMENT ( #161, #29, ( #115 ) ) ;
#127 = APPLICATION_CONTEXT ( 'configuration controlled 3d designs of mechanical parts and assemblies' ) ;
#128 = PERSON_AND_ORGANIZATION ( #216, #192 ) ;
#129 = EDGE_CURVE ( 'NONE', #260, #176, #61, .T. ) ;
#130 = CARTESIAN_POINT ( 'NONE',  ( 0.000000000000000000, 0.2500000000000002220, 59.75000000000000000 ) ) ;
#131 = EDGE_LOOP ( 'NONE', ( #152, #43, #256, #233 ) ) ;
#132 = AXIS2_PLACEMENT_3D ( 'NONE', #247, #136, #142 ) ;
#133 = ORIENTED_EDGE ( 'NONE', *, *, #139, .F. ) ;
#134 = EDGE_LOOP ( 'NONE', ( #196, #215, #62, #236 ) ) ;
#135 = TOROIDAL_SURFACE ( 'NONE', #108, 59.75000000000000000, 0.2500000000000000000 ) ;
#136 = DIRECTION ( 'NONE',  ( 1.000000000000000000, -0.000000000000000000, 1.224646799147353207E-16 ) ) ;
#137 = CALENDAR_DATE ( 2024, 22, 10 ) ;
#138 = CARTESIAN_POINT ( 'NONE',  ( 0.000000000000000000, 0.2500000000000002220, 0.000000000000000000 ) ) ;
#139 = EDGE_CURVE ( 'NONE', #16, #91, #44, .T. ) ;
#140 = AXIS2_PLACEMENT_3D ( 'NONE', #223, #52, #27 ) ;
#141 = CC_DESIGN_SECURITY_CLASSIFICATION ( #246, ( #82 ) ) ;
#142 = DIRECTION ( 'NONE',  ( 1.224646799147349509E-16, 0.000000000000000000, -1.000000000000000000 ) ) ;
#143 = CARTESIAN_POINT ( 'NONE',  ( 0.000000000000000000, 5.000000000000000000, 0.000000000000000000 ) ) ;
#144 = CARTESIAN_POINT ( 'NONE',  ( 0.000000000000000000, 0.000000000000000000, 0.000000000000000000 ) ) ;
#145 = APPROVAL_DATE_TIME ( #147, #7 ) ;
#146 = APPROVAL_PERSON_ORGANIZATION ( #158, #212, #75 ) ;
#147 = DATE_AND_TIME ( #56, #202 ) ;
#148 = ADVANCED_FACE ( 'NONE', ( #167 ), #226, .T. ) ;
#149 = AXIS2_PLACEMENT_3D ( 'NONE', #151, #41, #164 ) ;
#150 = ORIENTED_EDGE ( 'NONE', *, *, #270, .F. ) ;
#151 = CARTESIAN_POINT ( 'NONE',  ( 0.000000000000000000, 4.750000000000000000, 0.000000000000000000 ) ) ;
#152 = ORIENTED_EDGE ( 'NONE', *, *, #153, .F. ) ;
#153 = EDGE_CURVE ( 'NONE', #114, #89, #266, .T. ) ;
#154 = DIRECTION ( 'NONE',  ( 0.000000000000000000, 0.000000000000000000, 1.000000000000000000 ) ) ;
#155 = DIRECTION ( 'NONE',  ( 0.000000000000000000, 0.000000000000000000, 1.000000000000000000 ) ) ;
#156 = PRODUCT ( '3D_GR1442_120 x 5_188741201', '3D_GR1442_120 x 5_188741201', '', ( #73 ) ) ;
#157 = CARTESIAN_POINT ( 'NONE',  ( 0.000000000000000000, 0.2500000000000002220, -60.00000000000000000 ) ) ;
#158 = PERSON_AND_ORGANIZATION ( #216, #192 ) ;
#159 = CC_DESIGN_PERSON_AND_ORGANIZATION_ASSIGNMENT ( #59, #85, ( #246 ) ) ;
#160 = ORIENTED_EDGE ( 'NONE', *, *, #28, .T. ) ;
#161 = DATE_AND_TIME ( #137, #201 ) ;
#162 = DIRECTION ( 'NONE',  ( 0.000000000000000000, 0.000000000000000000, 1.000000000000000000 ) ) ;
#163 = APPROVAL_PERSON_ORGANIZATION ( #204, #15, #98 ) ;
#164 = DIRECTION ( 'NONE',  ( 0.000000000000000000, 0.000000000000000000, 1.000000000000000000 ) ) ;
#165 = CARTESIAN_POINT ( 'NONE',  ( 0.000000000000000000, 0.000000000000000000, 0.000000000000000000 ) ) ;
#166 = COORDINATED_UNIVERSAL_TIME_OFFSET ( 1, 0, .AHEAD. ) ;
#167 = FACE_OUTER_BOUND ( 'NONE', #193, .T. ) ;
#168 = CALENDAR_DATE ( 2024, 22, 10 ) ;
#169 = AXIS2_PLACEMENT_3D ( 'NONE', #187, #217, #77 ) ;
#170 = DIRECTION ( 'NONE',  ( 0.000000000000000000, -0.000000000000000000, 1.000000000000000000 ) ) ;
#171 = CARTESIAN_POINT ( 'NONE',  ( 0.000000000000000000, 5.000000000000000000, 59.75000000000000000 ) ) ;
#172 = EDGE_CURVE ( 'NONE', #89, #114, #76, .T. ) ;
#173 = APPROVAL_STATUS ( 'not_yet_approved' ) ;
#174 = CIRCLE ( 'NONE', #230, 0.2500000000000002220 ) ;
#175 = ORIENTED_EDGE ( 'NONE', *, *, #64, .T. ) ;
#176 = VERTEX_POINT ( 'NONE', #171 ) ;
#177 = ORIENTED_EDGE ( 'NONE', *, *, #139, .T. ) ;
#178 = LOCAL_TIME ( 17, 41, 0.000000000000000000, #45 ) ;
#179 = ORIENTED_EDGE ( 'NONE', *, *, #153, .T. ) ;
#180 = CARTESIAN_POINT ( 'NONE',  ( 0.000000000000000000, 4.750000000000000000, -60.00000000000000000 ) ) ;
#181 = CARTESIAN_POINT ( 'NONE',  ( 7.347880794884118356E-15, 0.2500000000000002220, 60.00000000000000000 ) ) ;
#182 = AXIS2_PLACEMENT_3D ( 'NONE', #138, #200, #31 ) ;
#183 = DIRECTION ( 'NONE',  ( 1.224646799147349509E-16, 0.000000000000000000, -1.000000000000000000 ) ) ;
#184 = DIRECTION ( 'NONE',  ( 0.000000000000000000, 0.000000000000000000, -1.000000000000000000 ) ) ;
#185 = COORDINATED_UNIVERSAL_TIME_OFFSET ( 1, 0, .AHEAD. ) ;
#186 = DIRECTION ( 'NONE',  ( 0.000000000000000000, 1.000000000000000000, 0.000000000000000000 ) ) ;
#187 = CARTESIAN_POINT ( 'NONE',  ( 0.000000000000000000, 5.000000000000000000, 0.000000000000000000 ) ) ;
#188 = CIRCLE ( 'NONE', #14, 0.2500000000000002220 ) ;
#189 = PRODUCT_RELATED_PRODUCT_CATEGORY ( 'detail', '', ( #156 ) ) ;
#190 = APPROVAL_DATE_TIME ( #229, #15 ) ;
#191 = SHAPE_DEFINITION_REPRESENTATION ( #203, #13 ) ;
#192 = ORGANIZATION ( 'UNSPECIFIED', 'UNSPECIFIED', '' ) ;
#193 = EDGE_LOOP ( 'NONE', ( #175, #198 ) ) ;
#194 = CC_DESIGN_DATE_AND_TIME_ASSIGNMENT ( #228, #125, ( #246 ) ) ;
#195 = ORIENTED_EDGE ( 'NONE', *, *, #252, .T. ) ;
#196 = ORIENTED_EDGE ( 'NONE', *, *, #28, .F. ) ;
#197 = DIRECTION ( 'NONE',  ( 0.000000000000000000, 0.000000000000000000, 1.000000000000000000 ) ) ;
#198 = ORIENTED_EDGE ( 'NONE', *, *, #129, .T. ) ;
#199 = DIRECTION ( 'NONE',  ( -1.000000000000000000, 0.000000000000000000, 0.000000000000000000 ) ) ;
#200 = DIRECTION ( 'NONE',  ( 0.000000000000000000, 1.000000000000000000, 0.000000000000000000 ) ) ;
#201 = LOCAL_TIME ( 17, 41, 0.000000000000000000, #48 ) ;
#202 = LOCAL_TIME ( 17, 41, 0.000000000000000000, #54 ) ;
#203 = PRODUCT_DEFINITION_SHAPE ( 'NONE', 'NONE',  #115 ) ;
#204 = PERSON_AND_ORGANIZATION ( #216, #192 ) ;
#205 = LINE ( 'NONE', #51, #101 ) ;
#206 = DIRECTION ( 'NONE',  ( 1.000000000000000000, 0.000000000000000000, 0.000000000000000000 ) ) ;
#207 = DIRECTION ( 'NONE',  ( 0.000000000000000000, 1.000000000000000000, 0.000000000000000000 ) ) ;
#208 = EDGE_CURVE ( 'NONE', #114, #91, #86, .T. ) ;
#209 = DIRECTION ( 'NONE',  ( 0.000000000000000000, 0.000000000000000000, 1.000000000000000000 ) ) ;
#210 = AXIS2_PLACEMENT_3D ( 'NONE', #251, #60, #211 ) ;
#211 = DIRECTION ( 'NONE',  ( 0.000000000000000000, 0.000000000000000000, 1.000000000000000000 ) ) ;
#212 = APPROVAL ( #272, 'UNSPECIFIED' ) ;
#213 = CIRCLE ( 'NONE', #140, 59.75000000000000000 ) ;
#214 = ORIENTED_EDGE ( 'NONE', *, *, #129, .F. ) ;
#215 = ORIENTED_EDGE ( 'NONE', *, *, #172, .T. ) ;
#216 = PERSON ( 'UNSPECIFIED', 'UNSPECIFIED', 'UNSPECIFIED', ('UNSPECIFIED'), ('UNSPECIFIED'), ('UNSPECIFIED') ) ;
#217 = DIRECTION ( 'NONE',  ( 0.000000000000000000, 1.000000000000000000, 0.000000000000000000 ) ) ;
#218 = CARTESIAN_POINT ( 'NONE',  ( 0.000000000000000000, 0.000000000000000000, 0.000000000000000000 ) ) ;
#219 = CARTESIAN_POINT ( 'NONE',  ( 0.000000000000000000, 0.2500000000000002220, 0.000000000000000000 ) ) ;
#220 = FACE_OUTER_BOUND ( 'NONE', #68, .T. ) ;
#221 = VECTOR ( 'NONE', #106, 1000.000000000000000 ) ;
#222 = CARTESIAN_POINT ( 'NONE',  ( 0.000000000000000000, 0.000000000000000000, 59.75000000000000000 ) ) ;
#223 = CARTESIAN_POINT ( 'NONE',  ( 0.000000000000000000, 0.000000000000000000, 0.000000000000000000 ) ) ;
#224 = CARTESIAN_POINT ( 'NONE',  ( 0.000000000000000000, 4.750000000000000000, 59.75000000000000000 ) ) ;
#225 = TOROIDAL_SURFACE ( 'NONE', #17, 59.75000000000000000, 0.2500000000000000000 ) ;
#226 = PLANE ( 'NONE',  #12 ) ;
#227 = ADVANCED_FACE ( 'NONE', ( #255 ), #104, .T. ) ;
#228 = DATE_AND_TIME ( #79, #40 ) ;
#229 = DATE_AND_TIME ( #168, #111 ) ;
#230 = AXIS2_PLACEMENT_3D ( 'NONE', #130, #199, #197 ) ;
#231 = DIRECTION ( 'NONE',  ( 0.000000000000000000, 0.000000000000000000, 1.000000000000000000 ) ) ;
#232 = ORIENTED_EDGE ( 'NONE', *, *, #278, .T. ) ;
#233 = ORIENTED_EDGE ( 'NONE', *, *, #120, .F. ) ;
#234 = CIRCLE ( 'NONE', #36, 59.75000000000000000 ) ;
#235 = ORIENTED_EDGE ( 'NONE', *, *, #172, .F. ) ;
#236 = ORIENTED_EDGE ( 'NONE', *, *, #81, .T. ) ;
#237 = PERSON_AND_ORGANIZATION_ROLE ( 'design_owner' ) ;
#238 = DIRECTION ( 'NONE',  ( 0.000000000000000000, 1.000000000000000000, 0.000000000000000000 ) ) ;
#239 = TOROIDAL_SURFACE ( 'NONE', #70, 59.75000000000000000, 0.2500000000000000000 ) ;
#240 = CARTESIAN_POINT ( 'NONE',  ( 0.000000000000000000, 5.000000000000000000, 0.000000000000000000 ) ) ;
#241 =( NAMED_UNIT ( * ) SI_UNIT ( $, .STERADIAN. ) SOLID_ANGLE_UNIT ( ) );
#242 = DIRECTION ( 'NONE',  ( -0.000000000000000000, -1.000000000000000000, -0.000000000000000000 ) ) ;
#243 = CARTESIAN_POINT ( 'NONE',  ( 7.317264624905434569E-15, 0.2500000000000002220, -59.75000000000000000 ) ) ;
#244 = DIRECTION ( 'NONE',  ( 0.000000000000000000, -0.000000000000000000, 1.000000000000000000 ) ) ;
#245 = CIRCLE ( 'NONE', #67, 59.75000000000000000 ) ;
#246 = SECURITY_CLASSIFICATION ( '', '', #250 ) ;
#247 = CARTESIAN_POINT ( 'NONE',  ( 7.317264624905434569E-15, 4.750000000000000000, -59.75000000000000000 ) ) ;
#248 = DIRECTION ( 'NONE',  ( 0.000000000000000000, 0.000000000000000000, 1.000000000000000000 ) ) ;
#249 = APPROVAL_ROLE ( '' ) ;
#250 = SECURITY_CLASSIFICATION_LEVEL ( 'unclassified' ) ;
#251 = CARTESIAN_POINT ( 'NONE',  ( 0.000000000000000000, 4.750000000000000000, 0.000000000000000000 ) ) ;
#252 = EDGE_CURVE ( 'NONE', #279, #16, #174, .T. ) ;
#253 = CIRCLE ( 'NONE', #182, 60.00000000000000000 ) ;
#254 = EDGE_LOOP ( 'NONE', ( #179, #160, #177, #109 ) ) ;
#255 = FACE_OUTER_BOUND ( 'NONE', #131, .T. ) ;
#256 = ORIENTED_EDGE ( 'NONE', *, *, #64, .F. ) ;
#257 = CC_DESIGN_PERSON_AND_ORGANIZATION_ASSIGNMENT ( #269, #237, ( #156 ) ) ;
#258 = CARTESIAN_POINT ( 'NONE',  ( 0.000000000000000000, 5.000000000000000000, -60.00000000000000000 ) ) ;
#259 = CIRCLE ( 'NONE', #132, 0.2500000000000002220 ) ;
#260 = VERTEX_POINT ( 'NONE', #3 ) ;
#261 = ORIENTED_EDGE ( 'NONE', *, *, #278, .F. ) ;
#262 = APPLICATION_CONTEXT ( 'configuration controlled 3d designs of mechanical parts and assemblies' ) ;
#263 = PLANE ( 'NONE',  #123 ) ;
#264 =( NAMED_UNIT ( * ) PLANE_ANGLE_UNIT ( ) SI_UNIT ( $, .RADIAN. ) );
#265 = FACE_OUTER_BOUND ( 'NONE', #254, .T. ) ;
#266 = CIRCLE ( 'NONE', #210, 60.00000000000000000 ) ;
#267 = PERSON_AND_ORGANIZATION_ROLE ( 'creator' ) ;
#268 = DIRECTION ( 'NONE',  ( 0.000000000000000000, 1.000000000000000000, 0.000000000000000000 ) ) ;
#269 = PERSON_AND_ORGANIZATION ( #216, #192 ) ;
#270 = EDGE_CURVE ( 'NONE', #114, #260, #259, .T. ) ;
#271 = DIRECTION ( 'NONE',  ( 0.000000000000000000, 0.000000000000000000, 1.000000000000000000 ) ) ;
#272 = APPROVAL_STATUS ( 'not_yet_approved' ) ;
#273 = CC_DESIGN_APPROVAL ( #15, ( #82 ) ) ;
#274 = CIRCLE ( 'NONE', #30, 0.2500000000000002220 ) ;
#275 = PERSON_AND_ORGANIZATION ( #216, #192 ) ;
#276 = DIRECTION ( 'NONE',  ( 0.000000000000000000, 0.000000000000000000, 1.000000000000000000 ) ) ;
#277 = ORIENTED_EDGE ( 'NONE', *, *, #38, .F. ) ;
#278 = EDGE_CURVE ( 'NONE', #20, #91, #188, .T. ) ;
#279 = VERTEX_POINT ( 'NONE', #222 ) ;
ENDSEC;
END-ISO-10303-21;
