ISO-10303-21;
HEADER;
FILE_DESCRIPTION (( 'STEP AP203' ),
    '1' );
FILE_NAME ('6018300_OSTP.step',
    '2024-03-20T08:39:34',
    ( '' ),
    ( '' ),
    'SwSTEP 2.0',
    'SolidWorks 2014',
    '' );
FILE_SCHEMA (( 'CONFIG_CONTROL_DESIGN' ));
ENDSEC;

DATA;
#1 = AXIS2_PLACEMENT_3D ( 'NONE', #177, #369, #263 ) ;
#2 = ADVANCED_FACE ( 'NONE', ( #390 ), #134, .F. ) ;
#3 = CYLINDRICAL_SURFACE ( 'NONE', #290, 136.5000000000000000 ) ;
#4 = PERSON_AND_ORGANIZATION ( #312, #251 ) ;
#5 = AXIS2_PLACEMENT_3D ( 'NONE', #212, #297, #40 ) ;
#6 = AXIS2_PLACEMENT_3D ( 'NONE', #133, #98, #362 ) ;
#7 = CARTESIAN_POINT ( 'NONE',  ( -136.5000000000000000, 8.000000000000065700, 0.0000000000000000000 ) ) ;
#8 = DIRECTION ( 'NONE',  ( 1.000000000000000000, 0.0000000000000000000, -1.224646799147349500E-016 ) ) ;
#9 = ORIENTED_EDGE ( 'NONE', *, *, #338, .T. ) ;
#10 = DIRECTION ( 'NONE',  ( -1.982489495665708100E-016, -1.000000000000000000, 0.0000000000000000000 ) ) ;
#11 = DATE_AND_TIME ( #66, #43 ) ;
#12 = CC_DESIGN_PERSON_AND_ORGANIZATION_ASSIGNMENT ( #53, #189, ( #238 ) ) ;
#13 = DIRECTION ( 'NONE',  ( -1.000000000000000000, 0.0000000000000000000, 0.0000000000000000000 ) ) ;
#14 = VERTEX_POINT ( 'NONE', #64 ) ;
#15 = EDGE_CURVE ( 'NONE', #120, #96, #384, .T. ) ;
#16 = ORIENTED_EDGE ( 'NONE', *, *, #376, .F. ) ;
#17 = DIRECTION ( 'NONE',  ( 1.982489495665708100E-016, 1.000000000000000000, -0.0000000000000000000 ) ) ;
#18 = CALENDAR_DATE ( 2024, 20, 3 ) ;
#19 = EDGE_LOOP ( 'NONE', ( #295, #201 ) ) ;
#20 = ORIENTED_EDGE ( 'NONE', *, *, #184, .F. ) ;
#21 = AXIS2_PLACEMENT_3D ( 'NONE', #116, #401, #315 ) ;
#22 = PERSON_AND_ORGANIZATION ( #312, #251 ) ;
#23 = DIRECTION ( 'NONE',  ( -1.982489495665708100E-016, -1.000000000000000000, 0.0000000000000000000 ) ) ;
#24 = DIRECTION ( 'NONE',  ( 1.224646799147353200E-016, -2.427849415210259900E-032, 1.000000000000000000 ) ) ;
#25 = APPROVAL_ROLE ( '' ) ;
#26 = EDGE_CURVE ( 'NONE', #110, #117, #126, .T. ) ;
#27 = VERTEX_POINT ( 'NONE', #265 ) ;
#28 = EDGE_LOOP ( 'NONE', ( #103, #82, #277, #354 ) ) ;
#29 = VERTEX_POINT ( 'NONE', #7 ) ;
#30 = CIRCLE ( 'NONE', #198, 156.0000000000000000 ) ;
#31 = AXIS2_PLACEMENT_3D ( 'NONE', #247, #23, #113 ) ;
#32 = EDGE_LOOP ( 'NONE', ( #280, #86, #124, #109 ) ) ;
#33 = EDGE_LOOP ( 'NONE', ( #118, #107, #375, #364 ) ) ;
#34 = ORIENTED_EDGE ( 'NONE', *, *, #191, .F. ) ;
#35 = EDGE_CURVE ( 'NONE', #99, #117, #51, .T. ) ;
#36 = CYLINDRICAL_SURFACE ( 'NONE', #127, 136.5000000000000000 ) ;
#37 = CIRCLE ( 'NONE', #101, 132.5000000000000600 ) ;
#38 = EDGE_LOOP ( 'NONE', ( #355, #257 ) ) ;
#39 = ADVANCED_FACE ( 'NONE', ( #223 ), #296, .T. ) ;
#40 = DIRECTION ( 'NONE',  ( -1.000000000000000000, 2.094760423821048600E-016, 0.0000000000000000000 ) ) ;
#41 = FACE_BOUND ( 'NONE', #19, .T. ) ;
#42 = EDGE_CURVE ( 'NONE', #74, #99, #237, .T. ) ;
#43 = LOCAL_TIME ( 9, 39, 34.00000000000000000, #80 ) ;
#44 = FACE_OUTER_BOUND ( 'NONE', #194, .T. ) ;
#45 = ORIENTED_EDGE ( 'NONE', *, *, #35, .F. ) ;
#46 = AXIS2_PLACEMENT_3D ( 'NONE', #169, #173, #363 ) ;
#47 = DIRECTION ( 'NONE',  ( 1.982489495665708100E-016, 1.000000000000000000, -0.0000000000000000000 ) ) ;
#48 = CARTESIAN_POINT ( 'NONE',  ( 5.550970587863977100E-015, 27.99999999999997200, 0.0000000000000000000 ) ) ;
#49 = CARTESIAN_POINT ( 'NONE',  ( 4.757974789597700900E-015, 24.00000000000000700, 0.0000000000000000000 ) ) ;
#50 = PLANE ( 'NONE',  #320 ) ;
#51 = CIRCLE ( 'NONE', #170, 160.0000000000000000 ) ;
#52 = APPLICATION_CONTEXT ( 'configuration controlled 3d designs of mechanical parts and assemblies' ) ;
#53 = PERSON_AND_ORGANIZATION ( #312, #251 ) ;
#54 = APPROVAL_ROLE ( '' ) ;
#55 = CIRCLE ( 'NONE', #180, 4.000000000000003600 ) ;
#56 = AXIS2_PLACEMENT_3D ( 'NONE', #236, #327, #203 ) ;
#57 = TOROIDAL_SURFACE ( 'NONE', #267, 156.0000000000000000, 4.000000000000000000 ) ;
#58 = ORIENTED_EDGE ( 'NONE', *, *, #15, .T. ) ;
#59 = EDGE_CURVE ( 'NONE', #29, #311, #148, .T. ) ;
#60 = APPROVAL_PERSON_ORGANIZATION ( #240, #379, #54 ) ;
#61 = CIRCLE ( 'NONE', #81, 156.0000000000000000 ) ;
#62 = ADVANCED_FACE ( 'NONE', ( #208, #41 ), #276, .F. ) ;
#63 = CIRCLE ( 'NONE', #253, 136.5000000000000000 ) ;
#64 = CARTESIAN_POINT ( 'NONE',  ( -140.5000000000000000, 4.000000000000063900, 1.720628752802031400E-014 ) ) ;
#65 = AXIS2_PLACEMENT_3D ( 'NONE', #391, #10, #269 ) ;
#66 = CALENDAR_DATE ( 2024, 20, 3 ) ;
#67 = CARTESIAN_POINT ( 'NONE',  ( 7.929957982662897600E-016, 4.000000000000035500, 0.0000000000000000000 ) ) ;
#68 = CC_DESIGN_SECURITY_CLASSIFICATION ( #149, ( #238 ) ) ;
#69 = CARTESIAN_POINT ( 'NONE',  ( -136.5000000000000000, 24.00000000000003600, 0.0000000000000000000 ) ) ;
#70 = DIRECTION ( 'NONE',  ( 1.000000000000000000, -1.982489495665708400E-016, 0.0000000000000000000 ) ) ;
#71 = CARTESIAN_POINT ( 'NONE',  ( 5.550970587863977100E-015, 27.99999999999997200, 0.0000000000000000000 ) ) ;
#72 = EDGE_CURVE ( 'NONE', #96, #27, #306, .T. ) ;
#73 = VECTOR ( 'NONE', #326, 1000.000000000000000 ) ;
#74 = VERTEX_POINT ( 'NONE', #181 ) ;
#75 = CARTESIAN_POINT ( 'NONE',  ( 5.550970587863977100E-015, 27.99999999999997200, 0.0000000000000000000 ) ) ;
#76 = DIRECTION ( 'NONE',  ( -1.000000000000000000, 2.033375502976477100E-016, 0.0000000000000000000 ) ) ;
#77 = DIRECTION ( 'NONE',  ( 1.000000000000000000, -2.033375502976477100E-016, 0.0000000000000000000 ) ) ;
#78 = CARTESIAN_POINT ( 'NONE',  ( 136.5000000000000000, 27.99999999999994700, 1.671642880836137000E-014 ) ) ;
#79 = ORIENTED_EDGE ( 'NONE', *, *, #204, .T. ) ;
#80 = COORDINATED_UNIVERSAL_TIME_OFFSET ( 1, 0, .AHEAD. ) ;
#81 = AXIS2_PLACEMENT_3D ( 'NONE', #205, #395, #136 ) ;
#82 = ORIENTED_EDGE ( 'NONE', *, *, #331, .T. ) ;
#83 = DATE_TIME_ROLE ( 'classification_date' ) ;
#84 = ORIENTED_EDGE ( 'NONE', *, *, #338, .F. ) ;
#85 = EDGE_CURVE ( 'NONE', #197, #27, #235, .T. ) ;
#86 = ORIENTED_EDGE ( 'NONE', *, *, #216, .F. ) ;
#87 = EDGE_CURVE ( 'NONE', #349, #14, #228, .T. ) ;
#88 = PERSON_AND_ORGANIZATION ( #312, #251 ) ;
#89 = ORIENTED_EDGE ( 'NONE', *, *, #59, .F. ) ;
#90 = ORIENTED_EDGE ( 'NONE', *, *, #285, .F. ) ;
#91 = AXIS2_PLACEMENT_3D ( 'NONE', #141, #243, #336 ) ;
#92 = ORIENTED_EDGE ( 'NONE', *, *, #26, .T. ) ;
#93 = TOROIDAL_SURFACE ( 'NONE', #260, 156.0000000000000000, 4.000000000000000000 ) ;
#94 = ORIENTED_EDGE ( 'NONE', *, *, #314, .T. ) ;
#95 = DIRECTION ( 'NONE',  ( 1.982489495665708100E-016, 1.000000000000000000, -0.0000000000000000000 ) ) ;
#96 = VERTEX_POINT ( 'NONE', #146 ) ;
#97 = PERSON_AND_ORGANIZATION ( #312, #251 ) ;
#98 = DIRECTION ( 'NONE',  ( 1.224646799147353200E-016, -2.427849415210259900E-032, 1.000000000000000000 ) ) ;
#99 = VERTEX_POINT ( 'NONE', #309 ) ;
#100 = CARTESIAN_POINT ( 'NONE',  ( -136.5000000000000000, 28.00000000000000000, 0.0000000000000000000 ) ) ;
#101 = AXIS2_PLACEMENT_3D ( 'NONE', #298, #105, #139 ) ;
#102 = CARTESIAN_POINT ( 'NONE',  ( 140.5000000000000000, 8.000000000000010700, 0.0000000000000000000 ) ) ;
#103 = ORIENTED_EDGE ( 'NONE', *, *, #15, .F. ) ;
#104 = DIRECTION ( 'NONE',  ( -1.982489495665708100E-016, -1.000000000000000000, 0.0000000000000000000 ) ) ;
#105 = DIRECTION ( 'NONE',  ( 1.982489495665708100E-016, 1.000000000000000000, -0.0000000000000000000 ) ) ;
#106 = CARTESIAN_POINT ( 'NONE',  ( 4.757974789597700900E-015, 24.00000000000000700, 0.0000000000000000000 ) ) ;
#107 = ORIENTED_EDGE ( 'NONE', *, *, #184, .T. ) ;
#108 = EDGE_CURVE ( 'NONE', #275, #120, #321, .T. ) ;
#109 = ORIENTED_EDGE ( 'NONE', *, *, #35, .T. ) ;
#110 = VERTEX_POINT ( 'NONE', #145 ) ;
#111 = ADVANCED_FACE ( 'NONE', ( #389 ), #3, .T. ) ;
#112 = CARTESIAN_POINT ( 'NONE',  ( 132.5000000000000600, 8.128486969299139300E-014, 1.622657008870243900E-014 ) ) ;
#113 = DIRECTION ( 'NONE',  ( 1.000000000000000000, -1.975485808941559700E-016, 0.0000000000000000000 ) ) ;
#114 = DIRECTION ( 'NONE',  ( -1.000000000000000000, 1.982489495665709400E-016, 0.0000000000000000000 ) ) ;
#115 = AXIS2_PLACEMENT_3D ( 'NONE', #371, #24, #242 ) ;
#116 = CARTESIAN_POINT ( 'NONE',  ( 0.0000000000000000000, 0.0000000000000000000, 0.0000000000000000000 ) ) ;
#117 = VERTEX_POINT ( 'NONE', #246 ) ;
#118 = ORIENTED_EDGE ( 'NONE', *, *, #59, .T. ) ;
#119 = CC_DESIGN_APPROVAL ( #379, ( #289 ) ) ;
#120 = VERTEX_POINT ( 'NONE', #339 ) ;
#121 = PERSON_AND_ORGANIZATION_ROLE ( 'design_supplier' ) ;
#122 = AXIS2_PLACEMENT_3D ( 'NONE', #49, #282, #77 ) ;
#123 = VECTOR ( 'NONE', #166, 1000.000000000000000 ) ;
#124 = ORIENTED_EDGE ( 'NONE', *, *, #42, .T. ) ;
#125 = DATE_AND_TIME ( #18, #287 ) ;
#126 = CIRCLE ( 'NONE', #249, 4.000000000000003600 ) ;
#127 = AXIS2_PLACEMENT_3D ( 'NONE', #71, #392, #239 ) ;
#128 = LOCAL_TIME ( 9, 39, 34.00000000000000000, #153 ) ;
#129 = CIRCLE ( 'NONE', #115, 4.000000000000003600 ) ;
#130 = AXIS2_PLACEMENT_3D ( 'NONE', #308, #305, #218 ) ;
#131 = CARTESIAN_POINT ( 'NONE',  ( -156.0000000000000000, 6.909075260387480500E-014, 1.910449006669871200E-014 ) ) ;
#132 = DESIGN_CONTEXT ( 'detailed design', #318, 'design' ) ;
#133 = CARTESIAN_POINT ( 'NONE',  ( -140.5000000000000000, 8.000000000000065700, 1.720628752802031400E-014 ) ) ;
#134 = CYLINDRICAL_SURFACE ( 'NONE', #234, 132.5000000000000600 ) ;
#135 =( LENGTH_UNIT ( ) NAMED_UNIT ( * ) SI_UNIT ( .MILLI., .METRE. ) );
#136 = DIRECTION ( 'NONE',  ( 1.000000000000000000, -2.001604010742469800E-016, 0.0000000000000000000 ) ) ;
#137 = APPROVAL_DATE_TIME ( #11, #307 ) ;
#138 = DIRECTION ( 'NONE',  ( 1.000000000000000000, -1.975485808941559700E-016, 0.0000000000000000000 ) ) ;
#139 = DIRECTION ( 'NONE',  ( -1.000000000000000000, 1.982489495665709400E-016, 0.0000000000000000000 ) ) ;
#140 = CIRCLE ( 'NONE', #5, 132.5000000000000900 ) ;
#141 = CARTESIAN_POINT ( 'NONE',  ( 156.0000000000000000, 7.237080339104707200E-015, 0.0000000000000000000 ) ) ;
#142 = AXIS2_PLACEMENT_3D ( 'NONE', #48, #278, #281 ) ;
#143 = FACE_OUTER_BOUND ( 'NONE', #356, .T. ) ;
#144 = ADVANCED_FACE ( 'NONE', ( #143 ), #254, .F. ) ;
#145 = CARTESIAN_POINT ( 'NONE',  ( -156.0000000000000000, 4.000000000000066600, 1.934941942652818200E-014 ) ) ;
#146 = CARTESIAN_POINT ( 'NONE',  ( 132.5000000000000900, 27.99999999999996400, 1.622657008870244200E-014 ) ) ;
#147 = DIRECTION ( 'NONE',  ( 1.000000000000000000, -2.033375502976477100E-016, 0.0000000000000000000 ) ) ;
#148 = CIRCLE ( 'NONE', #1, 136.5000000000000000 ) ;
#149 = SECURITY_CLASSIFICATION ( '', '', #405 ) ;
#150 = DIRECTION ( 'NONE',  ( -1.982489495665708100E-016, -1.000000000000000000, 0.0000000000000000000 ) ) ;
#151 = PERSON_AND_ORGANIZATION_ROLE ( 'creator' ) ;
#152 = ADVANCED_FACE ( 'NONE', ( #244 ), #161, .F. ) ;
#153 = COORDINATED_UNIVERSAL_TIME_OFFSET ( 1, 0, .AHEAD. ) ;
#154 = EDGE_CURVE ( 'NONE', #27, #197, #63, .T. ) ;
#155 = FACE_BOUND ( 'NONE', #279, .T. ) ;
#156 = FACE_OUTER_BOUND ( 'NONE', #32, .T. ) ;
#157 = EDGE_CURVE ( 'NONE', #182, #275, #337, .T. ) ;
#158 = ADVANCED_FACE ( 'NONE', ( #156 ), #57, .T. ) ;
#159 = AXIS2_PLACEMENT_3D ( 'NONE', #310, #400, #114 ) ;
#160 = COORDINATED_UNIVERSAL_TIME_OFFSET ( 1, 0, .AHEAD. ) ;
#161 = TOROIDAL_SURFACE ( 'NONE', #130, 140.5000000000000000, 4.000000000000000000 ) ;
#162 = CARTESIAN_POINT ( 'NONE',  ( 5.550970587863977100E-015, 27.99999999999997200, 0.0000000000000000000 ) ) ;
#163 = DIRECTION ( 'NONE',  ( -1.000000000000000000, 2.094760423821049100E-016, 0.0000000000000000000 ) ) ;
#164 = ORIENTED_EDGE ( 'NONE', *, *, #231, .F. ) ;
#165 = COORDINATED_UNIVERSAL_TIME_OFFSET ( 1, 0, .AHEAD. ) ;
#166 = DIRECTION ( 'NONE',  ( 1.982489495665708100E-016, 1.000000000000000000, -0.0000000000000000000 ) ) ;
#167 = ADVANCED_FACE ( 'NONE', ( #399, #155 ), #50, .F. ) ;
#168 = DIRECTION ( 'NONE',  ( 0.0000000000000000000, -0.0000000000000000000, -1.000000000000000000 ) ) ;
#169 = CARTESIAN_POINT ( 'NONE',  ( 2.465190328815661900E-029, 1.283695372222837200E-013, 0.0000000000000000000 ) ) ;
#170 = AXIS2_PLACEMENT_3D ( 'NONE', #229, #17, #174 ) ;
#171 = ORIENTED_EDGE ( 'NONE', *, *, #191, .T. ) ;
#172 = CARTESIAN_POINT ( 'NONE',  ( 136.5000000000000000, 8.000000000000010700, 1.671642880836137000E-014 ) ) ;
#173 = DIRECTION ( 'NONE',  ( 1.982489495665708100E-016, 1.000000000000000000, -0.0000000000000000000 ) ) ;
#174 = DIRECTION ( 'NONE',  ( -1.000000000000000000, 1.982489495665708400E-016, 0.0000000000000000000 ) ) ;
#175 = EDGE_LOOP ( 'NONE', ( #230, #190, #79, #89 ) ) ;
#176 = CC_DESIGN_APPROVAL ( #245, ( #149 ) ) ;
#177 = CARTESIAN_POINT ( 'NONE',  ( 1.585991596532573200E-015, 8.000000000000039100, 0.0000000000000000000 ) ) ;
#178 = ORIENTED_EDGE ( 'NONE', *, *, #346, .F. ) ;
#179 = PRODUCT ( '6018300_OSTP', '6018300_OSTP', '', ( #343 ) ) ;
#180 = AXIS2_PLACEMENT_3D ( 'NONE', #102, #168, #13 ) ;
#181 = CARTESIAN_POINT ( 'NONE',  ( 156.0000000000000000, 4.000000000000004400, 0.0000000000000000000 ) ) ;
#182 = VERTEX_POINT ( 'NONE', #112 ) ;
#183 = DIRECTION ( 'NONE',  ( 0.0000000000000000000, -0.0000000000000000000, -1.000000000000000000 ) ) ;
#184 = EDGE_CURVE ( 'NONE', #311, #27, #380, .T. ) ;
#185 = CALENDAR_DATE ( 2024, 20, 3 ) ;
#186 = DIRECTION ( 'NONE',  ( -1.982489495665708100E-016, -1.000000000000000000, 0.0000000000000000000 ) ) ;
#187 = ORIENTED_EDGE ( 'NONE', *, *, #386, .F. ) ;
#188 = CC_DESIGN_PERSON_AND_ORGANIZATION_ASSIGNMENT ( #4, #222, ( #179 ) ) ;
#189 = PERSON_AND_ORGANIZATION_ROLE ( 'creator' ) ;
#190 = ORIENTED_EDGE ( 'NONE', *, *, #87, .F. ) ;
#191 = EDGE_CURVE ( 'NONE', #96, #120, #140, .T. ) ;
#192 = FACE_OUTER_BOUND ( 'NONE', #291, .T. ) ;
#193 = ORIENTED_EDGE ( 'NONE', *, *, #285, .T. ) ;
#194 = EDGE_LOOP ( 'NONE', ( #264, #34, #360, #340 ) ) ;
#195 = CALENDAR_DATE ( 2024, 20, 3 ) ;
#196 = CC_DESIGN_PERSON_AND_ORGANIZATION_ASSIGNMENT ( #22, #225, ( #149 ) ) ;
#197 = VERTEX_POINT ( 'NONE', #69 ) ;
#198 = AXIS2_PLACEMENT_3D ( 'NONE', #67, #274, #210 ) ;
#199 = TOROIDAL_SURFACE ( 'NONE', #301, 140.5000000000000000, 4.000000000000000000 ) ;
#200 = ORIENTED_EDGE ( 'NONE', *, *, #108, .F. ) ;
#201 = ORIENTED_EDGE ( 'NONE', *, *, #157, .T. ) ;
#202 = CC_DESIGN_DATE_AND_TIME_ASSIGNMENT ( #224, #83, ( #149 ) ) ;
#203 = DIRECTION ( 'NONE',  ( -1.000000000000000000, 2.094760423821048600E-016, 0.0000000000000000000 ) ) ;
#204 = EDGE_CURVE ( 'NONE', #349, #311, #55, .T. ) ;
#205 = CARTESIAN_POINT ( 'NONE',  ( 7.929957982662897600E-016, 4.000000000000035500, 0.0000000000000000000 ) ) ;
#206 = CLOSED_SHELL ( 'NONE', ( #39, #403, #387, #2, #351, #111, #167, #62, #144, #158, #152, #322 ) ) ;
#207 =( NAMED_UNIT ( * ) PLANE_ANGLE_UNIT ( ) SI_UNIT ( $, .RADIAN. ) );
#208 = FACE_OUTER_BOUND ( 'NONE', #382, .T. ) ;
#209 = DIRECTION ( 'NONE',  ( 1.000000000000000000, -2.033375502976477100E-016, 0.0000000000000000000 ) ) ;
#210 = DIRECTION ( 'NONE',  ( 1.000000000000000000, -2.001604010742469800E-016, 0.0000000000000000000 ) ) ;
#211 = PRODUCT_RELATED_PRODUCT_CATEGORY ( 'detail', '', ( #179 ) ) ;
#212 = CARTESIAN_POINT ( 'NONE',  ( 5.550970587863980300E-015, 27.99999999999999300, 0.0000000000000000000 ) ) ;
#213 = DIRECTION ( 'NONE',  ( 1.000000000000000000, -1.982489495665708100E-016, 0.0000000000000000000 ) ) ;
#214 = CIRCLE ( 'NONE', #46, 160.0000000000000000 ) ;
#215 = FACE_OUTER_BOUND ( 'NONE', #33, .T. ) ;
#216 = EDGE_CURVE ( 'NONE', #74, #110, #61, .T. ) ;
#217 = ORIENTED_EDGE ( 'NONE', *, *, #85, .T. ) ;
#218 = DIRECTION ( 'NONE',  ( 1.000000000000000000, -1.982489495665708100E-016, 0.0000000000000000000 ) ) ;
#219 = CARTESIAN_POINT ( 'NONE',  ( 132.5000000000000000, 23.99999999999997900, 0.0000000000000000000 ) ) ;
#220 = CARTESIAN_POINT ( 'NONE',  ( 6.933347799794049100E-030, 3.816391647148975600E-014, 0.0000000000000000000 ) ) ;
#221 = CC_DESIGN_PERSON_AND_ORGANIZATION_ASSIGNMENT ( #88, #151, ( #289 ) ) ;
#222 = PERSON_AND_ORGANIZATION_ROLE ( 'design_owner' ) ;
#223 = FACE_OUTER_BOUND ( 'NONE', #28, .T. ) ;
#224 = DATE_AND_TIME ( #385, #332 ) ;
#225 = PERSON_AND_ORGANIZATION_ROLE ( 'classification_officer' ) ;
#226 = CIRCLE ( 'NONE', #6, 4.000000000000003600 ) ;
#227 = SHAPE_DEFINITION_REPRESENTATION ( #268, #271 ) ;
#228 = CIRCLE ( 'NONE', #31, 140.5000000000000000 ) ;
#229 = CARTESIAN_POINT ( 'NONE',  ( 2.465190328815661900E-029, 1.283695372222837200E-013, 0.0000000000000000000 ) ) ;
#230 = ORIENTED_EDGE ( 'NONE', *, *, #314, .F. ) ;
#231 = EDGE_CURVE ( 'NONE', #311, #29, #233, .T. ) ;
#232 = APPROVAL_PERSON_ORGANIZATION ( #97, #307, #25 ) ;
#233 = CIRCLE ( 'NONE', #294, 136.5000000000000000 ) ;
#234 = AXIS2_PLACEMENT_3D ( 'NONE', #162, #95, #163 ) ;
#235 = CIRCLE ( 'NONE', #122, 136.5000000000000000 ) ;
#236 = CARTESIAN_POINT ( 'NONE',  ( 5.550970587863980300E-015, 27.99999999999999300, 0.0000000000000000000 ) ) ;
#237 = CIRCLE ( 'NONE', #91, 4.000000000000003600 ) ;
#238 = PRODUCT_DEFINITION_FORMATION_WITH_SPECIFIED_SOURCE ( 'ANY', '', #179, .NOT_KNOWN. ) ;
#239 = DIRECTION ( 'NONE',  ( -1.000000000000000000, 2.033375502976477100E-016, 0.0000000000000000000 ) ) ;
#240 = PERSON_AND_ORGANIZATION ( #312, #251 ) ;
#241 = CARTESIAN_POINT ( 'NONE',  ( 1.585991596532573200E-015, 8.000000000000039100, 0.0000000000000000000 ) ) ;
#242 = DIRECTION ( 'NONE',  ( 1.000000000000000000, 0.0000000000000000000, -1.224646799147349500E-016 ) ) ;
#243 = DIRECTION ( 'NONE',  ( 0.0000000000000000000, -0.0000000000000000000, -1.000000000000000000 ) ) ;
#244 = FACE_OUTER_BOUND ( 'NONE', #175, .T. ) ;
#245 = APPROVAL ( #250, 'UNSPECIFIED' ) ;
#246 = CARTESIAN_POINT ( 'NONE',  ( -160.0000000000000000, 1.600893691529350500E-013, 1.959434878635765200E-014 ) ) ;
#247 = CARTESIAN_POINT ( 'NONE',  ( 7.929957982662895600E-016, 4.000000000000035500, 0.0000000000000000000 ) ) ;
#248 = DIRECTION ( 'NONE',  ( 1.982489495665708100E-016, 1.000000000000000000, -0.0000000000000000000 ) ) ;
#249 = AXIS2_PLACEMENT_3D ( 'NONE', #131, #361, #8 ) ;
#250 = APPROVAL_STATUS ( 'not_yet_approved' ) ;
#251 = ORGANIZATION ( 'UNSPECIFIED', 'UNSPECIFIED', '' ) ;
#252 = APPLICATION_PROTOCOL_DEFINITION ( 'international standard', 'config_control_design', 1994, #52 ) ;
#253 = AXIS2_PLACEMENT_3D ( 'NONE', #388, #150, #147 ) ;
#254 = CYLINDRICAL_SURFACE ( 'NONE', #142, 132.5000000000000600 ) ;
#255 = EDGE_LOOP ( 'NONE', ( #20, #259, #348, #217 ) ) ;
#256 = DIRECTION ( 'NONE',  ( -1.000000000000000000, 1.982489495665708100E-016, 0.0000000000000000000 ) ) ;
#257 = ORIENTED_EDGE ( 'NONE', *, *, #376, .T. ) ;
#258 = COORDINATED_UNIVERSAL_TIME_OFFSET ( 1, 0, .AHEAD. ) ;
#259 = ORIENTED_EDGE ( 'NONE', *, *, #231, .T. ) ;
#260 = AXIS2_PLACEMENT_3D ( 'NONE', #333, #366, #70 ) ;
#261 = EDGE_LOOP ( 'NONE', ( #262, #9, #171, #200 ) ) ;
#262 = ORIENTED_EDGE ( 'NONE', *, *, #157, .F. ) ;
#263 = DIRECTION ( 'NONE',  ( 1.000000000000000000, -2.033375502976477100E-016, 0.0000000000000000000 ) ) ;
#264 = ORIENTED_EDGE ( 'NONE', *, *, #331, .F. ) ;
#265 = CARTESIAN_POINT ( 'NONE',  ( 136.5000000000000000, 23.99999999999997900, 1.671642880836137000E-014 ) ) ;
#266 = PERSON_AND_ORGANIZATION ( #312, #251 ) ;
#267 = AXIS2_PLACEMENT_3D ( 'NONE', #220, #186, #313 ) ;
#268 = PRODUCT_DEFINITION_SHAPE ( 'NONE', 'NONE',  #289 ) ;
#269 = DIRECTION ( 'NONE',  ( 1.000000000000000000, -1.982489495665708100E-016, 0.0000000000000000000 ) ) ;
#270 = CARTESIAN_POINT ( 'NONE',  ( 132.5000000000000600, 27.99999999999994700, 1.622657008870243900E-014 ) ) ;
#271 = ADVANCED_BREP_SHAPE_REPRESENTATION ( '6018300_OSTP', ( #317, #21 ), #324 ) ;
#272 = ORIENTED_EDGE ( 'NONE', *, *, #204, .F. ) ;
#273 = CARTESIAN_POINT ( 'NONE',  ( -132.5000000000000600, 1.338208413281326900E-013, 0.0000000000000000000 ) ) ;
#274 = DIRECTION ( 'NONE',  ( 1.982489495665708100E-016, 1.000000000000000000, -0.0000000000000000000 ) ) ;
#275 = VERTEX_POINT ( 'NONE', #273 ) ;
#276 = PLANE ( 'NONE',  #358 ) ;
#277 = ORIENTED_EDGE ( 'NONE', *, *, #154, .F. ) ;
#278 = DIRECTION ( 'NONE',  ( 1.982489495665708100E-016, 1.000000000000000000, -0.0000000000000000000 ) ) ;
#279 = EDGE_LOOP ( 'NONE', ( #359, #193 ) ) ;
#280 = ORIENTED_EDGE ( 'NONE', *, *, #26, .F. ) ;
#281 = DIRECTION ( 'NONE',  ( -1.000000000000000000, 2.094760423821049100E-016, 0.0000000000000000000 ) ) ;
#282 = DIRECTION ( 'NONE',  ( -1.982489495665708100E-016, -1.000000000000000000, 0.0000000000000000000 ) ) ;
#283 = APPROVAL_ROLE ( '' ) ;
#284 = ORIENTED_EDGE ( 'NONE', *, *, #108, .T. ) ;
#285 = EDGE_CURVE ( 'NONE', #14, #349, #304, .T. ) ;
#286 = APPROVAL_STATUS ( 'not_yet_approved' ) ;
#287 = LOCAL_TIME ( 9, 39, 34.00000000000000000, #160 ) ;
#288 = ORIENTED_EDGE ( 'NONE', *, *, #42, .F. ) ;
#289 = PRODUCT_DEFINITION ( 'UNKNOWN', '', #238, #132 ) ;
#290 = AXIS2_PLACEMENT_3D ( 'NONE', #75, #47, #76 ) ;
#291 = EDGE_LOOP ( 'NONE', ( #16, #92, #370, #288 ) ) ;
#292 = FACE_OUTER_BOUND ( 'NONE', #345, .T. ) ;
#293 = TOROIDAL_SURFACE ( 'NONE', #65, 132.5000000000000000, 4.000000000000000000 ) ;
#294 = AXIS2_PLACEMENT_3D ( 'NONE', #241, #394, #209 ) ;
#295 = ORIENTED_EDGE ( 'NONE', *, *, #346, .T. ) ;
#296 = TOROIDAL_SURFACE ( 'NONE', #398, 132.5000000000000000, 4.000000000000000000 ) ;
#297 = DIRECTION ( 'NONE',  ( 1.982489495665708100E-016, 1.000000000000000000, -0.0000000000000000000 ) ) ;
#298 = CARTESIAN_POINT ( 'NONE',  ( 2.080004339938214700E-029, 1.075528555105620400E-013, 0.0000000000000000000 ) ) ;
#299 = APPROVAL_DATE_TIME ( #316, #379 ) ;
#300 = CARTESIAN_POINT ( 'NONE',  ( 140.5000000000000000, 4.000000000000008900, 0.0000000000000000000 ) ) ;
#301 = AXIS2_PLACEMENT_3D ( 'NONE', #303, #335, #213 ) ;
#302 = DIRECTION ( 'NONE',  ( 1.000000000000000000, -1.982489495665708100E-016, 0.0000000000000000000 ) ) ;
#303 = CARTESIAN_POINT ( 'NONE',  ( 1.585991596532573200E-015, 8.000000000000039100, 0.0000000000000000000 ) ) ;
#304 = CIRCLE ( 'NONE', #381, 140.5000000000000000 ) ;
#305 = DIRECTION ( 'NONE',  ( -1.982489495665708100E-016, -1.000000000000000000, 0.0000000000000000000 ) ) ;
#306 = CIRCLE ( 'NONE', #393, 4.000000000000003600 ) ;
#307 = APPROVAL ( #286, 'UNSPECIFIED' ) ;
#308 = CARTESIAN_POINT ( 'NONE',  ( 1.585991596532573200E-015, 8.000000000000039100, 0.0000000000000000000 ) ) ;
#309 = CARTESIAN_POINT ( 'NONE',  ( 160.0000000000000000, 9.664970529163240400E-014, 0.0000000000000000000 ) ) ;
#310 = CARTESIAN_POINT ( 'NONE',  ( 2.080004339938214700E-029, 1.075528555105620400E-013, 0.0000000000000000000 ) ) ;
#311 = VERTEX_POINT ( 'NONE', #172 ) ;
#312 = PERSON ( 'UNSPECIFIED', 'UNSPECIFIED', 'UNSPECIFIED', ('UNSPECIFIED'), ('UNSPECIFIED'), ('UNSPECIFIED') ) ;
#313 = DIRECTION ( 'NONE',  ( 1.000000000000000000, -1.982489495665708400E-016, 0.0000000000000000000 ) ) ;
#314 = EDGE_CURVE ( 'NONE', #14, #29, #226, .T. ) ;
#315 = DIRECTION ( 'NONE',  ( 1.000000000000000000, 0.0000000000000000000, 0.0000000000000000000 ) ) ;
#316 = DATE_AND_TIME ( #195, #128 ) ;
#317 = MANIFOLD_SOLID_BREP ( 'Cosmetic_Fillet', #206 ) ;
#318 = APPLICATION_CONTEXT ( 'configuration controlled 3d designs of mechanical parts and assemblies' ) ;
#319 = LINE ( 'NONE', #270, #123 ) ;
#320 = AXIS2_PLACEMENT_3D ( 'NONE', #341, #342, #374 ) ;
#321 = LINE ( 'NONE', #367, #73 ) ;
#322 = ADVANCED_FACE ( 'NONE', ( #44 ), #293, .T. ) ;
#323 = DATE_AND_TIME ( #185, #402 ) ;
#324 =( GEOMETRIC_REPRESENTATION_CONTEXT ( 3 ) GLOBAL_UNCERTAINTY_ASSIGNED_CONTEXT ( ( #325 ) ) GLOBAL_UNIT_ASSIGNED_CONTEXT ( ( #135, #207, #329 ) ) REPRESENTATION_CONTEXT ( 'NONE', 'WORKASPACE' ) );
#325 = UNCERTAINTY_MEASURE_WITH_UNIT (LENGTH_MEASURE( 1.000000000000000100E-005 ), #135, 'distance_accuracy_value', 'NONE');
#326 = DIRECTION ( 'NONE',  ( 1.982489495665708100E-016, 1.000000000000000000, -0.0000000000000000000 ) ) ;
#327 = DIRECTION ( 'NONE',  ( 1.982489495665708100E-016, 1.000000000000000000, -0.0000000000000000000 ) ) ;
#328 = CC_DESIGN_APPROVAL ( #307, ( #238 ) ) ;
#329 =( NAMED_UNIT ( * ) SI_UNIT ( $, .STERADIAN. ) SOLID_ANGLE_UNIT ( ) );
#330 = DIRECTION ( 'NONE',  ( 1.982489495665708100E-016, 1.000000000000000000, -0.0000000000000000000 ) ) ;
#331 = EDGE_CURVE ( 'NONE', #120, #197, #129, .T. ) ;
#332 = LOCAL_TIME ( 9, 39, 34.00000000000000000, #165 ) ;
#333 = CARTESIAN_POINT ( 'NONE',  ( 6.933347799794049100E-030, 3.816391647148975600E-014, 0.0000000000000000000 ) ) ;
#334 = CARTESIAN_POINT ( 'NONE',  ( 7.929957982662895600E-016, 4.000000000000035500, 0.0000000000000000000 ) ) ;
#335 = DIRECTION ( 'NONE',  ( -1.982489495665708100E-016, -1.000000000000000000, 0.0000000000000000000 ) ) ;
#336 = DIRECTION ( 'NONE',  ( -1.000000000000000000, 0.0000000000000000000, 0.0000000000000000000 ) ) ;
#337 = CIRCLE ( 'NONE', #159, 132.5000000000000600 ) ;
#338 = EDGE_CURVE ( 'NONE', #182, #96, #319, .T. ) ;
#339 = CARTESIAN_POINT ( 'NONE',  ( -132.5000000000000900, 28.00000000000002100, 0.0000000000000000000 ) ) ;
#340 = ORIENTED_EDGE ( 'NONE', *, *, #85, .F. ) ;
#341 = CARTESIAN_POINT ( 'NONE',  ( 136.5000000000000000, 4.000000000000008900, 0.0000000000000000000 ) ) ;
#342 = DIRECTION ( 'NONE',  ( -1.982489495665708100E-016, -1.000000000000000000, 0.0000000000000000000 ) ) ;
#343 = MECHANICAL_CONTEXT ( 'NONE', #52, 'mechanical' ) ;
#344 = APPROVAL_STATUS ( 'not_yet_approved' ) ;
#345 = EDGE_LOOP ( 'NONE', ( #90, #94, #164, #272 ) ) ;
#346 = EDGE_CURVE ( 'NONE', #275, #182, #37, .T. ) ;
#347 = APPLICATION_PROTOCOL_DEFINITION ( 'international standard', 'config_control_design', 1994, #318 ) ;
#348 = ORIENTED_EDGE ( 'NONE', *, *, #353, .T. ) ;
#349 = VERTEX_POINT ( 'NONE', #300 ) ;
#350 = CC_DESIGN_PERSON_AND_ORGANIZATION_ASSIGNMENT ( #266, #121, ( #238 ) ) ;
#351 = ADVANCED_FACE ( 'NONE', ( #215 ), #36, .T. ) ;
#352 = PERSON_AND_ORGANIZATION ( #312, #251 ) ;
#353 = EDGE_CURVE ( 'NONE', #29, #197, #368, .T. ) ;
#354 = ORIENTED_EDGE ( 'NONE', *, *, #72, .F. ) ;
#355 = ORIENTED_EDGE ( 'NONE', *, *, #216, .T. ) ;
#356 = EDGE_LOOP ( 'NONE', ( #84, #178, #284, #58 ) ) ;
#357 = VECTOR ( 'NONE', #330, 1000.000000000000000 ) ;
#358 = AXIS2_PLACEMENT_3D ( 'NONE', #397, #404, #256 ) ;
#359 = ORIENTED_EDGE ( 'NONE', *, *, #87, .T. ) ;
#360 = ORIENTED_EDGE ( 'NONE', *, *, #72, .T. ) ;
#361 = DIRECTION ( 'NONE',  ( 1.224646799147353200E-016, -2.427849415210259900E-032, 1.000000000000000000 ) ) ;
#362 = DIRECTION ( 'NONE',  ( 1.000000000000000000, 0.0000000000000000000, -1.224646799147349500E-016 ) ) ;
#363 = DIRECTION ( 'NONE',  ( -1.000000000000000000, 1.982489495665708400E-016, 0.0000000000000000000 ) ) ;
#364 = ORIENTED_EDGE ( 'NONE', *, *, #353, .F. ) ;
#365 = DIRECTION ( 'NONE',  ( -1.982489495665708100E-016, -1.000000000000000000, 0.0000000000000000000 ) ) ;
#366 = DIRECTION ( 'NONE',  ( -1.982489495665708100E-016, -1.000000000000000000, 0.0000000000000000000 ) ) ;
#367 = CARTESIAN_POINT ( 'NONE',  ( -132.5000000000000600, 28.00000000000000000, 0.0000000000000000000 ) ) ;
#368 = LINE ( 'NONE', #100, #357 ) ;
#369 = DIRECTION ( 'NONE',  ( 1.982489495665708100E-016, 1.000000000000000000, -0.0000000000000000000 ) ) ;
#370 = ORIENTED_EDGE ( 'NONE', *, *, #386, .T. ) ;
#371 = CARTESIAN_POINT ( 'NONE',  ( -132.5000000000000000, 24.00000000000003600, 1.622657008870243200E-014 ) ) ;
#372 = DIRECTION ( 'NONE',  ( -1.000000000000000000, 0.0000000000000000000, 0.0000000000000000000 ) ) ;
#373 = CC_DESIGN_DATE_AND_TIME_ASSIGNMENT ( #323, #377, ( #289 ) ) ;
#374 = DIRECTION ( 'NONE',  ( 1.000000000000000000, -1.982489495665708100E-016, 0.0000000000000000000 ) ) ;
#375 = ORIENTED_EDGE ( 'NONE', *, *, #154, .T. ) ;
#376 = EDGE_CURVE ( 'NONE', #110, #74, #30, .T. ) ;
#377 = DATE_TIME_ROLE ( 'creation_date' ) ;
#378 = APPROVAL_PERSON_ORGANIZATION ( #352, #245, #283 ) ;
#379 = APPROVAL ( #344, 'UNSPECIFIED' ) ;
#380 = LINE ( 'NONE', #78, #396 ) ;
#381 = AXIS2_PLACEMENT_3D ( 'NONE', #334, #365, #138 ) ;
#382 = EDGE_LOOP ( 'NONE', ( #45, #187 ) ) ;
#383 = APPROVAL_DATE_TIME ( #125, #245 ) ;
#384 = CIRCLE ( 'NONE', #56, 132.5000000000000900 ) ;
#385 = CALENDAR_DATE ( 2024, 20, 3 ) ;
#386 = EDGE_CURVE ( 'NONE', #117, #99, #214, .T. ) ;
#387 = ADVANCED_FACE ( 'NONE', ( #192 ), #93, .T. ) ;
#388 = CARTESIAN_POINT ( 'NONE',  ( 4.757974789597700900E-015, 24.00000000000000700, 0.0000000000000000000 ) ) ;
#389 = FACE_OUTER_BOUND ( 'NONE', #255, .T. ) ;
#390 = FACE_OUTER_BOUND ( 'NONE', #261, .T. ) ;
#391 = CARTESIAN_POINT ( 'NONE',  ( 4.757974789597700900E-015, 24.00000000000000700, 0.0000000000000000000 ) ) ;
#392 = DIRECTION ( 'NONE',  ( 1.982489495665708100E-016, 1.000000000000000000, -0.0000000000000000000 ) ) ;
#393 = AXIS2_PLACEMENT_3D ( 'NONE', #219, #183, #372 ) ;
#394 = DIRECTION ( 'NONE',  ( 1.982489495665708100E-016, 1.000000000000000000, -0.0000000000000000000 ) ) ;
#395 = DIRECTION ( 'NONE',  ( 1.982489495665708100E-016, 1.000000000000000000, -0.0000000000000000000 ) ) ;
#396 = VECTOR ( 'NONE', #248, 1000.000000000000000 ) ;
#397 = CARTESIAN_POINT ( 'NONE',  ( 160.0000000000000000, 8.684644036156055100E-014, 0.0000000000000000000 ) ) ;
#398 = AXIS2_PLACEMENT_3D ( 'NONE', #106, #104, #302 ) ;
#399 = FACE_OUTER_BOUND ( 'NONE', #38, .T. ) ;
#400 = DIRECTION ( 'NONE',  ( 1.982489495665708100E-016, 1.000000000000000000, -0.0000000000000000000 ) ) ;
#401 = DIRECTION ( 'NONE',  ( 0.0000000000000000000, 0.0000000000000000000, 1.000000000000000000 ) ) ;
#402 = LOCAL_TIME ( 9, 39, 34.00000000000000000, #258 ) ;
#403 = ADVANCED_FACE ( 'NONE', ( #292 ), #199, .F. ) ;
#404 = DIRECTION ( 'NONE',  ( 1.982489495665708100E-016, 1.000000000000000000, -0.0000000000000000000 ) ) ;
#405 = SECURITY_CLASSIFICATION_LEVEL ( 'unclassified' ) ;
ENDSEC;
END-ISO-10303-21;
