ISO-10303-21;
HEADER;
FILE_DESCRIPTION (( 'STEP AP203' ),
    '1' );
FILE_NAME ('OT200-40-48_3x2_OSTP.step',
    '2020-12-16T02:17:34',
    ( '' ),
    ( '' ),
    'SwSTEP 2.0',
    'SolidWorks 2014',
    '' );
FILE_SCHEMA (( 'CONFIG_CONTROL_DESIGN' ));
ENDSEC;

DATA;
#1 = ORIENTED_EDGE ( 'NONE', *, *, #159, .F. ) ;
#2 = CC_DESIGN_SECURITY_CLASSIFICATION ( #118, ( #197 ) ) ;
#3 = LOCAL_TIME ( 3, 17, 34.00000000000000000, #139 ) ;
#4 = ORGANIZATION ( 'UNSPECIFIED', 'UNSPECIFIED', '' ) ;
#5 = ORIENTED_EDGE ( 'NONE', *, *, #177, .T. ) ;
#6 = AXIS2_PLACEMENT_3D ( 'NONE', #143, #211, #86 ) ;
#7 = APPROVAL_DATE_TIME ( #245, #229 ) ;
#8 = FACE_OUTER_BOUND ( 'NONE', #66, .T. ) ;
#9 = CARTESIAN_POINT ( 'NONE',  ( -24.14999999999999900, 0.0000000000000000000, 0.0000000000000000000 ) ) ;
#10 = DIRECTION ( 'NONE',  ( 0.0000000000000000000, 1.000000000000000000, 0.0000000000000000000 ) ) ;
#11 = DIRECTION ( 'NONE',  ( 0.0000000000000000000, 0.0000000000000000000, 1.000000000000000000 ) ) ;
#12 = DESIGN_CONTEXT ( 'detailed design', #69, 'design' ) ;
#13 = ADVANCED_FACE ( 'NONE', ( #199, #21 ), #193, .T. ) ;
#14 = CARTESIAN_POINT ( 'NONE',  ( 56.99999999999997900, 57.00000000000000000, 0.0000000000000000000 ) ) ;
#15 = CC_DESIGN_APPROVAL ( #221, ( #118 ) ) ;
#16 =( LENGTH_UNIT ( ) NAMED_UNIT ( * ) SI_UNIT ( .MILLI., .METRE. ) );
#17 = ADVANCED_FACE ( 'NONE', ( #182 ), #225, .F. ) ;
#18 = DATE_AND_TIME ( #58, #119 ) ;
#19 = ORIENTED_EDGE ( 'NONE', *, *, #201, .T. ) ;
#20 = UNCERTAINTY_MEASURE_WITH_UNIT (LENGTH_MEASURE( 1.000000000000000100E-005 ), #16, 'distance_accuracy_value', 'NONE');
#21 = FACE_OUTER_BOUND ( 'NONE', #129, .T. ) ;
#22 = APPROVAL_PERSON_ORGANIZATION ( #236, #221, #117 ) ;
#23 = CIRCLE ( 'NONE', #6, 22.14999999999999500 ) ;
#24 = PERSON_AND_ORGANIZATION ( #29, #4 ) ;
#25 = CIRCLE ( 'NONE', #151, 34.85000000000001600 ) ;
#26 = CC_DESIGN_PERSON_AND_ORGANIZATION_ASSIGNMENT ( #181, #166, ( #238 ) ) ;
#27 = EDGE_LOOP ( 'NONE', ( #44, #33, #209, #100 ) ) ;
#28 = APPROVAL_STATUS ( 'not_yet_approved' ) ;
#29 = PERSON ( 'UNSPECIFIED', 'UNSPECIFIED', 'UNSPECIFIED', ('UNSPECIFIED'), ('UNSPECIFIED'), ('UNSPECIFIED') ) ;
#30 = CARTESIAN_POINT ( 'NONE',  ( 57.00000000000000000, 0.0000000000000000000, 0.0000000000000000000 ) ) ;
#31 = EDGE_CURVE ( 'NONE', #207, #79, #160, .T. ) ;
#32 = APPROVAL_PERSON_ORGANIZATION ( #133, #229, #210 ) ;
#33 = ORIENTED_EDGE ( 'NONE', *, *, #96, .T. ) ;
#34 = ORIENTED_EDGE ( 'NONE', *, *, #59, .F. ) ;
#35 = DIRECTION ( 'NONE',  ( 0.0000000000000000000, -0.0000000000000000000, 1.000000000000000000 ) ) ;
#36 = DIRECTION ( 'NONE',  ( 0.0000000000000000000, 0.0000000000000000000, 1.000000000000000000 ) ) ;
#37 = CARTESIAN_POINT ( 'NONE',  ( 0.0000000000000000000, 0.0000000000000000000, 0.0000000000000000000 ) ) ;
#38 = DIRECTION ( 'NONE',  ( 0.0000000000000000000, 0.0000000000000000000, 1.000000000000000000 ) ) ;
#39 = COORDINATED_UNIVERSAL_TIME_OFFSET ( 1, 0, .AHEAD. ) ;
#40 = VERTEX_POINT ( 'NONE', #165 ) ;
#41 = CC_DESIGN_PERSON_AND_ORGANIZATION_ASSIGNMENT ( #109, #82, ( #125 ) ) ;
#42 = FACE_OUTER_BOUND ( 'NONE', #158, .T. ) ;
#43 = AXIS2_PLACEMENT_3D ( 'NONE', #195, #216, #237 ) ;
#44 = ORIENTED_EDGE ( 'NONE', *, *, #144, .T. ) ;
#45 = EDGE_CURVE ( 'NONE', #128, #79, #162, .T. ) ;
#46 = PRODUCT_DEFINITION_SHAPE ( 'NONE', 'NONE',  #238 ) ;
#47 = ORIENTED_EDGE ( 'NONE', *, *, #45, .F. ) ;
#48 = CARTESIAN_POINT ( 'NONE',  ( 57.00000000000000000, 0.0000000000000000000, 0.0000000000000000000 ) ) ;
#49 = DIRECTION ( 'NONE',  ( 0.0000000000000000000, 0.0000000000000000000, 1.000000000000000000 ) ) ;
#50 = DIRECTION ( 'NONE',  ( 1.000000000000000000, 0.0000000000000000000, 0.0000000000000000000 ) ) ;
#51 = APPROVAL ( #184, 'UNSPECIFIED' ) ;
#52 = APPROVAL_DATE_TIME ( #240, #51 ) ;
#53 = DIRECTION ( 'NONE',  ( 0.0000000000000000000, 0.0000000000000000000, 1.000000000000000000 ) ) ;
#54 = ORIENTED_EDGE ( 'NONE', *, *, #177, .F. ) ;
#55 = CARTESIAN_POINT ( 'NONE',  ( 57.00000000000000000, 0.0000000000000000000, 0.0000000000000000000 ) ) ;
#56 = ORIENTED_EDGE ( 'NONE', *, *, #159, .T. ) ;
#57 = DIRECTION ( 'NONE',  ( 0.0000000000000000000, 0.0000000000000000000, 1.000000000000000000 ) ) ;
#58 = CALENDAR_DATE ( 2020, 16, 12 ) ;
#59 = EDGE_CURVE ( 'NONE', #205, #128, #134, .T. ) ;
#60 = VERTEX_POINT ( 'NONE', #234 ) ;
#61 = CLOSED_SHELL ( 'NONE', ( #17, #175, #90, #13, #200, #253 ) ) ;
#62 = DATE_AND_TIME ( #155, #3 ) ;
#63 = CC_DESIGN_PERSON_AND_ORGANIZATION_ASSIGNMENT ( #74, #191, ( #197 ) ) ;
#64 = TOROIDAL_SURFACE ( 'NONE', #149, 57.00000000000000000, 22.14999999999999500 ) ;
#65 = CIRCLE ( 'NONE', #214, 24.14999999999999900 ) ;
#66 = EDGE_LOOP ( 'NONE', ( #34, #54, #202, #244 ) ) ;
#67 = APPROVAL_ROLE ( '' ) ;
#68 = CARTESIAN_POINT ( 'NONE',  ( 57.00000000000000000, 0.0000000000000000000, -2.957522019940857900E-015 ) ) ;
#69 = APPLICATION_CONTEXT ( 'configuration controlled 3d designs of mechanical parts and assemblies' ) ;
#70 = DIRECTION ( 'NONE',  ( 1.000000000000000000, 0.0000000000000000000, 0.0000000000000000000 ) ) ;
#71 = AXIS2_PLACEMENT_3D ( 'NONE', #101, #147, #232 ) ;
#72 = PLANE ( 'NONE',  #164 ) ;
#73 = EDGE_LOOP ( 'NONE', ( #1, #85, #120, #153 ) ) ;
#74 = PERSON_AND_ORGANIZATION ( #29, #4 ) ;
#75 = CIRCLE ( 'NONE', #78, 24.14999999999999900 ) ;
#76 = PERSON_AND_ORGANIZATION ( #29, #4 ) ;
#77 = FACE_OUTER_BOUND ( 'NONE', #73, .T. ) ;
#78 = AXIS2_PLACEMENT_3D ( 'NONE', #84, #248, #189 ) ;
#79 = VERTEX_POINT ( 'NONE', #121 ) ;
#80 = AXIS2_PLACEMENT_3D ( 'NONE', #68, #124, #70 ) ;
#81 = EDGE_LOOP ( 'NONE', ( #95, #219 ) ) ;
#82 = PERSON_AND_ORGANIZATION_ROLE ( 'design_owner' ) ;
#83 = APPROVAL_STATUS ( 'not_yet_approved' ) ;
#84 = CARTESIAN_POINT ( 'NONE',  ( 0.0000000000000000000, 0.0000000000000000000, 0.0000000000000000000 ) ) ;
#85 = ORIENTED_EDGE ( 'NONE', *, *, #59, .T. ) ;
#86 = DIRECTION ( 'NONE',  ( -3.132683478061954800E-016, 1.000000000000000000, 0.0000000000000000000 ) ) ;
#87 = CARTESIAN_POINT ( 'NONE',  ( 56.99999999999997900, 57.00000000000000000, 0.0000000000000000000 ) ) ;
#88 = COORDINATED_UNIVERSAL_TIME_OFFSET ( 1, 0, .AHEAD. ) ;
#89 = DIRECTION ( 'NONE',  ( 1.000000000000000000, 2.832769448823989800E-016, 0.0000000000000000000 ) ) ;
#90 = ADVANCED_FACE ( 'NONE', ( #8 ), #194, .T. ) ;
#91 = CARTESIAN_POINT ( 'NONE',  ( 56.99999999999997900, 57.00000000000000000, 0.0000000000000000000 ) ) ;
#92 = CC_DESIGN_PERSON_AND_ORGANIZATION_ASSIGNMENT ( #76, #247, ( #197 ) ) ;
#93 = EDGE_LOOP ( 'NONE', ( #217, #19 ) ) ;
#94 =( GEOMETRIC_REPRESENTATION_CONTEXT ( 3 ) GLOBAL_UNCERTAINTY_ASSIGNED_CONTEXT ( ( #20 ) ) GLOBAL_UNIT_ASSIGNED_CONTEXT ( ( #16, #176, #173 ) ) REPRESENTATION_CONTEXT ( 'NONE', 'WORKASPACE' ) );
#95 = ORIENTED_EDGE ( 'NONE', *, *, #144, .F. ) ;
#96 = EDGE_CURVE ( 'NONE', #40, #98, #220, .T. ) ;
#97 = APPROVAL_DATE_TIME ( #62, #221 ) ;
#98 = VERTEX_POINT ( 'NONE', #235 ) ;
#99 = DATE_TIME_ROLE ( 'creation_date' ) ;
#100 = ORIENTED_EDGE ( 'NONE', *, *, #243, .F. ) ;
#101 = CARTESIAN_POINT ( 'NONE',  ( 56.99999999999998600, 57.00000000000000000, 0.0000000000000000000 ) ) ;
#102 = CC_DESIGN_APPROVAL ( #229, ( #197 ) ) ;
#103 = DIRECTION ( 'NONE',  ( 0.0000000000000000000, 0.0000000000000000000, 1.000000000000000000 ) ) ;
#104 = MECHANICAL_CONTEXT ( 'NONE', #246, 'mechanical' ) ;
#105 = CARTESIAN_POINT ( 'NONE',  ( 0.0000000000000000000, 0.0000000000000000000, 0.0000000000000000000 ) ) ;
#106 = DIRECTION ( 'NONE',  ( 0.0000000000000000000, 0.0000000000000000000, 1.000000000000000000 ) ) ;
#107 = AXIS2_PLACEMENT_3D ( 'NONE', #141, #103, #168 ) ;
#108 = CARTESIAN_POINT ( 'NONE',  ( 56.99999999999998600, 32.85000000000000100, -2.957522019940857900E-015 ) ) ;
#109 = PERSON_AND_ORGANIZATION ( #29, #4 ) ;
#110 = DIRECTION ( 'NONE',  ( 0.0000000000000000000, 0.0000000000000000000, 1.000000000000000000 ) ) ;
#111 = COORDINATED_UNIVERSAL_TIME_OFFSET ( 1, 0, .AHEAD. ) ;
#112 = CIRCLE ( 'NONE', #43, 22.14999999999999500 ) ;
#113 = EDGE_CURVE ( 'NONE', #79, #128, #75, .T. ) ;
#114 = TOROIDAL_SURFACE ( 'NONE', #172, 57.00000000000000000, 24.14999999999999900 ) ;
#115 = PRODUCT_RELATED_PRODUCT_CATEGORY ( 'detail', '', ( #125 ) ) ;
#116 = AXIS2_PLACEMENT_3D ( 'NONE', #55, #49, #50 ) ;
#117 = APPROVAL_ROLE ( '' ) ;
#118 = SECURITY_CLASSIFICATION ( '', '', #226 ) ;
#119 = LOCAL_TIME ( 3, 17, 34.00000000000000000, #39 ) ;
#120 = ORIENTED_EDGE ( 'NONE', *, *, #45, .T. ) ;
#121 = CARTESIAN_POINT ( 'NONE',  ( 24.14999999999999900, 0.0000000000000000000, -2.957522019940857900E-015 ) ) ;
#122 = DIRECTION ( 'NONE',  ( 0.0000000000000000000, 1.000000000000000000, 0.0000000000000000000 ) ) ;
#123 = AXIS2_PLACEMENT_3D ( 'NONE', #87, #249, #127 ) ;
#124 = DIRECTION ( 'NONE',  ( 0.0000000000000000000, 0.0000000000000000000, 1.000000000000000000 ) ) ;
#125 = PRODUCT ( 'OT200-40-48_3x2_OSTP', 'OT200-40-48_3x2_OSTP', '', ( #104 ) ) ;
#126 = LOCAL_TIME ( 3, 17, 34.00000000000000000, #111 ) ;
#127 = DIRECTION ( 'NONE',  ( 0.0000000000000000000, 0.0000000000000000000, 1.000000000000000000 ) ) ;
#128 = VERTEX_POINT ( 'NONE', #9 ) ;
#129 = EDGE_LOOP ( 'NONE', ( #5, #56 ) ) ;
#130 = CARTESIAN_POINT ( 'NONE',  ( 56.99999999999999300, 34.85000000000000900, -2.712592660111386800E-015 ) ) ;
#131 = CARTESIAN_POINT ( 'NONE',  ( 57.00000000000000000, 0.0000000000000000000, 0.0000000000000000000 ) ) ;
#132 = EDGE_LOOP ( 'NONE', ( #137, #171, #163, #188 ) ) ;
#133 = PERSON_AND_ORGANIZATION ( #29, #4 ) ;
#134 = CIRCLE ( 'NONE', #180, 81.15000000000000600 ) ;
#135 = EDGE_CURVE ( 'NONE', #40, #213, #174, .T. ) ;
#136 = EDGE_CURVE ( 'NONE', #60, #98, #241, .T. ) ;
#137 = ORIENTED_EDGE ( 'NONE', *, *, #96, .F. ) ;
#138 = AXIS2_PLACEMENT_3D ( 'NONE', #105, #10, #11 ) ;
#139 = COORDINATED_UNIVERSAL_TIME_OFFSET ( 1, 0, .AHEAD. ) ;
#140 = SHAPE_DEFINITION_REPRESENTATION ( #46, #233 ) ;
#141 = CARTESIAN_POINT ( 'NONE',  ( 0.0000000000000000000, 0.0000000000000000000, 0.0000000000000000000 ) ) ;
#142 = LOCAL_TIME ( 3, 17, 34.00000000000000000, #169 ) ;
#143 = CARTESIAN_POINT ( 'NONE',  ( 56.99999999999998600, 57.00000000000000000, 0.0000000000000000000 ) ) ;
#144 = EDGE_CURVE ( 'NONE', #213, #40, #23, .T. ) ;
#145 = DIRECTION ( 'NONE',  ( 0.0000000000000000000, 0.0000000000000000000, 1.000000000000000000 ) ) ;
#146 = APPROVAL_PERSON_ORGANIZATION ( #204, #51, #67 ) ;
#147 = DIRECTION ( 'NONE',  ( 1.000000000000000000, 2.832769448823989800E-016, 0.0000000000000000000 ) ) ;
#148 = CARTESIAN_POINT ( 'NONE',  ( 0.0000000000000000000, 0.0000000000000000000, 0.0000000000000000000 ) ) ;
#149 = AXIS2_PLACEMENT_3D ( 'NONE', #239, #251, #198 ) ;
#150 = DIRECTION ( 'NONE',  ( 1.000000000000000000, 2.832769448823989800E-016, 0.0000000000000000000 ) ) ;
#151 = AXIS2_PLACEMENT_3D ( 'NONE', #154, #38, #152 ) ;
#152 = DIRECTION ( 'NONE',  ( 1.000000000000000000, 0.0000000000000000000, 0.0000000000000000000 ) ) ;
#153 = ORIENTED_EDGE ( 'NONE', *, *, #31, .F. ) ;
#154 = CARTESIAN_POINT ( 'NONE',  ( 57.00000000000000000, 0.0000000000000000000, -2.712592660111386800E-015 ) ) ;
#155 = CALENDAR_DATE ( 2020, 16, 12 ) ;
#156 = AXIS2_PLACEMENT_3D ( 'NONE', #148, #122, #53 ) ;
#157 = ORIENTED_EDGE ( 'NONE', *, *, #113, .F. ) ;
#158 = EDGE_LOOP ( 'NONE', ( #157, #47 ) ) ;
#159 = EDGE_CURVE ( 'NONE', #205, #207, #179, .T. ) ;
#160 = CIRCLE ( 'NONE', #80, 32.85000000000000900 ) ;
#161 = CC_DESIGN_APPROVAL ( #51, ( #238 ) ) ;
#162 = CIRCLE ( 'NONE', #138, 24.14999999999999900 ) ;
#163 = ORIENTED_EDGE ( 'NONE', *, *, #243, .T. ) ;
#164 = AXIS2_PLACEMENT_3D ( 'NONE', #37, #218, #35 ) ;
#165 = CARTESIAN_POINT ( 'NONE',  ( 56.99999999999997900, 79.14999999999999100, 0.0000000000000000000 ) ) ;
#166 = PERSON_AND_ORGANIZATION_ROLE ( 'creator' ) ;
#167 = DIRECTION ( 'NONE',  ( 1.000000000000000000, 0.0000000000000000000, 0.0000000000000000000 ) ) ;
#168 = DIRECTION ( 'NONE',  ( 1.000000000000000000, 0.0000000000000000000, 0.0000000000000000000 ) ) ;
#169 = COORDINATED_UNIVERSAL_TIME_OFFSET ( 1, 0, .AHEAD. ) ;
#170 = DIRECTION ( 'NONE',  ( 1.000000000000000000, 0.0000000000000000000, 0.0000000000000000000 ) ) ;
#171 = ORIENTED_EDGE ( 'NONE', *, *, #135, .T. ) ;
#172 = AXIS2_PLACEMENT_3D ( 'NONE', #131, #110, #196 ) ;
#173 =( NAMED_UNIT ( * ) SI_UNIT ( $, .STERADIAN. ) SOLID_ANGLE_UNIT ( ) );
#174 = CIRCLE ( 'NONE', #71, 22.14999999999999500 ) ;
#175 = ADVANCED_FACE ( 'NONE', ( #77 ), #114, .T. ) ;
#176 =( NAMED_UNIT ( * ) PLANE_ANGLE_UNIT ( ) SI_UNIT ( $, .RADIAN. ) );
#177 = EDGE_CURVE ( 'NONE', #207, #205, #65, .T. ) ;
#178 = CC_DESIGN_DATE_AND_TIME_ASSIGNMENT ( #18, #99, ( #238 ) ) ;
#179 = CIRCLE ( 'NONE', #190, 24.14999999999999900 ) ;
#180 = AXIS2_PLACEMENT_3D ( 'NONE', #192, #145, #167 ) ;
#181 = PERSON_AND_ORGANIZATION ( #29, #4 ) ;
#182 = FACE_OUTER_BOUND ( 'NONE', #27, .T. ) ;
#183 = FACE_BOUND ( 'NONE', #93, .T. ) ;
#184 = APPROVAL_STATUS ( 'not_yet_approved' ) ;
#185 = APPLICATION_PROTOCOL_DEFINITION ( 'international standard', 'config_control_design', 1994, #69 ) ;
#186 = DIRECTION ( 'NONE',  ( 1.000000000000000000, 0.0000000000000000000, 0.0000000000000000000 ) ) ;
#187 = CALENDAR_DATE ( 2020, 16, 12 ) ;
#188 = ORIENTED_EDGE ( 'NONE', *, *, #201, .F. ) ;
#189 = DIRECTION ( 'NONE',  ( 0.0000000000000000000, 0.0000000000000000000, 1.000000000000000000 ) ) ;
#190 = AXIS2_PLACEMENT_3D ( 'NONE', #14, #150, #36 ) ;
#191 = PERSON_AND_ORGANIZATION_ROLE ( 'design_supplier' ) ;
#192 = CARTESIAN_POINT ( 'NONE',  ( 57.00000000000000000, 0.0000000000000000000, 0.0000000000000000000 ) ) ;
#193 = PLANE ( 'NONE',  #123 ) ;
#194 = TOROIDAL_SURFACE ( 'NONE', #224, 57.00000000000000000, 24.14999999999999900 ) ;
#195 = CARTESIAN_POINT ( 'NONE',  ( 0.0000000000000000000, 0.0000000000000000000, 0.0000000000000000000 ) ) ;
#196 = DIRECTION ( 'NONE',  ( 1.000000000000000000, 0.0000000000000000000, 0.0000000000000000000 ) ) ;
#197 = PRODUCT_DEFINITION_FORMATION_WITH_SPECIFIED_SOURCE ( 'ANY', '', #125, .NOT_KNOWN. ) ;
#198 = DIRECTION ( 'NONE',  ( 1.000000000000000000, 0.0000000000000000000, 0.0000000000000000000 ) ) ;
#199 = FACE_BOUND ( 'NONE', #81, .T. ) ;
#200 = ADVANCED_FACE ( 'NONE', ( #183, #42 ), #72, .F. ) ;
#201 = EDGE_CURVE ( 'NONE', #98, #60, #112, .T. ) ;
#202 = ORIENTED_EDGE ( 'NONE', *, *, #31, .T. ) ;
#203 = AXIS2_PLACEMENT_3D ( 'NONE', #48, #106, #186 ) ;
#204 = PERSON_AND_ORGANIZATION ( #29, #4 ) ;
#205 = VERTEX_POINT ( 'NONE', #252 ) ;
#206 = DATE_TIME_ROLE ( 'classification_date' ) ;
#207 = VERTEX_POINT ( 'NONE', #108 ) ;
#208 = CC_DESIGN_DATE_AND_TIME_ASSIGNMENT ( #223, #206, ( #118 ) ) ;
#209 = ORIENTED_EDGE ( 'NONE', *, *, #136, .F. ) ;
#210 = APPROVAL_ROLE ( '' ) ;
#211 = DIRECTION ( 'NONE',  ( 1.000000000000000000, 2.832769448823989800E-016, 0.0000000000000000000 ) ) ;
#212 = CALENDAR_DATE ( 2020, 16, 12 ) ;
#213 = VERTEX_POINT ( 'NONE', #130 ) ;
#214 = AXIS2_PLACEMENT_3D ( 'NONE', #91, #89, #57 ) ;
#215 = DIRECTION ( 'NONE',  ( 0.0000000000000000000, 0.0000000000000000000, 1.000000000000000000 ) ) ;
#216 = DIRECTION ( 'NONE',  ( 0.0000000000000000000, 1.000000000000000000, 0.0000000000000000000 ) ) ;
#217 = ORIENTED_EDGE ( 'NONE', *, *, #136, .T. ) ;
#218 = DIRECTION ( 'NONE',  ( 0.0000000000000000000, 1.000000000000000000, 0.0000000000000000000 ) ) ;
#219 = ORIENTED_EDGE ( 'NONE', *, *, #135, .F. ) ;
#220 = CIRCLE ( 'NONE', #203, 79.14999999999999100 ) ;
#221 = APPROVAL ( #83, 'UNSPECIFIED' ) ;
#222 = MANIFOLD_SOLID_BREP ( 'cut-body', #61 ) ;
#223 = DATE_AND_TIME ( #187, #126 ) ;
#224 = AXIS2_PLACEMENT_3D ( 'NONE', #30, #215, #170 ) ;
#225 = TOROIDAL_SURFACE ( 'NONE', #116, 57.00000000000000000, 22.14999999999999500 ) ;
#226 = SECURITY_CLASSIFICATION_LEVEL ( 'unclassified' ) ;
#227 = APPLICATION_PROTOCOL_DEFINITION ( 'international standard', 'config_control_design', 1994, #246 ) ;
#228 = LOCAL_TIME ( 3, 17, 34.00000000000000000, #88 ) ;
#229 = APPROVAL ( #28, 'UNSPECIFIED' ) ;
#230 = FACE_OUTER_BOUND ( 'NONE', #132, .T. ) ;
#231 = PERSON_AND_ORGANIZATION_ROLE ( 'classification_officer' ) ;
#232 = DIRECTION ( 'NONE',  ( -3.132683478061954800E-016, 1.000000000000000000, 0.0000000000000000000 ) ) ;
#233 = ADVANCED_BREP_SHAPE_REPRESENTATION ( 'OT200-40-48_3x2_OSTP', ( #222, #107 ), #94 ) ;
#234 = CARTESIAN_POINT ( 'NONE',  ( 22.14999999999999500, 0.0000000000000000000, -2.712592660111386800E-015 ) ) ;
#235 = CARTESIAN_POINT ( 'NONE',  ( -22.14999999999999500, 0.0000000000000000000, 0.0000000000000000000 ) ) ;
#236 = PERSON_AND_ORGANIZATION ( #29, #4 ) ;
#237 = DIRECTION ( 'NONE',  ( 0.0000000000000000000, 0.0000000000000000000, 1.000000000000000000 ) ) ;
#238 = PRODUCT_DEFINITION ( 'UNKNOWN', '', #197, #12 ) ;
#239 = CARTESIAN_POINT ( 'NONE',  ( 57.00000000000000000, 0.0000000000000000000, 0.0000000000000000000 ) ) ;
#240 = DATE_AND_TIME ( #242, #228 ) ;
#241 = CIRCLE ( 'NONE', #156, 22.14999999999999500 ) ;
#242 = CALENDAR_DATE ( 2020, 16, 12 ) ;
#243 = EDGE_CURVE ( 'NONE', #213, #60, #25, .T. ) ;
#244 = ORIENTED_EDGE ( 'NONE', *, *, #113, .T. ) ;
#245 = DATE_AND_TIME ( #212, #142 ) ;
#246 = APPLICATION_CONTEXT ( 'configuration controlled 3d designs of mechanical parts and assemblies' ) ;
#247 = PERSON_AND_ORGANIZATION_ROLE ( 'creator' ) ;
#248 = DIRECTION ( 'NONE',  ( 0.0000000000000000000, 1.000000000000000000, 0.0000000000000000000 ) ) ;
#249 = DIRECTION ( 'NONE',  ( 1.000000000000000000, 2.832769448823989800E-016, -0.0000000000000000000 ) ) ;
#250 = CC_DESIGN_PERSON_AND_ORGANIZATION_ASSIGNMENT ( #24, #231, ( #118 ) ) ;
#251 = DIRECTION ( 'NONE',  ( 0.0000000000000000000, 0.0000000000000000000, 1.000000000000000000 ) ) ;
#252 = CARTESIAN_POINT ( 'NONE',  ( 56.99999999999997200, 81.15000000000000600, 0.0000000000000000000 ) ) ;
#253 = ADVANCED_FACE ( 'NONE', ( #230 ), #64, .F. ) ;
ENDSEC;
END-ISO-10303-21;
