ISO-10303-21;
HEADER;
FILE_DESCRIPTION (( 'STEP AP203' ),
    '1' );
FILE_NAME ('OT214-250-256x3_OSTP.step',
    '2021-02-10T12:45:05',
    ( '' ),
    ( '' ),
    'SwSTEP 2.0',
    'SolidWorks 2014',
    '' );
FILE_SCHEMA (( 'CONFIG_CONTROL_DESIGN' ));
ENDSEC;

DATA;
#1 = CIRCLE ( 'NONE', #65, 221.9999999999999700 ) ;
#2 = LOCAL_TIME ( 13, 45, 5.000000000000000000, #159 ) ;
#3 = ORIENTED_EDGE ( 'NONE', *, *, #121, .F. ) ;
#4 = CLOSED_SHELL ( 'NONE', ( #238, #198, #60, #117, #183, #217 ) ) ;
#5 = DIRECTION ( 'NONE',  ( 0.0000000000000000000, 0.0000000000000000000, 1.000000000000000000 ) ) ;
#6 = APPROVAL ( #235, 'UNSPECIFIED' ) ;
#7 = DIRECTION ( 'NONE',  ( 1.000000000000000000, 0.0000000000000000000, 0.0000000000000000000 ) ) ;
#8 = CARTESIAN_POINT ( 'NONE',  ( -128.0000000000000000, 0.0000000000000000000, 0.0000000000000000000 ) ) ;
#9 = ORIENTED_EDGE ( 'NONE', *, *, #155, .F. ) ;
#10 = DIRECTION ( 'NONE',  ( 1.000000000000000000, 0.0000000000000000000, 0.0000000000000000000 ) ) ;
#11 = PERSON_AND_ORGANIZATION ( #200, #237 ) ;
#12 = FACE_OUTER_BOUND ( 'NONE', #120, .T. ) ;
#13 = CARTESIAN_POINT ( 'NONE',  ( 350.0000000000000000, 0.0000000000000000000, -1.530808498934191600E-014 ) ) ;
#14 = CARTESIAN_POINT ( 'NONE',  ( 350.0000000000000000, 0.0000000000000000000, 0.0000000000000000000 ) ) ;
#15 = DIRECTION ( 'NONE',  ( 0.0000000000000000000, 0.0000000000000000000, 1.000000000000000000 ) ) ;
#16 = DATE_TIME_ROLE ( 'creation_date' ) ;
#17 = APPLICATION_CONTEXT ( 'configuration controlled 3d designs of mechanical parts and assemblies' ) ;
#18 = CC_DESIGN_PERSON_AND_ORGANIZATION_ASSIGNMENT ( #218, #35, ( #129 ) ) ;
#19 = COORDINATED_UNIVERSAL_TIME_OFFSET ( 1, 0, .AHEAD. ) ;
#20 = DATE_TIME_ROLE ( 'classification_date' ) ;
#21 = LOCAL_TIME ( 13, 45, 5.000000000000000000, #90 ) ;
#22 = EDGE_CURVE ( 'NONE', #243, #106, #54, .T. ) ;
#23 = DIRECTION ( 'NONE',  ( 0.0000000000000000000, 0.0000000000000000000, 1.000000000000000000 ) ) ;
#24 = CIRCLE ( 'NONE', #116, 125.0000000000000000 ) ;
#25 = AXIS2_PLACEMENT_3D ( 'NONE', #127, #110, #15 ) ;
#26 = CARTESIAN_POINT ( 'NONE',  ( 350.0000000000000000, 350.0000000000000000, 0.0000000000000000000 ) ) ;
#27 = CARTESIAN_POINT ( 'NONE',  ( 350.0000000000000000, 0.0000000000000000000, 0.0000000000000000000 ) ) ;
#28 = DIRECTION ( 'NONE',  ( 0.0000000000000000000, 0.0000000000000000000, 1.000000000000000000 ) ) ;
#29 = APPROVAL_PERSON_ORGANIZATION ( #11, #85, #192 ) ;
#30 = SHAPE_DEFINITION_REPRESENTATION ( #114, #39 ) ;
#31 = DIRECTION ( 'NONE',  ( 0.0000000000000000000, -0.0000000000000000000, 1.000000000000000000 ) ) ;
#32 = PRODUCT_DEFINITION ( 'UNKNOWN', '', #129, #214 ) ;
#33 = SECURITY_CLASSIFICATION_LEVEL ( 'unclassified' ) ;
#34 = CALENDAR_DATE ( 2021, 10, 2 ) ;
#35 = PERSON_AND_ORGANIZATION_ROLE ( 'design_supplier' ) ;
#36 = EDGE_CURVE ( 'NONE', #45, #59, #203, .T. ) ;
#37 = CALENDAR_DATE ( 2021, 10, 2 ) ;
#38 = EDGE_LOOP ( 'NONE', ( #161, #104, #139, #160 ) ) ;
#39 = ADVANCED_BREP_SHAPE_REPRESENTATION ( 'OT214-250-256x3_OSTP', ( #80, #101 ), #41 ) ;
#40 = TOROIDAL_SURFACE ( 'NONE', #111, 350.0000000000000000, 125.0000000000000000 ) ;
#41 =( GEOMETRIC_REPRESENTATION_CONTEXT ( 3 ) GLOBAL_UNCERTAINTY_ASSIGNED_CONTEXT ( ( #163 ) ) GLOBAL_UNIT_ASSIGNED_CONTEXT ( ( #77, #132, #179 ) ) REPRESENTATION_CONTEXT ( 'NONE', 'WORKASPACE' ) );
#42 = CARTESIAN_POINT ( 'NONE',  ( 0.0000000000000000000, 0.0000000000000000000, 0.0000000000000000000 ) ) ;
#43 = CARTESIAN_POINT ( 'NONE',  ( 350.0000000000000000, 0.0000000000000000000, 0.0000000000000000000 ) ) ;
#44 = CIRCLE ( 'NONE', #167, 125.0000000000000000 ) ;
#45 = VERTEX_POINT ( 'NONE', #143 ) ;
#46 = DIRECTION ( 'NONE',  ( 0.0000000000000000000, 1.000000000000000000, 0.0000000000000000000 ) ) ;
#47 = CARTESIAN_POINT ( 'NONE',  ( 349.9999999999998900, 478.0000000000000000, 0.0000000000000000000 ) ) ;
#48 = DIRECTION ( 'NONE',  ( 1.000000000000000000, 0.0000000000000000000, 0.0000000000000000000 ) ) ;
#49 = CALENDAR_DATE ( 2021, 10, 2 ) ;
#50 = TOROIDAL_SURFACE ( 'NONE', #142, 350.0000000000000000, 128.0000000000000000 ) ;
#51 = EDGE_CURVE ( 'NONE', #59, #45, #228, .T. ) ;
#52 = DIRECTION ( 'NONE',  ( 0.0000000000000000000, 0.0000000000000000000, 1.000000000000000000 ) ) ;
#53 = DIRECTION ( 'NONE',  ( 0.0000000000000000000, 0.0000000000000000000, 1.000000000000000000 ) ) ;
#54 = CIRCLE ( 'NONE', #55, 475.0000000000000000 ) ;
#55 = AXIS2_PLACEMENT_3D ( 'NONE', #168, #222, #10 ) ;
#56 = CALENDAR_DATE ( 2021, 10, 2 ) ;
#57 = CIRCLE ( 'NONE', #58, 125.0000000000000000 ) ;
#58 = AXIS2_PLACEMENT_3D ( 'NONE', #171, #46, #92 ) ;
#59 = VERTEX_POINT ( 'NONE', #8 ) ;
#60 = ADVANCED_FACE ( 'NONE', ( #248 ), #50, .T. ) ;
#61 = EDGE_LOOP ( 'NONE', ( #76, #74 ) ) ;
#62 = EDGE_CURVE ( 'NONE', #170, #106, #66, .T. ) ;
#63 = TOROIDAL_SURFACE ( 'NONE', #149, 350.0000000000000000, 125.0000000000000000 ) ;
#64 = CARTESIAN_POINT ( 'NONE',  ( -125.0000000000000000, 0.0000000000000000000, 0.0000000000000000000 ) ) ;
#65 = AXIS2_PLACEMENT_3D ( 'NONE', #242, #208, #207 ) ;
#66 = CIRCLE ( 'NONE', #233, 125.0000000000000000 ) ;
#67 = DIRECTION ( 'NONE',  ( 1.000000000000000000, 6.123233995736766000E-017, 0.0000000000000000000 ) ) ;
#68 = DIRECTION ( 'NONE',  ( 0.0000000000000000000, 1.000000000000000000, 0.0000000000000000000 ) ) ;
#69 = DIRECTION ( 'NONE',  ( 1.000000000000000000, 6.123233995736766000E-017, 0.0000000000000000000 ) ) ;
#70 = LOCAL_TIME ( 13, 45, 5.000000000000000000, #199 ) ;
#71 = AXIS2_PLACEMENT_3D ( 'NONE', #13, #131, #150 ) ;
#72 = ORIENTED_EDGE ( 'NONE', *, *, #36, .F. ) ;
#73 = PERSON_AND_ORGANIZATION ( #200, #237 ) ;
#74 = ORIENTED_EDGE ( 'NONE', *, *, #134, .T. ) ;
#75 = ORIENTED_EDGE ( 'NONE', *, *, #136, .F. ) ;
#76 = ORIENTED_EDGE ( 'NONE', *, *, #121, .T. ) ;
#77 =( LENGTH_UNIT ( ) NAMED_UNIT ( * ) SI_UNIT ( .MILLI., .METRE. ) );
#78 = AXIS2_PLACEMENT_3D ( 'NONE', #86, #145, #123 ) ;
#79 = FACE_OUTER_BOUND ( 'NONE', #61, .T. ) ;
#80 = MANIFOLD_SOLID_BREP ( 'cut-body', #4 ) ;
#81 = AXIS2_PLACEMENT_3D ( 'NONE', #14, #128, #246 ) ;
#82 = PERSON_AND_ORGANIZATION ( #200, #237 ) ;
#83 = VERTEX_POINT ( 'NONE', #201 ) ;
#84 = ORIENTED_EDGE ( 'NONE', *, *, #62, .F. ) ;
#85 = APPROVAL ( #194, 'UNSPECIFIED' ) ;
#86 = CARTESIAN_POINT ( 'NONE',  ( 0.0000000000000000000, 0.0000000000000000000, 0.0000000000000000000 ) ) ;
#87 = PERSON_AND_ORGANIZATION ( #200, #237 ) ;
#88 = DIRECTION ( 'NONE',  ( 1.000000000000000000, 6.123233995736766000E-017, 0.0000000000000000000 ) ) ;
#89 = CARTESIAN_POINT ( 'NONE',  ( 350.0000000000000000, 0.0000000000000000000, 0.0000000000000000000 ) ) ;
#90 = COORDINATED_UNIVERSAL_TIME_OFFSET ( 1, 0, .AHEAD. ) ;
#91 = CARTESIAN_POINT ( 'NONE',  ( 349.9999999999999400, 350.0000000000000000, 0.0000000000000000000 ) ) ;
#92 = DIRECTION ( 'NONE',  ( 0.0000000000000000000, 0.0000000000000000000, 1.000000000000000000 ) ) ;
#93 = DATE_AND_TIME ( #212, #2 ) ;
#94 = ORIENTED_EDGE ( 'NONE', *, *, #36, .T. ) ;
#95 = APPLICATION_PROTOCOL_DEFINITION ( 'international standard', 'config_control_design', 1994, #175 ) ;
#96 = APPROVAL ( #176, 'UNSPECIFIED' ) ;
#97 = MECHANICAL_CONTEXT ( 'NONE', #175, 'mechanical' ) ;
#98 = PERSON_AND_ORGANIZATION ( #200, #237 ) ;
#99 = PRODUCT_RELATED_PRODUCT_CATEGORY ( 'detail', '', ( #193 ) ) ;
#100 = FACE_OUTER_BOUND ( 'NONE', #38, .T. ) ;
#101 = AXIS2_PLACEMENT_3D ( 'NONE', #172, #227, #157 ) ;
#102 = DATE_AND_TIME ( #37, #239 ) ;
#103 = ORIENTED_EDGE ( 'NONE', *, *, #197, .T. ) ;
#104 = ORIENTED_EDGE ( 'NONE', *, *, #136, .T. ) ;
#105 = EDGE_CURVE ( 'NONE', #83, #45, #1, .T. ) ;
#106 = VERTEX_POINT ( 'NONE', #64 ) ;
#107 = CC_DESIGN_PERSON_AND_ORGANIZATION_ASSIGNMENT ( #253, #213, ( #129 ) ) ;
#108 = ORIENTED_EDGE ( 'NONE', *, *, #51, .F. ) ;
#109 = CARTESIAN_POINT ( 'NONE',  ( 350.0000000000000000, 475.0000000000000000, 0.0000000000000000000 ) ) ;
#110 = DIRECTION ( 'NONE',  ( 1.000000000000000000, 6.123233995736766000E-017, -0.0000000000000000000 ) ) ;
#111 = AXIS2_PLACEMENT_3D ( 'NONE', #89, #53, #226 ) ;
#112 = FACE_BOUND ( 'NONE', #209, .T. ) ;
#113 = SECURITY_CLASSIFICATION ( '', '', #33 ) ;
#114 = PRODUCT_DEFINITION_SHAPE ( 'NONE', 'NONE',  #32 ) ;
#115 = ORIENTED_EDGE ( 'NONE', *, *, #51, .T. ) ;
#116 = AXIS2_PLACEMENT_3D ( 'NONE', #26, #69, #229 ) ;
#117 = ADVANCED_FACE ( 'NONE', ( #112, #79 ), #144, .T. ) ;
#118 = TOROIDAL_SURFACE ( 'NONE', #126, 350.0000000000000000, 128.0000000000000000 ) ;
#119 = COORDINATED_UNIVERSAL_TIME_OFFSET ( 1, 0, .AHEAD. ) ;
#120 = EDGE_LOOP ( 'NONE', ( #72, #108 ) ) ;
#121 = EDGE_CURVE ( 'NONE', #83, #216, #156, .T. ) ;
#122 = APPROVAL_DATE_TIME ( #236, #96 ) ;
#123 = DIRECTION ( 'NONE',  ( 0.0000000000000000000, 0.0000000000000000000, 1.000000000000000000 ) ) ;
#124 = CIRCLE ( 'NONE', #81, 478.0000000000000000 ) ;
#125 = DIRECTION ( 'NONE',  ( 0.0000000000000000000, 0.0000000000000000000, 1.000000000000000000 ) ) ;
#126 = AXIS2_PLACEMENT_3D ( 'NONE', #206, #28, #48 ) ;
#127 = CARTESIAN_POINT ( 'NONE',  ( 349.9999999999999400, 350.0000000000000000, 0.0000000000000000000 ) ) ;
#128 = DIRECTION ( 'NONE',  ( 0.0000000000000000000, 0.0000000000000000000, 1.000000000000000000 ) ) ;
#129 = PRODUCT_DEFINITION_FORMATION_WITH_SPECIFIED_SOURCE ( 'ANY', '', #193, .NOT_KNOWN. ) ;
#130 = VERTEX_POINT ( 'NONE', #224 ) ;
#131 = DIRECTION ( 'NONE',  ( 0.0000000000000000000, 0.0000000000000000000, 1.000000000000000000 ) ) ;
#132 =( NAMED_UNIT ( * ) PLANE_ANGLE_UNIT ( ) SI_UNIT ( $, .RADIAN. ) );
#133 = EDGE_LOOP ( 'NONE', ( #9, #3, #196, #94 ) ) ;
#134 = EDGE_CURVE ( 'NONE', #216, #83, #195, .T. ) ;
#135 = EDGE_CURVE ( 'NONE', #106, #170, #57, .T. ) ;
#136 = EDGE_CURVE ( 'NONE', #243, #130, #24, .T. ) ;
#137 = EDGE_LOOP ( 'NONE', ( #204, #211 ) ) ;
#138 = ORIENTED_EDGE ( 'NONE', *, *, #155, .T. ) ;
#139 = ORIENTED_EDGE ( 'NONE', *, *, #153, .T. ) ;
#140 = APPROVAL_PERSON_ORGANIZATION ( #73, #96, #230 ) ;
#141 = ORIENTED_EDGE ( 'NONE', *, *, #153, .F. ) ;
#142 = AXIS2_PLACEMENT_3D ( 'NONE', #43, #5, #7 ) ;
#143 = CARTESIAN_POINT ( 'NONE',  ( 128.0000000000000000, 0.0000000000000000000, -1.567547902908612100E-014 ) ) ;
#144 = PLANE ( 'NONE',  #25 ) ;
#145 = DIRECTION ( 'NONE',  ( 0.0000000000000000000, 1.000000000000000000, 0.0000000000000000000 ) ) ;
#146 = DATE_AND_TIME ( #49, #70 ) ;
#147 = ORIENTED_EDGE ( 'NONE', *, *, #105, .F. ) ;
#148 = CARTESIAN_POINT ( 'NONE',  ( 0.0000000000000000000, 0.0000000000000000000, 0.0000000000000000000 ) ) ;
#149 = AXIS2_PLACEMENT_3D ( 'NONE', #27, #52, #189 ) ;
#150 = DIRECTION ( 'NONE',  ( 1.000000000000000000, 0.0000000000000000000, 0.0000000000000000000 ) ) ;
#151 = PLANE ( 'NONE',  #191 ) ;
#152 = CARTESIAN_POINT ( 'NONE',  ( 349.9999999999999400, 350.0000000000000000, 0.0000000000000000000 ) ) ;
#153 = EDGE_CURVE ( 'NONE', #130, #170, #181, .T. ) ;
#154 = APPLICATION_PROTOCOL_DEFINITION ( 'international standard', 'config_control_design', 1994, #17 ) ;
#155 = EDGE_CURVE ( 'NONE', #216, #59, #124, .T. ) ;
#156 = CIRCLE ( 'NONE', #158, 128.0000000000000000 ) ;
#157 = DIRECTION ( 'NONE',  ( 1.000000000000000000, 0.0000000000000000000, 0.0000000000000000000 ) ) ;
#158 = AXIS2_PLACEMENT_3D ( 'NONE', #91, #88, #245 ) ;
#159 = COORDINATED_UNIVERSAL_TIME_OFFSET ( 1, 0, .AHEAD. ) ;
#160 = ORIENTED_EDGE ( 'NONE', *, *, #135, .F. ) ;
#161 = ORIENTED_EDGE ( 'NONE', *, *, #22, .F. ) ;
#162 = ORIENTED_EDGE ( 'NONE', *, *, #22, .T. ) ;
#163 = UNCERTAINTY_MEASURE_WITH_UNIT (LENGTH_MEASURE( 1.000000000000000100E-005 ), #77, 'distance_accuracy_value', 'NONE');
#164 = DATE_AND_TIME ( #34, #220 ) ;
#165 = CC_DESIGN_PERSON_AND_ORGANIZATION_ASSIGNMENT ( #177, #252, ( #32 ) ) ;
#166 = CC_DESIGN_DATE_AND_TIME_ASSIGNMENT ( #164, #16, ( #32 ) ) ;
#167 = AXIS2_PLACEMENT_3D ( 'NONE', #169, #173, #68 ) ;
#168 = CARTESIAN_POINT ( 'NONE',  ( 350.0000000000000000, 0.0000000000000000000, 0.0000000000000000000 ) ) ;
#169 = CARTESIAN_POINT ( 'NONE',  ( 350.0000000000000000, 350.0000000000000000, 0.0000000000000000000 ) ) ;
#170 = VERTEX_POINT ( 'NONE', #187 ) ;
#171 = CARTESIAN_POINT ( 'NONE',  ( 0.0000000000000000000, 0.0000000000000000000, 0.0000000000000000000 ) ) ;
#172 = CARTESIAN_POINT ( 'NONE',  ( 0.0000000000000000000, 0.0000000000000000000, 0.0000000000000000000 ) ) ;
#173 = DIRECTION ( 'NONE',  ( 1.000000000000000000, 6.123233995736766000E-017, 0.0000000000000000000 ) ) ;
#174 = FACE_BOUND ( 'NONE', #137, .T. ) ;
#175 = APPLICATION_CONTEXT ( 'configuration controlled 3d designs of mechanical parts and assemblies' ) ;
#176 = APPROVAL_STATUS ( 'not_yet_approved' ) ;
#177 = PERSON_AND_ORGANIZATION ( #200, #237 ) ;
#178 = FACE_OUTER_BOUND ( 'NONE', #205, .T. ) ;
#179 =( NAMED_UNIT ( * ) SI_UNIT ( $, .STERADIAN. ) SOLID_ANGLE_UNIT ( ) );
#180 = AXIS2_PLACEMENT_3D ( 'NONE', #42, #184, #23 ) ;
#181 = CIRCLE ( 'NONE', #71, 224.9999999999999700 ) ;
#182 = CC_DESIGN_APPROVAL ( #6, ( #113 ) ) ;
#183 = ADVANCED_FACE ( 'NONE', ( #174, #12 ), #151, .F. ) ;
#184 = DIRECTION ( 'NONE',  ( 0.0000000000000000000, 1.000000000000000000, 0.0000000000000000000 ) ) ;
#185 = AXIS2_PLACEMENT_3D ( 'NONE', #152, #67, #190 ) ;
#186 = CARTESIAN_POINT ( 'NONE',  ( 0.0000000000000000000, 0.0000000000000000000, 0.0000000000000000000 ) ) ;
#187 = CARTESIAN_POINT ( 'NONE',  ( 125.0000000000000000, 0.0000000000000000000, -1.530808498934191600E-014 ) ) ;
#188 = CC_DESIGN_APPROVAL ( #96, ( #129 ) ) ;
#189 = DIRECTION ( 'NONE',  ( 1.000000000000000000, 0.0000000000000000000, 0.0000000000000000000 ) ) ;
#190 = DIRECTION ( 'NONE',  ( 0.0000000000000000000, 0.0000000000000000000, 1.000000000000000000 ) ) ;
#191 = AXIS2_PLACEMENT_3D ( 'NONE', #148, #244, #31 ) ;
#192 = APPROVAL_ROLE ( '' ) ;
#193 = PRODUCT ( 'OT214-250-256x3_OSTP', 'OT214-250-256x3_OSTP', '', ( #97 ) ) ;
#194 = APPROVAL_STATUS ( 'not_yet_approved' ) ;
#195 = CIRCLE ( 'NONE', #185, 128.0000000000000000 ) ;
#196 = ORIENTED_EDGE ( 'NONE', *, *, #105, .T. ) ;
#197 = EDGE_CURVE ( 'NONE', #130, #243, #44, .T. ) ;
#198 = ADVANCED_FACE ( 'NONE', ( #250 ), #118, .T. ) ;
#199 = COORDINATED_UNIVERSAL_TIME_OFFSET ( 1, 0, .AHEAD. ) ;
#200 = PERSON ( 'UNSPECIFIED', 'UNSPECIFIED', 'UNSPECIFIED', ('UNSPECIFIED'), ('UNSPECIFIED'), ('UNSPECIFIED') ) ;
#201 = CARTESIAN_POINT ( 'NONE',  ( 349.9999999999999400, 221.9999999999999700, -1.567547902908612100E-014 ) ) ;
#202 = DIRECTION ( 'NONE',  ( 0.0000000000000000000, 1.000000000000000000, 0.0000000000000000000 ) ) ;
#203 = CIRCLE ( 'NONE', #78, 128.0000000000000000 ) ;
#204 = ORIENTED_EDGE ( 'NONE', *, *, #62, .T. ) ;
#205 = EDGE_LOOP ( 'NONE', ( #103, #162, #84, #141 ) ) ;
#206 = CARTESIAN_POINT ( 'NONE',  ( 350.0000000000000000, 0.0000000000000000000, 0.0000000000000000000 ) ) ;
#207 = DIRECTION ( 'NONE',  ( 1.000000000000000000, 0.0000000000000000000, 0.0000000000000000000 ) ) ;
#208 = DIRECTION ( 'NONE',  ( 0.0000000000000000000, 0.0000000000000000000, 1.000000000000000000 ) ) ;
#209 = EDGE_LOOP ( 'NONE', ( #234, #75 ) ) ;
#210 = PERSON_AND_ORGANIZATION_ROLE ( 'design_owner' ) ;
#211 = ORIENTED_EDGE ( 'NONE', *, *, #135, .T. ) ;
#212 = CALENDAR_DATE ( 2021, 10, 2 ) ;
#213 = PERSON_AND_ORGANIZATION_ROLE ( 'creator' ) ;
#214 = DESIGN_CONTEXT ( 'detailed design', #17, 'design' ) ;
#215 = CC_DESIGN_PERSON_AND_ORGANIZATION_ASSIGNMENT ( #98, #210, ( #193 ) ) ;
#216 = VERTEX_POINT ( 'NONE', #47 ) ;
#217 = ADVANCED_FACE ( 'NONE', ( #100 ), #40, .F. ) ;
#218 = PERSON_AND_ORGANIZATION ( #200, #237 ) ;
#219 = CC_DESIGN_SECURITY_CLASSIFICATION ( #113, ( #129 ) ) ;
#220 = LOCAL_TIME ( 13, 45, 5.000000000000000000, #19 ) ;
#221 = EDGE_LOOP ( 'NONE', ( #241, #138, #115, #147 ) ) ;
#222 = DIRECTION ( 'NONE',  ( 0.0000000000000000000, 0.0000000000000000000, 1.000000000000000000 ) ) ;
#223 = APPROVAL_DATE_TIME ( #93, #85 ) ;
#224 = CARTESIAN_POINT ( 'NONE',  ( 350.0000000000000000, 224.9999999999999700, -1.530808498934191600E-014 ) ) ;
#225 = CC_DESIGN_PERSON_AND_ORGANIZATION_ASSIGNMENT ( #82, #231, ( #113 ) ) ;
#226 = DIRECTION ( 'NONE',  ( 1.000000000000000000, 0.0000000000000000000, 0.0000000000000000000 ) ) ;
#227 = DIRECTION ( 'NONE',  ( 0.0000000000000000000, 0.0000000000000000000, 1.000000000000000000 ) ) ;
#228 = CIRCLE ( 'NONE', #180, 128.0000000000000000 ) ;
#229 = DIRECTION ( 'NONE',  ( 0.0000000000000000000, 1.000000000000000000, 0.0000000000000000000 ) ) ;
#230 = APPROVAL_ROLE ( '' ) ;
#231 = PERSON_AND_ORGANIZATION_ROLE ( 'classification_officer' ) ;
#232 = APPROVAL_PERSON_ORGANIZATION ( #87, #6, #251 ) ;
#233 = AXIS2_PLACEMENT_3D ( 'NONE', #186, #202, #125 ) ;
#234 = ORIENTED_EDGE ( 'NONE', *, *, #197, .F. ) ;
#235 = APPROVAL_STATUS ( 'not_yet_approved' ) ;
#236 = DATE_AND_TIME ( #56, #21 ) ;
#237 = ORGANIZATION ( 'UNSPECIFIED', 'UNSPECIFIED', '' ) ;
#238 = ADVANCED_FACE ( 'NONE', ( #178 ), #63, .F. ) ;
#239 = LOCAL_TIME ( 13, 45, 5.000000000000000000, #119 ) ;
#240 = CC_DESIGN_DATE_AND_TIME_ASSIGNMENT ( #102, #20, ( #113 ) ) ;
#241 = ORIENTED_EDGE ( 'NONE', *, *, #134, .F. ) ;
#242 = CARTESIAN_POINT ( 'NONE',  ( 350.0000000000000000, 0.0000000000000000000, -1.567547902908612100E-014 ) ) ;
#243 = VERTEX_POINT ( 'NONE', #109 ) ;
#244 = DIRECTION ( 'NONE',  ( 0.0000000000000000000, 1.000000000000000000, 0.0000000000000000000 ) ) ;
#245 = DIRECTION ( 'NONE',  ( 0.0000000000000000000, 0.0000000000000000000, 1.000000000000000000 ) ) ;
#246 = DIRECTION ( 'NONE',  ( 1.000000000000000000, 0.0000000000000000000, 0.0000000000000000000 ) ) ;
#247 = APPROVAL_DATE_TIME ( #146, #6 ) ;
#248 = FACE_OUTER_BOUND ( 'NONE', #133, .T. ) ;
#249 = CC_DESIGN_APPROVAL ( #85, ( #32 ) ) ;
#250 = FACE_OUTER_BOUND ( 'NONE', #221, .T. ) ;
#251 = APPROVAL_ROLE ( '' ) ;
#252 = PERSON_AND_ORGANIZATION_ROLE ( 'creator' ) ;
#253 = PERSON_AND_ORGANIZATION ( #200, #237 ) ;
ENDSEC;
END-ISO-10303-21;
