ISO-10303-21;
HEADER;
FILE_DESCRIPTION (( 'STEP AP203' ),
    '1' );
FILE_NAME ('12-0201-15_outokumpu.step',
    '2015-08-12T08:17:05',
    ( '' ),
    ( '' ),
    'SwSTEP 2.0',
    'SolidWorks 2008',
    '' );
FILE_SCHEMA (( 'CONFIG_CONTROL_DESIGN' ));
ENDSEC;

DATA;
#1 = ORIENTED_EDGE ( 'NONE', *, *, #104, .T. ) ;
#2 = DIRECTION ( 'NONE',  ( 0.0000000000000000000, 1.000000000000000000, 1.538557406631314400E-016 ) ) ;
#3 = DIRECTION ( 'NONE',  ( -0.0000000000000000000, 1.331970471275045500E-016, -1.000000000000000000 ) ) ;
#4 = CYLINDRICAL_SURFACE ( 'NONE', #9, 27.25000000000000400 ) ;
#5 = VECTOR ( 'NONE', #3, 1000.000000000000000 ) ;
#6 = LINE ( 'NONE', #7, #5 ) ;
#7 = CARTESIAN_POINT ( 'NONE',  ( 0.0000000000000000000, 22.55000000000000100, -38.00000000000007800 ) ) ;
#8 = CARTESIAN_POINT ( 'NONE',  ( 0.0000000000000000000, 0.0000000000000000000, -4.336808689942017700E-016 ) ) ;
#9 = AXIS2_PLACEMENT_3D ( 'NONE', #8, #11, #10 ) ;
#10 = DIRECTION ( 'NONE',  ( 1.000000000000000000, 0.0000000000000000000, 0.0000000000000000000 ) ) ;
#11 = DIRECTION ( 'NONE',  ( -0.0000000000000000000, -0.0000000000000000000, 1.000000000000000000 ) ) ;
#12 = ORIENTED_EDGE ( 'NONE', *, *, #14, .T. ) ;
#13 = VERTEX_POINT ( 'NONE', #210 ) ;
#14 = EDGE_CURVE ( 'NONE', #128, #15, #211, .T. ) ;
#15 = VERTEX_POINT ( 'NONE', #216 ) ;
#16 = EDGE_CURVE ( 'NONE', #128, #25, #200, .T. ) ;
#17 = ORIENTED_EDGE ( 'NONE', *, *, #127, .T. ) ;
#18 = EDGE_LOOP ( 'NONE', ( #93, #94, #111, #78 ) ) ;
#19 = ORIENTED_EDGE ( 'NONE', *, *, #44, .T. ) ;
#20 = ORIENTED_EDGE ( 'NONE', *, *, #122, .T. ) ;
#21 = EDGE_LOOP ( 'NONE', ( #49, #91 ) ) ;
#22 = ORIENTED_EDGE ( 'NONE', *, *, #87, .F. ) ;
#23 = ORIENTED_EDGE ( 'NONE', *, *, #104, .F. ) ;
#24 = ORIENTED_EDGE ( 'NONE', *, *, #28, .F. ) ;
#25 = VERTEX_POINT ( 'NONE', #190 ) ;
#26 = EDGE_CURVE ( 'NONE', #15, #13, #201, .T. ) ;
#27 = EDGE_LOOP ( 'NONE', ( #59, #97, #46, #103 ) ) ;
#28 = EDGE_CURVE ( 'NONE', #81, #74, #203, .T. ) ;
#29 = EDGE_CURVE ( 'NONE', #60, #55, #194, .T. ) ;
#30 = ORIENTED_EDGE ( 'NONE', *, *, #28, .T. ) ;
#31 = ORIENTED_EDGE ( 'NONE', *, *, #32, .T. ) ;
#32 = EDGE_CURVE ( 'NONE', #33, #34, #196, .T. ) ;
#33 = VERTEX_POINT ( 'NONE', #205 ) ;
#34 = VERTEX_POINT ( 'NONE', #204 ) ;
#35 = ORIENTED_EDGE ( 'NONE', *, *, #36, .T. ) ;
#36 = EDGE_CURVE ( 'NONE', #34, #70, #189, .T. ) ;
#37 = ADVANCED_FACE ( 'NONE', ( #185, #184 ), #136, .F. ) ;
#38 = EDGE_CURVE ( 'NONE', #81, #60, #132, .T. ) ;
#39 = ORIENTED_EDGE ( 'NONE', *, *, #14, .F. ) ;
#40 = ORIENTED_EDGE ( 'NONE', *, *, #41, .F. ) ;
#41 = EDGE_CURVE ( 'NONE', #25, #128, #130, .T. ) ;
#42 = ORIENTED_EDGE ( 'NONE', *, *, #72, .T. ) ;
#43 = ORIENTED_EDGE ( 'NONE', *, *, #44, .F. ) ;
#44 = EDGE_CURVE ( 'NONE', #71, #70, #140, .T. ) ;
#45 = ORIENTED_EDGE ( 'NONE', *, *, #113, .F. ) ;
#46 = ORIENTED_EDGE ( 'NONE', *, *, #47, .T. ) ;
#47 = EDGE_CURVE ( 'NONE', #99, #84, #131, .T. ) ;
#48 = CLOSED_SHELL ( 'NONE', ( #67, #69, #58, #125, #100, #96, #37, #92, #61, #117, #76, #52 ) ) ;
#49 = ORIENTED_EDGE ( 'NONE', *, *, #38, .T. ) ;
#50 = ORIENTED_EDGE ( 'NONE', *, *, #41, .T. ) ;
#51 = ORIENTED_EDGE ( 'NONE', *, *, #16, .T. ) ;
#52 = ADVANCED_FACE ( 'NONE', ( #147 ), #171, .F. ) ;
#53 = EDGE_LOOP ( 'NONE', ( #107, #108, #30, #1 ) ) ;
#54 = ORIENTED_EDGE ( 'NONE', *, *, #32, .F. ) ;
#55 = VERTEX_POINT ( 'NONE', #169 ) ;
#56 = ORIENTED_EDGE ( 'NONE', *, *, #57, .F. ) ;
#57 = EDGE_CURVE ( 'NONE', #60, #81, #157, .T. ) ;
#58 = ADVANCED_FACE ( 'NONE', ( #162 ), #168, .F. ) ;
#59 = ORIENTED_EDGE ( 'NONE', *, *, #123, .F. ) ;
#60 = VERTEX_POINT ( 'NONE', #182 ) ;
#61 = ADVANCED_FACE ( 'NONE', ( #178, #183 ), #176, .F. ) ;
#62 = ORIENTED_EDGE ( 'NONE', *, *, #63, .F. ) ;
#63 = EDGE_CURVE ( 'NONE', #13, #15, #174, .T. ) ;
#64 = ORIENTED_EDGE ( 'NONE', *, *, #26, .F. ) ;
#65 = EDGE_LOOP ( 'NONE', ( #115, #116 ) ) ;
#66 = ORIENTED_EDGE ( 'NONE', *, *, #26, .T. ) ;
#67 = ADVANCED_FACE ( 'NONE', ( #227 ), #222, .F. ) ;
#68 = EDGE_LOOP ( 'NONE', ( #56, #82, #17, #24 ) ) ;
#69 = ADVANCED_FACE ( 'NONE', ( #228 ), #234, .F. ) ;
#70 = VERTEX_POINT ( 'NONE', #235 ) ;
#71 = VERTEX_POINT ( 'NONE', #230 ) ;
#72 = EDGE_CURVE ( 'NONE', #25, #13, #6, .T. ) ;
#73 = ORIENTED_EDGE ( 'NONE', *, *, #72, .F. ) ;
#74 = VERTEX_POINT ( 'NONE', #242 ) ;
#75 = ORIENTED_EDGE ( 'NONE', *, *, #63, .T. ) ;
#76 = ADVANCED_FACE ( 'NONE', ( #288, #265 ), #289, .F. ) ;
#77 = EDGE_LOOP ( 'NONE', ( #23, #105 ) ) ;
#78 = ORIENTED_EDGE ( 'NONE', *, *, #83, .T. ) ;
#79 = EDGE_LOOP ( 'NONE', ( #80, #90 ) ) ;
#80 = ORIENTED_EDGE ( 'NONE', *, *, #83, .F. ) ;
#81 = VERTEX_POINT ( 'NONE', #299 ) ;
#82 = ORIENTED_EDGE ( 'NONE', *, *, #29, .T. ) ;
#83 = EDGE_CURVE ( 'NONE', #84, #99, #294, .T. ) ;
#84 = VERTEX_POINT ( 'NONE', #261 ) ;
#85 = VERTEX_POINT ( 'NONE', #260 ) ;
#86 = ORIENTED_EDGE ( 'NONE', *, *, #87, .T. ) ;
#87 = EDGE_CURVE ( 'NONE', #34, #33, #297, .T. ) ;
#88 = EDGE_LOOP ( 'NONE', ( #89, #12, #66, #73 ) ) ;
#89 = ORIENTED_EDGE ( 'NONE', *, *, #16, .F. ) ;
#90 = ORIENTED_EDGE ( 'NONE', *, *, #47, .F. ) ;
#91 = ORIENTED_EDGE ( 'NONE', *, *, #57, .T. ) ;
#92 = ADVANCED_FACE ( 'NONE', ( #298 ), #254, .F. ) ;
#93 = ORIENTED_EDGE ( 'NONE', *, *, #98, .F. ) ;
#94 = ORIENTED_EDGE ( 'NONE', *, *, #110, .F. ) ;
#95 = VERTEX_POINT ( 'NONE', #256 ) ;
#96 = ADVANCED_FACE ( 'NONE', ( #255, #287 ), #286, .F. ) ;
#97 = ORIENTED_EDGE ( 'NONE', *, *, #98, .T. ) ;
#98 = EDGE_CURVE ( 'NONE', #95, #99, #283, .T. ) ;
#99 = VERTEX_POINT ( 'NONE', #279 ) ;
#100 = ADVANCED_FACE ( 'NONE', ( #278 ), #4, .T. ) ;
#101 = EDGE_LOOP ( 'NONE', ( #102, #86, #120, #121 ) ) ;
#102 = ORIENTED_EDGE ( 'NONE', *, *, #36, .F. ) ;
#103 = ORIENTED_EDGE ( 'NONE', *, *, #124, .F. ) ;
#104 = EDGE_CURVE ( 'NONE', #74, #55, #400, .T. ) ;
#105 = ORIENTED_EDGE ( 'NONE', *, *, #127, .F. ) ;
#106 = EDGE_LOOP ( 'NONE', ( #50, #51 ) ) ;
#107 = ORIENTED_EDGE ( 'NONE', *, *, #29, .F. ) ;
#108 = ORIENTED_EDGE ( 'NONE', *, *, #38, .F. ) ;
#109 = EDGE_LOOP ( 'NONE', ( #54, #22 ) ) ;
#110 = EDGE_CURVE ( 'NONE', #85, #95, #392, .T. ) ;
#111 = ORIENTED_EDGE ( 'NONE', *, *, #124, .T. ) ;
#112 = EDGE_LOOP ( 'NONE', ( #62, #64 ) ) ;
#113 = EDGE_CURVE ( 'NONE', #33, #71, #385, .T. ) ;
#114 = EDGE_LOOP ( 'NONE', ( #19, #20 ) ) ;
#115 = ORIENTED_EDGE ( 'NONE', *, *, #110, .T. ) ;
#116 = ORIENTED_EDGE ( 'NONE', *, *, #123, .T. ) ;
#117 = ADVANCED_FACE ( 'NONE', ( #378 ), #377, .F. ) ;
#118 = EDGE_LOOP ( 'NONE', ( #39, #40, #42, #75 ) ) ;
#119 = MANIFOLD_SOLID_BREP ( 'NONE', #48 ) ;
#120 = ORIENTED_EDGE ( 'NONE', *, *, #113, .T. ) ;
#121 = ORIENTED_EDGE ( 'NONE', *, *, #122, .F. ) ;
#122 = EDGE_CURVE ( 'NONE', #70, #71, #396, .T. ) ;
#123 = EDGE_CURVE ( 'NONE', #95, #85, #407, .T. ) ;
#124 = EDGE_CURVE ( 'NONE', #85, #84, #408, .T. ) ;
#125 = ADVANCED_FACE ( 'NONE', ( #266 ), #271, .T. ) ;
#126 = EDGE_LOOP ( 'NONE', ( #31, #35, #43, #45 ) ) ;
#127 = EDGE_CURVE ( 'NONE', #55, #74, #240, .T. ) ;
#128 = VERTEX_POINT ( 'NONE', #241 ) ;
#129 = DIRECTION ( 'NONE',  ( 0.0000000000000000000, 0.0000000000000000000, -1.000000000000000000 ) ) ;
#130 = CIRCLE ( 'NONE', #152, 22.55000000000000400 ) ;
#131 = CIRCLE ( 'NONE', #151, 24.39999999999999900 ) ;
#132 = CIRCLE ( 'NONE', #143, 24.40000000000000200 ) ;
#133 = DIRECTION ( 'NONE',  ( 0.0000000000000000000, 1.000000000000000000, 1.331970471275045500E-016 ) ) ;
#134 = DIRECTION ( 'NONE',  ( 0.0000000000000000000, 1.000000000000000000, 0.0000000000000000000 ) ) ;
#135 = DIRECTION ( 'NONE',  ( -0.0000000000000000000, 1.331970471275045500E-016, -1.000000000000000000 ) ) ;
#136 = PLANE ( 'NONE',  #154 ) ;
#137 = CARTESIAN_POINT ( 'NONE',  ( 0.0000000000000000000, -3.469446951953615000E-015, 0.0000000000000000000 ) ) ;
#138 = DIRECTION ( 'NONE',  ( -1.000000000000000000, 0.0000000000000000000, -0.0000000000000000000 ) ) ;
#139 = DIRECTION ( 'NONE',  ( 0.0000000000000000000, 1.000000000000000000, 1.538557406631314200E-016 ) ) ;
#140 = CIRCLE ( 'NONE', #149, 27.25000000000000000 ) ;
#141 = DIRECTION ( 'NONE',  ( 1.000000000000000000, 0.0000000000000000000, 0.0000000000000000000 ) ) ;
#142 = DIRECTION ( 'NONE',  ( -0.0000000000000000000, -0.0000000000000000000, 1.000000000000000000 ) ) ;
#143 = AXIS2_PLACEMENT_3D ( 'NONE', #137, #150, #133 ) ;
#144 = CARTESIAN_POINT ( 'NONE',  ( 0.0000000000000000000, 0.0000000000000000000, 0.0000000000000000000 ) ) ;
#145 = CARTESIAN_POINT ( 'NONE',  ( 0.0000000000000000000, 27.25000000000000000, -2.168404344971008900E-016 ) ) ;
#146 = CARTESIAN_POINT ( 'NONE',  ( 0.0000000000000000000, -1.777844453434306800E-015, -12.70000000000000300 ) ) ;
#147 = FACE_OUTER_BOUND ( 'NONE', #53, .T. ) ;
#148 = DIRECTION ( 'NONE',  ( -0.0000000000000000000, 1.331970471275045500E-016, -1.000000000000000000 ) ) ;
#149 = AXIS2_PLACEMENT_3D ( 'NONE', #144, #142, #141 ) ;
#150 = DIRECTION ( 'NONE',  ( -0.0000000000000000000, 1.331970471275045500E-016, -1.000000000000000000 ) ) ;
#151 = AXIS2_PLACEMENT_3D ( 'NONE', #153, #135, #134 ) ;
#152 = AXIS2_PLACEMENT_3D ( 'NONE', #146, #148, #139 ) ;
#153 = CARTESIAN_POINT ( 'NONE',  ( 0.0000000000000000000, 1.592040838891558100E-015, -38.00000000000000000 ) ) ;
#154 = AXIS2_PLACEMENT_3D ( 'NONE', #145, #129, #138 ) ;
#155 = DIRECTION ( 'NONE',  ( -0.0000000000000000000, 1.331970471275045500E-016, -1.000000000000000000 ) ) ;
#156 = DIRECTION ( 'NONE',  ( 0.0000000000000000000, 1.000000000000000000, 0.0000000000000000000 ) ) ;
#157 = CIRCLE ( 'NONE', #158, 24.40000000000000200 ) ;
#158 = AXIS2_PLACEMENT_3D ( 'NONE', #160, #159, #164 ) ;
#159 = DIRECTION ( 'NONE',  ( -0.0000000000000000000, 1.331970471275045500E-016, -1.000000000000000000 ) ) ;
#160 = CARTESIAN_POINT ( 'NONE',  ( 0.0000000000000000000, -3.469446951953615000E-015, 0.0000000000000000000 ) ) ;
#161 = CARTESIAN_POINT ( 'NONE',  ( 0.0000000000000000000, 1.592040838891568000E-015, -38.00000000000007800 ) ) ;
#162 = FACE_OUTER_BOUND ( 'NONE', #27, .T. ) ;
#163 = AXIS2_PLACEMENT_3D ( 'NONE', #167, #166, #170 ) ;
#164 = DIRECTION ( 'NONE',  ( 0.0000000000000000000, 1.000000000000000000, 1.331970471275045500E-016 ) ) ;
#165 = AXIS2_PLACEMENT_3D ( 'NONE', #161, #155, #156 ) ;
#166 = DIRECTION ( 'NONE',  ( -0.0000000000000000000, 1.331970471275045500E-016, -1.000000000000000000 ) ) ;
#167 = CARTESIAN_POINT ( 'NONE',  ( 0.0000000000000000000, 1.592040838891568000E-015, -38.00000000000007800 ) ) ;
#168 = CYLINDRICAL_SURFACE ( 'NONE', #163, 24.39999999999999500 ) ;
#169 = CARTESIAN_POINT ( 'NONE',  ( 2.988039503326600400E-015, -24.39999999999999900, -12.70000000000000600 ) ) ;
#170 = DIRECTION ( 'NONE',  ( 0.0000000000000000000, 1.000000000000000000, 0.0000000000000000000 ) ) ;
#171 = CYLINDRICAL_SURFACE ( 'NONE', #165, 24.39999999999999900 ) ;
#172 = DIRECTION ( 'NONE',  ( 0.0000000000000000000, -1.331970471275045500E-016, 1.000000000000000000 ) ) ;
#173 = CARTESIAN_POINT ( 'NONE',  ( 0.0000000000000000000, 22.55000000000000100, -25.30000000000000100 ) ) ;
#174 = CIRCLE ( 'NONE', #181, 22.55000000000000100 ) ;
#175 = DIRECTION ( 'NONE',  ( 0.0000000000000000000, -1.000000000000000000, -1.331970471275045500E-016 ) ) ;
#176 = PLANE ( 'NONE',  #177 ) ;
#177 = AXIS2_PLACEMENT_3D ( 'NONE', #173, #172, #175 ) ;
#178 = FACE_BOUND ( 'NONE', #112, .T. ) ;
#179 = DIRECTION ( 'NONE',  ( -0.0000000000000000000, 1.331970471275045500E-016, -1.000000000000000000 ) ) ;
#180 = CARTESIAN_POINT ( 'NONE',  ( 0.0000000000000000000, -9.956165962774940100E-017, -25.30000000000000400 ) ) ;
#181 = AXIS2_PLACEMENT_3D ( 'NONE', #180, #179, #2 ) ;
#182 = CARTESIAN_POINT ( 'NONE',  ( 2.988039503326601200E-015, -24.40000000000000900, -3.250007949911111700E-015 ) ) ;
#183 = FACE_OUTER_BOUND ( 'NONE', #65, .T. ) ;
#184 = FACE_OUTER_BOUND ( 'NONE', #114, .T. ) ;
#185 = FACE_BOUND ( 'NONE', #21, .T. ) ;
#186 = DIRECTION ( 'NONE',  ( -0.0000000000000000000, -0.0000000000000000000, 1.000000000000000000 ) ) ;
#187 = VECTOR ( 'NONE', #186, 1000.000000000000000 ) ;
#188 = CARTESIAN_POINT ( 'NONE',  ( -27.25000000000000400, 3.337052314165978400E-015, -4.336808689942017700E-016 ) ) ;
#189 = LINE ( 'NONE', #188, #187 ) ;
#190 = CARTESIAN_POINT ( 'NONE',  ( 0.0000000000000000000, 22.55000000000000100, -12.69999999999999900 ) ) ;
#191 = DIRECTION ( 'NONE',  ( -0.0000000000000000000, 1.331970471275045500E-016, -1.000000000000000000 ) ) ;
#192 = VECTOR ( 'NONE', #191, 1000.000000000000000 ) ;
#193 = CARTESIAN_POINT ( 'NONE',  ( 2.988039503326600400E-015, -24.39999999999999900, -38.00000000000007800 ) ) ;
#194 = LINE ( 'NONE', #193, #192 ) ;
#195 = AXIS2_PLACEMENT_3D ( 'NONE', #208, #207, #206 ) ;
#196 = CIRCLE ( 'NONE', #195, 27.25000000000000400 ) ;
#197 = CARTESIAN_POINT ( 'NONE',  ( 2.761487327869460600E-015, -22.55000000000000100, -38.00000000000007800 ) ) ;
#198 = DIRECTION ( 'NONE',  ( -0.0000000000000000000, 1.331970471275045500E-016, -1.000000000000000000 ) ) ;
#199 = VECTOR ( 'NONE', #198, 1000.000000000000000 ) ;
#200 = CIRCLE ( 'NONE', #221, 22.55000000000000400 ) ;
#201 = CIRCLE ( 'NONE', #215, 22.55000000000000100 ) ;
#202 = CARTESIAN_POINT ( 'NONE',  ( 0.0000000000000000000, 24.39999999999999900, -38.00000000000007800 ) ) ;
#203 = LINE ( 'NONE', #202, #199 ) ;
#204 = CARTESIAN_POINT ( 'NONE',  ( -27.25000000000000400, 3.337052314165978400E-015, -38.00000000000000700 ) ) ;
#205 = CARTESIAN_POINT ( 'NONE',  ( 27.25000000000000400, 0.0000000000000000000, -38.00000000000000700 ) ) ;
#206 = DIRECTION ( 'NONE',  ( 1.000000000000000000, 0.0000000000000000000, 0.0000000000000000000 ) ) ;
#207 = DIRECTION ( 'NONE',  ( -0.0000000000000000000, -0.0000000000000000000, 1.000000000000000000 ) ) ;
#208 = CARTESIAN_POINT ( 'NONE',  ( 0.0000000000000000000, 0.0000000000000000000, -38.00000000000000700 ) ) ;
#209 = DIRECTION ( 'NONE',  ( 0.0000000000000000000, 1.000000000000000000, 1.538557406631314200E-016 ) ) ;
#210 = CARTESIAN_POINT ( 'NONE',  ( 0.0000000000000000000, 22.55000000000000100, -25.30000000000000100 ) ) ;
#211 = LINE ( 'NONE', #197, #218 ) ;
#212 = DIRECTION ( 'NONE',  ( 0.0000000000000000000, 1.000000000000000000, 1.538557406631314400E-016 ) ) ;
#213 = DIRECTION ( 'NONE',  ( -0.0000000000000000000, 1.331970471275045500E-016, -1.000000000000000000 ) ) ;
#214 = CARTESIAN_POINT ( 'NONE',  ( 0.0000000000000000000, -9.956165962774940100E-017, -25.30000000000000400 ) ) ;
#215 = AXIS2_PLACEMENT_3D ( 'NONE', #214, #213, #212 ) ;
#216 = CARTESIAN_POINT ( 'NONE',  ( 2.761487327869460600E-015, -22.55000000000000100, -25.30000000000000800 ) ) ;
#217 = DIRECTION ( 'NONE',  ( -0.0000000000000000000, 1.331970471275045500E-016, -1.000000000000000000 ) ) ;
#218 = VECTOR ( 'NONE', #217, 1000.000000000000000 ) ;
#219 = DIRECTION ( 'NONE',  ( -0.0000000000000000000, 1.331970471275045500E-016, -1.000000000000000000 ) ) ;
#220 = CARTESIAN_POINT ( 'NONE',  ( 0.0000000000000000000, -1.777844453434306800E-015, -12.70000000000000300 ) ) ;
#221 = AXIS2_PLACEMENT_3D ( 'NONE', #220, #219, #209 ) ;
#222 = CYLINDRICAL_SURFACE ( 'NONE', #226, 24.39999999999999900 ) ;
#223 = DIRECTION ( 'NONE',  ( -0.0000000000000000000, 1.331970471275045500E-016, -1.000000000000000000 ) ) ;
#224 = CARTESIAN_POINT ( 'NONE',  ( 0.0000000000000000000, 1.592040838891568000E-015, -38.00000000000007800 ) ) ;
#225 = CARTESIAN_POINT ( 'NONE',  ( 0.0000000000000000000, 1.592040838891568000E-015, -38.00000000000007800 ) ) ;
#226 = AXIS2_PLACEMENT_3D ( 'NONE', #224, #223, #229 ) ;
#227 = FACE_OUTER_BOUND ( 'NONE', #68, .T. ) ;
#228 = FACE_OUTER_BOUND ( 'NONE', #88, .T. ) ;
#229 = DIRECTION ( 'NONE',  ( 0.0000000000000000000, 1.000000000000000000, 0.0000000000000000000 ) ) ;
#230 = CARTESIAN_POINT ( 'NONE',  ( 27.25000000000000000, 0.0000000000000000000, 0.0000000000000000000 ) ) ;
#231 = DIRECTION ( 'NONE',  ( 0.0000000000000000000, 1.000000000000000000, 0.0000000000000000000 ) ) ;
#232 = DIRECTION ( 'NONE',  ( -0.0000000000000000000, 1.331970471275045500E-016, -1.000000000000000000 ) ) ;
#233 = AXIS2_PLACEMENT_3D ( 'NONE', #225, #232, #231 ) ;
#234 = CYLINDRICAL_SURFACE ( 'NONE', #233, 22.55000000000000100 ) ;
#235 = CARTESIAN_POINT ( 'NONE',  ( -27.25000000000000000, 3.337052314165978000E-015, 0.0000000000000000000 ) ) ;
#236 = ADVANCED_BREP_SHAPE_REPRESENTATION ( '12-0201-15_outokumpu', ( #119, #276 ), #237 ) ;
#237 =( GEOMETRIC_REPRESENTATION_CONTEXT ( 3 ) GLOBAL_UNCERTAINTY_ASSIGNED_CONTEXT ( ( #269 ) ) GLOBAL_UNIT_ASSIGNED_CONTEXT ( ( #274, #259, #270 ) ) REPRESENTATION_CONTEXT ( 'NONE', 'WORKASPACE' ) );
#238 = CARTESIAN_POINT ( 'NONE',  ( 0.0000000000000000000, -1.777844453434306800E-015, -12.70000000000000300 ) ) ;
#239 = AXIS2_PLACEMENT_3D ( 'NONE', #238, #247, #246 ) ;
#240 = CIRCLE ( 'NONE', #239, 24.39999999999999500 ) ;
#241 = CARTESIAN_POINT ( 'NONE',  ( 2.761487327869461300E-015, -22.55000000000000400, -12.70000000000000600 ) ) ;
#242 = CARTESIAN_POINT ( 'NONE',  ( 0.0000000000000000000, 24.39999999999999100, -12.69999999999999900 ) ) ;
#243 = CARTESIAN_POINT ( 'NONE',  ( 0.0000000000000000000, 1.592040838891568000E-015, -38.00000000000007800 ) ) ;
#244 = DIRECTION ( 'NONE',  ( 1.000000000000000000, 0.0000000000000000000, 0.0000000000000000000 ) ) ;
#245 = CARTESIAN_POINT ( 'NONE',  ( 0.0000000000000000000, 0.0000000000000000000, 0.0000000000000000000 ) ) ;
#246 = DIRECTION ( 'NONE',  ( 0.0000000000000000000, 1.000000000000000000, 1.421904488505579900E-016 ) ) ;
#247 = DIRECTION ( 'NONE',  ( -0.0000000000000000000, 1.331970471275045500E-016, -1.000000000000000000 ) ) ;
#248 = DIRECTION ( 'NONE',  ( 1.000000000000000000, 0.0000000000000000000, 0.0000000000000000000 ) ) ;
#249 = DIRECTION ( 'NONE',  ( 0.0000000000000000000, -0.0000000000000000000, 1.000000000000000000 ) ) ;
#250 = CARTESIAN_POINT ( 'NONE',  ( 0.0000000000000000000, 27.25000000000000400, -38.00000000000000700 ) ) ;
#251 = AXIS2_PLACEMENT_3D ( 'NONE', #250, #249, #248 ) ;
#252 = CARTESIAN_POINT ( 'NONE',  ( 0.0000000000000000000, 0.0000000000000000000, -38.00000000000000700 ) ) ;
#253 = AXIS2_PLACEMENT_3D ( 'NONE', #243, #258, #257 ) ;
#254 = CYLINDRICAL_SURFACE ( 'NONE', #253, 24.39999999999999500 ) ;
#255 = FACE_BOUND ( 'NONE', #79, .T. ) ;
#256 = CARTESIAN_POINT ( 'NONE',  ( 2.988039503326600000E-015, -24.39999999999999100, -25.30000000000000800 ) ) ;
#257 = DIRECTION ( 'NONE',  ( 0.0000000000000000000, 1.000000000000000000, 0.0000000000000000000 ) ) ;
#258 = DIRECTION ( 'NONE',  ( -0.0000000000000000000, 1.331970471275045500E-016, -1.000000000000000000 ) ) ;
#259 =( NAMED_UNIT ( * ) PLANE_ANGLE_UNIT ( ) SI_UNIT ( $, .RADIAN. ) );
#260 = CARTESIAN_POINT ( 'NONE',  ( 0.0000000000000000000, 24.39999999999999100, -25.30000000000000100 ) ) ;
#261 = CARTESIAN_POINT ( 'NONE',  ( 0.0000000000000000000, 24.39999999999999900, -38.00000000000000000 ) ) ;
#262 = PERSON_AND_ORGANIZATION_ROLE ( 'creator' ) ;
#263 = CC_DESIGN_APPROVAL ( #317, ( #320 ) ) ;
#264 = DIRECTION ( 'NONE',  ( 1.000000000000000000, 0.0000000000000000000, 0.0000000000000000000 ) ) ;
#265 = FACE_BOUND ( 'NONE', #106, .T. ) ;
#266 = FACE_OUTER_BOUND ( 'NONE', #126, .T. ) ;
#267 = CARTESIAN_POINT ( 'NONE',  ( 0.0000000000000000000, 0.0000000000000000000, -4.336808689942017700E-016 ) ) ;
#268 = AXIS2_PLACEMENT_3D ( 'NONE', #267, #273, #272 ) ;
#269 = UNCERTAINTY_MEASURE_WITH_UNIT (LENGTH_MEASURE( 1.000000000000000100E-005 ), #274, 'distance_accuracy_value', 'NONE');
#270 =( NAMED_UNIT ( * ) SI_UNIT ( $, .STERADIAN. ) SOLID_ANGLE_UNIT ( ) );
#271 = CYLINDRICAL_SURFACE ( 'NONE', #268, 27.25000000000000400 ) ;
#272 = DIRECTION ( 'NONE',  ( 1.000000000000000000, 0.0000000000000000000, 0.0000000000000000000 ) ) ;
#273 = DIRECTION ( 'NONE',  ( -0.0000000000000000000, -0.0000000000000000000, 1.000000000000000000 ) ) ;
#274 =( LENGTH_UNIT ( ) NAMED_UNIT ( * ) SI_UNIT ( .MILLI., .METRE. ) );
#275 = DIRECTION ( 'NONE',  ( 0.0000000000000000000, 0.0000000000000000000, 1.000000000000000000 ) ) ;
#276 = AXIS2_PLACEMENT_3D ( 'NONE', #245, #275, #264 ) ;
#277 = PERSON_AND_ORGANIZATION ( #305, #304 ) ;
#278 = FACE_OUTER_BOUND ( 'NONE', #101, .T. ) ;
#279 = CARTESIAN_POINT ( 'NONE',  ( 2.988039503326600800E-015, -24.40000000000000200, -38.00000000000000000 ) ) ;
#280 = DIRECTION ( 'NONE',  ( -0.0000000000000000000, 1.331970471275045500E-016, -1.000000000000000000 ) ) ;
#281 = VECTOR ( 'NONE', #280, 1000.000000000000000 ) ;
#282 = CARTESIAN_POINT ( 'NONE',  ( 2.988039503326600000E-015, -24.39999999999999500, -38.00000000000007800 ) ) ;
#283 = LINE ( 'NONE', #282, #281 ) ;
#284 = CARTESIAN_POINT ( 'NONE',  ( 0.0000000000000000000, 22.55000000000000100, -12.69999999999999900 ) ) ;
#285 = AXIS2_PLACEMENT_3D ( 'NONE', #284, #301, #300 ) ;
#286 = PLANE ( 'NONE',  #251 ) ;
#287 = FACE_OUTER_BOUND ( 'NONE', #109, .T. ) ;
#288 = FACE_OUTER_BOUND ( 'NONE', #77, .T. ) ;
#289 = PLANE ( 'NONE',  #285 ) ;
#290 = DIRECTION ( 'NONE',  ( 0.0000000000000000000, 1.000000000000000000, 0.0000000000000000000 ) ) ;
#291 = DIRECTION ( 'NONE',  ( -0.0000000000000000000, 1.331970471275045500E-016, -1.000000000000000000 ) ) ;
#292 = CARTESIAN_POINT ( 'NONE',  ( 0.0000000000000000000, 1.592040838891558100E-015, -38.00000000000000000 ) ) ;
#293 = AXIS2_PLACEMENT_3D ( 'NONE', #292, #291, #290 ) ;
#294 = CIRCLE ( 'NONE', #293, 24.39999999999999900 ) ;
#295 = DIRECTION ( 'NONE',  ( -0.0000000000000000000, -0.0000000000000000000, 1.000000000000000000 ) ) ;
#296 = AXIS2_PLACEMENT_3D ( 'NONE', #252, #295, #244 ) ;
#297 = CIRCLE ( 'NONE', #296, 27.25000000000000400 ) ;
#298 = FACE_OUTER_BOUND ( 'NONE', #18, .T. ) ;
#299 = CARTESIAN_POINT ( 'NONE',  ( 0.0000000000000000000, 24.39999999999999900, 3.250007949911111300E-015 ) ) ;
#300 = DIRECTION ( 'NONE',  ( 0.0000000000000000000, 1.000000000000000000, 1.331970471275045500E-016 ) ) ;
#301 = DIRECTION ( 'NONE',  ( -0.0000000000000000000, 1.331970471275045500E-016, -1.000000000000000000 ) ) ;
#302 = PERSON_AND_ORGANIZATION_ROLE ( 'design_owner' ) ;
#303 = PERSON_AND_ORGANIZATION ( #305, #304 ) ;
#304 = ORGANIZATION ( 'UNSPECIFIED', 'UNSPECIFIED', '' ) ;
#305 = PERSON ( 'UNSPECIFIED', 'UNSPECIFIED', 'UNSPECIFIED', ('UNSPECIFIED'), ('UNSPECIFIED'), ('UNSPECIFIED') ) ;
#306 = PRODUCT ( '12-0201-15_outokumpu', '12-0201-15_outokumpu', '', ( #323 ) ) ;
#307 = APPLICATION_PROTOCOL_DEFINITION ( 'international standard', 'config_control_design', 1994, #308 ) ;
#308 = APPLICATION_CONTEXT ( 'configuration controlled 3d designs of mechanical parts and assemblies' ) ;
#309 = CC_DESIGN_PERSON_AND_ORGANIZATION_ASSIGNMENT ( #303, #302, ( #306 ) ) ;
#310 = APPROVAL_DATE_TIME ( #311, #317 ) ;
#311 = DATE_AND_TIME ( #312, #313 ) ;
#312 = CALENDAR_DATE ( 2015, 12, 8 ) ;
#313 = LOCAL_TIME ( 10, 17, 5.000000000000000000, #314 ) ;
#314 = COORDINATED_UNIVERSAL_TIME_OFFSET ( 1, 0, .AHEAD. ) ;
#315 = APPROVAL_PERSON_ORGANIZATION ( #319, #317, #316 ) ;
#316 = APPROVAL_ROLE ( '' ) ;
#317 = APPROVAL ( #318, 'UNSPECIFIED' ) ;
#318 = APPROVAL_STATUS ( 'not_yet_approved' ) ;
#319 = PERSON_AND_ORGANIZATION ( #305, #304 ) ;
#320 = PRODUCT_DEFINITION ( 'UNKNOWN', '', #354, #321 ) ;
#321 = DESIGN_CONTEXT ( 'detailed design', #308, 'design' ) ;
#322 = APPLICATION_CONTEXT ( 'configuration controlled 3d designs of mechanical parts and assemblies' ) ;
#323 = MECHANICAL_CONTEXT ( 'NONE', #322, 'mechanical' ) ;
#324 = APPLICATION_PROTOCOL_DEFINITION ( 'international standard', 'config_control_design', 1994, #322 ) ;
#325 = DATE_TIME_ROLE ( 'creation_date' ) ;
#326 = CC_DESIGN_PERSON_AND_ORGANIZATION_ASSIGNMENT ( #359, #327, ( #354 ) ) ;
#327 = PERSON_AND_ORGANIZATION_ROLE ( 'creator' ) ;
#328 = DATE_TIME_ROLE ( 'classification_date' ) ;
#329 = DATE_AND_TIME ( #330, #331 ) ;
#330 = CALENDAR_DATE ( 2015, 12, 8 ) ;
#331 = LOCAL_TIME ( 10, 17, 5.000000000000000000, #343 ) ;
#332 = LOCAL_TIME ( 10, 17, 5.000000000000000000, #339 ) ;
#333 = APPROVAL_STATUS ( 'not_yet_approved' ) ;
#334 = PERSON_AND_ORGANIZATION ( #305, #304 ) ;
#335 = CALENDAR_DATE ( 2015, 12, 8 ) ;
#336 = LOCAL_TIME ( 10, 17, 5.000000000000000000, #337 ) ;
#337 = COORDINATED_UNIVERSAL_TIME_OFFSET ( 1, 0, .AHEAD. ) ;
#338 = APPROVAL_PERSON_ORGANIZATION ( #334, #375, #374 ) ;
#339 = COORDINATED_UNIVERSAL_TIME_OFFSET ( 1, 0, .AHEAD. ) ;
#340 = CALENDAR_DATE ( 2015, 12, 8 ) ;
#341 = SECURITY_CLASSIFICATION ( '', '', #342 ) ;
#342 = SECURITY_CLASSIFICATION_LEVEL ( 'unclassified' ) ;
#343 = COORDINATED_UNIVERSAL_TIME_OFFSET ( 1, 0, .AHEAD. ) ;
#344 = CC_DESIGN_PERSON_AND_ORGANIZATION_ASSIGNMENT ( #346, #345, ( #341 ) ) ;
#345 = PERSON_AND_ORGANIZATION_ROLE ( 'classification_officer' ) ;
#346 = PERSON_AND_ORGANIZATION ( #305, #304 ) ;
#347 = CC_DESIGN_SECURITY_CLASSIFICATION ( #341, ( #354 ) ) ;
#348 = CC_DESIGN_APPROVAL ( #365, ( #341 ) ) ;
#349 = APPROVAL_DATE_TIME ( #363, #365 ) ;
#350 = CALENDAR_DATE ( 2015, 12, 8 ) ;
#351 = LOCAL_TIME ( 10, 17, 5.000000000000000000, #352 ) ;
#352 = COORDINATED_UNIVERSAL_TIME_OFFSET ( 1, 0, .AHEAD. ) ;
#353 = APPROVAL_PERSON_ORGANIZATION ( #367, #365, #364 ) ;
#354 = PRODUCT_DEFINITION_FORMATION_WITH_SPECIFIED_SOURCE ( 'ANY', '', #306, .NOT_KNOWN. ) ;
#355 = CC_DESIGN_DATE_AND_TIME_ASSIGNMENT ( #373, #325, ( #320 ) ) ;
#356 = CC_DESIGN_PERSON_AND_ORGANIZATION_ASSIGNMENT ( #358, #357, ( #354 ) ) ;
#357 = PERSON_AND_ORGANIZATION_ROLE ( 'design_supplier' ) ;
#358 = PERSON_AND_ORGANIZATION ( #305, #304 ) ;
#359 = PERSON_AND_ORGANIZATION ( #305, #304 ) ;
#360 = CC_DESIGN_APPROVAL ( #375, ( #354 ) ) ;
#361 = APPROVAL_DATE_TIME ( #362, #375 ) ;
#362 = DATE_AND_TIME ( #335, #336 ) ;
#363 = DATE_AND_TIME ( #350, #351 ) ;
#364 = APPROVAL_ROLE ( '' ) ;
#365 = APPROVAL ( #366, 'UNSPECIFIED' ) ;
#366 = APPROVAL_STATUS ( 'not_yet_approved' ) ;
#367 = PERSON_AND_ORGANIZATION ( #305, #304 ) ;
#368 = CC_DESIGN_DATE_AND_TIME_ASSIGNMENT ( #329, #328, ( #341 ) ) ;
#369 = CC_DESIGN_PERSON_AND_ORGANIZATION_ASSIGNMENT ( #277, #262, ( #320 ) ) ;
#370 = SHAPE_DEFINITION_REPRESENTATION ( #371, #236 ) ;
#371 = PRODUCT_DEFINITION_SHAPE ( 'NONE', 'NONE',  #320 ) ;
#372 = PRODUCT_RELATED_PRODUCT_CATEGORY ( 'detail', '', ( #306 ) ) ;
#373 = DATE_AND_TIME ( #340, #332 ) ;
#374 = APPROVAL_ROLE ( '' ) ;
#375 = APPROVAL ( #333, 'UNSPECIFIED' ) ;
#376 = AXIS2_PLACEMENT_3D ( 'NONE', #379, #386, #409 ) ;
#377 = CYLINDRICAL_SURFACE ( 'NONE', #381, 22.55000000000000100 ) ;
#378 = FACE_OUTER_BOUND ( 'NONE', #118, .T. ) ;
#379 = CARTESIAN_POINT ( 'NONE',  ( 0.0000000000000000000, -1.777844453434306800E-015, -12.70000000000000300 ) ) ;
#380 = CARTESIAN_POINT ( 'NONE',  ( 0.0000000000000000000, 1.592040838891568000E-015, -38.00000000000007800 ) ) ;
#381 = AXIS2_PLACEMENT_3D ( 'NONE', #380, #389, #388 ) ;
#382 = DIRECTION ( 'NONE',  ( -0.0000000000000000000, -0.0000000000000000000, 1.000000000000000000 ) ) ;
#383 = VECTOR ( 'NONE', #382, 1000.000000000000000 ) ;
#384 = CARTESIAN_POINT ( 'NONE',  ( 27.25000000000000400, 0.0000000000000000000, -4.336808689942017700E-016 ) ) ;
#385 = LINE ( 'NONE', #384, #383 ) ;
#386 = DIRECTION ( 'NONE',  ( -0.0000000000000000000, 1.331970471275045500E-016, -1.000000000000000000 ) ) ;
#387 = CARTESIAN_POINT ( 'NONE',  ( 0.0000000000000000000, 0.0000000000000000000, 0.0000000000000000000 ) ) ;
#388 = DIRECTION ( 'NONE',  ( 0.0000000000000000000, 1.000000000000000000, 0.0000000000000000000 ) ) ;
#389 = DIRECTION ( 'NONE',  ( -0.0000000000000000000, 1.331970471275045500E-016, -1.000000000000000000 ) ) ;
#390 = CARTESIAN_POINT ( 'NONE',  ( 0.0000000000000000000, -9.956165962774940100E-017, -25.30000000000000400 ) ) ;
#391 = AXIS2_PLACEMENT_3D ( 'NONE', #390, #399, #398 ) ;
#392 = CIRCLE ( 'NONE', #391, 24.39999999999999100 ) ;
#393 = DIRECTION ( 'NONE',  ( 1.000000000000000000, 0.0000000000000000000, 0.0000000000000000000 ) ) ;
#394 = DIRECTION ( 'NONE',  ( -0.0000000000000000000, -0.0000000000000000000, 1.000000000000000000 ) ) ;
#395 = AXIS2_PLACEMENT_3D ( 'NONE', #387, #394, #393 ) ;
#396 = CIRCLE ( 'NONE', #395, 27.25000000000000000 ) ;
#397 = CARTESIAN_POINT ( 'NONE',  ( 0.0000000000000000000, -9.956165962774940100E-017, -25.30000000000000400 ) ) ;
#398 = DIRECTION ( 'NONE',  ( 0.0000000000000000000, 1.000000000000000000, 1.421904488505580100E-016 ) ) ;
#399 = DIRECTION ( 'NONE',  ( -0.0000000000000000000, 1.331970471275045500E-016, -1.000000000000000000 ) ) ;
#400 = CIRCLE ( 'NONE', #376, 24.39999999999999500 ) ;
#401 = DIRECTION ( 'NONE',  ( -0.0000000000000000000, 1.331970471275045500E-016, -1.000000000000000000 ) ) ;
#402 = VECTOR ( 'NONE', #401, 1000.000000000000000 ) ;
#403 = CARTESIAN_POINT ( 'NONE',  ( 0.0000000000000000000, 24.39999999999999500, -38.00000000000007800 ) ) ;
#404 = DIRECTION ( 'NONE',  ( 0.0000000000000000000, 1.000000000000000000, 1.421904488505580100E-016 ) ) ;
#405 = DIRECTION ( 'NONE',  ( -0.0000000000000000000, 1.331970471275045500E-016, -1.000000000000000000 ) ) ;
#406 = AXIS2_PLACEMENT_3D ( 'NONE', #397, #405, #404 ) ;
#407 = CIRCLE ( 'NONE', #406, 24.39999999999999100 ) ;
#408 = LINE ( 'NONE', #403, #402 ) ;
#409 = DIRECTION ( 'NONE',  ( 0.0000000000000000000, 1.000000000000000000, 1.421904488505579900E-016 ) ) ;
ENDSEC;
END-ISO-10303-21;
