ISO-10303-21;
HEADER;
/****************************************************************
 * Generated by software with PDE/Lib inside                    *
 * PDElib Version v51a, created Thu 12/14/2006                  *
 * International Technegroup Inc. (www.iti-oh.com)              *
 ****************************************************************/
FILE_DESCRIPTION((''),'2;1');
FILE_NAME('T:\\Arbeitspl\S\dtze\\Aushilfe\\KPeters\\3D\\Steps 08_10\\10126\\10126032X000.stp','2010-09-03T09:01:48',('thilbrands'),(''),'Autodesk Inventor 2008','Autodesk Inventor 2008','');
FILE_SCHEMA(('AUTOMOTIVE_DESIGN { 1 0 10303 214 1 1 1 1 }'));
ENDSEC;
DATA;
#5=APPLICATION_CONTEXT('automotive design');
#6=APPLICATION_PROTOCOL_DEFINITION('International Standard','automotive_design',2001,#5);
#7=PRODUCT_CONTEXT('',#5,'mechanical');
#8=PRODUCT('10126032X300','10126032X300',$,(#7));
#9=PRODUCT_RELATED_PRODUCT_CATEGORY('part',$,(#8));
#10=PRODUCT_DEFINITION_FORMATION('',$,#8);
#11=PRODUCT_DEFINITION_CONTEXT('part definition',#5,'design');
#12=PRODUCT_DEFINITION('',$,#10,#11);
#18=(NAMED_UNIT(*)PLANE_ANGLE_UNIT()SI_UNIT($,.RADIAN.));
#19=DIMENSIONAL_EXPONENTS(0.0,0.0,0.0,0.0,0.0,0.0,0.0);
#20=PLANE_ANGLE_MEASURE_WITH_UNIT(PLANE_ANGLE_MEASURE(0.017453292500000),#18);
#24=(CONVERSION_BASED_UNIT('DEGREE',#20)NAMED_UNIT(#19)PLANE_ANGLE_UNIT());
#28=(NAMED_UNIT(*)SI_UNIT($,.STERADIAN.)SOLID_ANGLE_UNIT());
#32=(LENGTH_UNIT()NAMED_UNIT(*)SI_UNIT(.MILLI.,.METRE.));
#34=UNCERTAINTY_MEASURE_WITH_UNIT(LENGTH_MEASURE(0.010000000000000),#32,'DISTANCE_ACCURACY_VALUE','');
#36=(GEOMETRIC_REPRESENTATION_CONTEXT(3)GLOBAL_UNCERTAINTY_ASSIGNED_CONTEXT((#34))GLOBAL_UNIT_ASSIGNED_CONTEXT((#24,#28,#32))REPRESENTATION_CONTEXT('None','None'));
#37=AXIS2_PLACEMENT_3D('',#38,#39,#40);
#38=CARTESIAN_POINT('',(0.0,0.0,0.0));
#39=DIRECTION('',(0.0,0.0,1.0));
#40=DIRECTION('',(1.0,0.0,0.0));
#41=SHAPE_REPRESENTATION('',(#37),#36);
#42=PRODUCT_DEFINITION_SHAPE('','',#12);
#43=SHAPE_DEFINITION_REPRESENTATION(#42,#41);
#49=(NAMED_UNIT(*)PLANE_ANGLE_UNIT()SI_UNIT($,.RADIAN.));
#50=DIMENSIONAL_EXPONENTS(0.0,0.0,0.0,0.0,0.0,0.0,0.0);
#51=PLANE_ANGLE_MEASURE_WITH_UNIT(PLANE_ANGLE_MEASURE(0.017453292500000),#49);
#55=(CONVERSION_BASED_UNIT('DEGREE',#51)NAMED_UNIT(#50)PLANE_ANGLE_UNIT());
#59=(NAMED_UNIT(*)SI_UNIT($,.STERADIAN.)SOLID_ANGLE_UNIT());
#63=(LENGTH_UNIT()NAMED_UNIT(*)SI_UNIT(.MILLI.,.METRE.));
#65=UNCERTAINTY_MEASURE_WITH_UNIT(LENGTH_MEASURE(0.000001000000000),#63,'DISTANCE_ACCURACY_VALUE','');
#67=(GEOMETRIC_REPRESENTATION_CONTEXT(3)GLOBAL_UNCERTAINTY_ASSIGNED_CONTEXT((#65))GLOBAL_UNIT_ASSIGNED_CONTEXT((#55,#59,#63))REPRESENTATION_CONTEXT('','3D'));
#68=CARTESIAN_POINT('',(3.392999999999988,8.408000498206558,0.0));
#69=DIRECTION('',(-1.0,0.0,0.0));
#70=DIRECTION('',(0.0,0.0,1.0));
#71=AXIS2_PLACEMENT_3D('',#68,#69,#70);
#72=PLANE('',#71);
#73=CARTESIAN_POINT('',(3.392999999999997,16.816000996413116,0.0));
#74=VERTEX_POINT('',#73);
#75=CARTESIAN_POINT('',(3.392999999999995,-2.001744E-016,0.0));
#76=DIRECTION('',(1.0,0.0,0.0));
#77=DIRECTION('',(0.0,1.0,0.0));
#78=AXIS2_PLACEMENT_3D('',#75,#76,#77);
#79=CIRCLE('',#78,16.816000996413116);
#80=EDGE_CURVE('',#74,#74,#79,.T.);
#81=ORIENTED_EDGE('',*,*,#80,.F.);
#82=EDGE_LOOP('',(#81));
#83=FACE_OUTER_BOUND('',#82,.T.);
#84=ADVANCED_FACE('',(#83),#72,.T.);
#85=CARTESIAN_POINT('',(4.392999999999995,0.0,0.0));
#86=DIRECTION('',(1.0,-5.899628E-017,0.0));
#87=DIRECTION('',(0.0,0.0,-1.0));
#88=AXIS2_PLACEMENT_3D('',#85,#86,#87);
#89=TOROIDAL_SURFACE('',#88,16.816000996413116,1.000000000000000);
#90=CARTESIAN_POINT('',(3.706623188405794,17.543247084409312,0.0));
#91=VERTEX_POINT('',#90);
#92=CARTESIAN_POINT('',(3.706623188405793,-2.186770E-016,0.0));
#93=DIRECTION('',(1.0,0.0,0.0));
#94=DIRECTION('',(0.0,1.0,0.0));
#95=AXIS2_PLACEMENT_3D('',#92,#93,#94);
#96=CIRCLE('',#95,17.543247084409312);
#97=EDGE_CURVE('',#91,#91,#96,.T.);
#98=ORIENTED_EDGE('',*,*,#97,.F.);
#99=EDGE_LOOP('',(#98));
#100=FACE_OUTER_BOUND('',#99,.T.);
#101=ORIENTED_EDGE('',*,*,#80,.T.);
#102=EDGE_LOOP('',(#101));
#103=FACE_BOUND('',#102,.T.);
#104=ADVANCED_FACE('',(#100,#103),#89,.T.);
#105=CARTESIAN_POINT('',(0.758474576271181,-2.548661E-015,21.422239459634632));
#106=CARTESIAN_POINT('',(2.541847397816227,-2.785761E-015,22.499220444375062));
#107=CARTESIAN_POINT('',(3.891435410783835,-2.671023E-015,20.912110222187533));
#108=CARTESIAN_POINT('',(5.241023423751445,-2.556285E-015,19.325000000000003));
#109=CARTESIAN_POINT('',(3.891435410783836,-2.282306E-015,17.737889777812473));
#110=CARTESIAN_POINT('',(2.541847397816229,-2.008327E-015,16.150779555624943));
#111=CARTESIAN_POINT('',(0.758474576271181,-2.035002E-015,17.227760540365374));
#112=CARTESIAN_POINT('',(0.758474576271179,-21.422239459634632,21.422239459634625));
#113=CARTESIAN_POINT('',(2.541847397816226,-22.499220444375062,22.499220444375055));
#114=CARTESIAN_POINT('',(3.891435410783834,-20.912110222187533,20.912110222187525));
#115=CARTESIAN_POINT('',(5.241023423751444,-19.325000000000003,19.324999999999996));
#116=CARTESIAN_POINT('',(3.891435410783835,-17.737889777812473,17.737889777812466));
#117=CARTESIAN_POINT('',(2.541847397816228,-16.150779555624943,16.150779555624936));
#118=CARTESIAN_POINT('',(0.758474576271180,-17.227760540365374,17.227760540365367));
#119=CARTESIAN_POINT('',(0.758474576271179,-21.422239459634632,-2.623381E-015));
#120=CARTESIAN_POINT('',(2.541847397816226,-22.499220444375062,-2.755269E-015));
#121=CARTESIAN_POINT('',(3.891435410783834,-20.912110222187533,-2.560910E-015));
#122=CARTESIAN_POINT('',(5.241023423751444,-19.325000000000003,-2.366552E-015));
#123=CARTESIAN_POINT('',(3.891435410783835,-17.737889777812473,-2.172193E-015));
#124=CARTESIAN_POINT('',(2.541847397816228,-16.150779555624943,-1.977835E-015));
#125=CARTESIAN_POINT('',(0.758474576271180,-17.227760540365374,-2.109723E-015));
#126=CARTESIAN_POINT('',(0.758474576271179,-21.422239459634625,-21.422239459634632));
#127=CARTESIAN_POINT('',(2.541847397816226,-22.499220444375055,-22.499220444375062));
#128=CARTESIAN_POINT('',(3.891435410783834,-20.912110222187525,-20.912110222187533));
#129=CARTESIAN_POINT('',(5.241023423751444,-19.324999999999996,-19.325000000000003));
#130=CARTESIAN_POINT('',(3.891435410783835,-17.737889777812466,-17.737889777812473));
#131=CARTESIAN_POINT('',(2.541847397816228,-16.150779555624936,-16.150779555624943));
#132=CARTESIAN_POINT('',(0.758474576271180,-17.227760540365367,-17.227760540365374));
#133=CARTESIAN_POINT('',(0.758474576271181,2.698101E-015,-21.422239459634632));
#134=CARTESIAN_POINT('',(2.541847397816227,2.724777E-015,-22.499220444375062));
#135=CARTESIAN_POINT('',(3.891435410783835,2.450798E-015,-20.912110222187533));
#136=CARTESIAN_POINT('',(5.241023423751445,2.176818E-015,-19.325000000000003));
#137=CARTESIAN_POINT('',(3.891435410783836,2.062080E-015,-17.737889777812473));
#138=CARTESIAN_POINT('',(2.541847397816229,1.947343E-015,-16.150779555624943));
#139=CARTESIAN_POINT('',(0.758474576271181,2.184443E-015,-17.227760540365374));
#140=CARTESIAN_POINT('',(0.758474576271182,21.422239459634632,-21.422239459634625));
#141=CARTESIAN_POINT('',(2.541847397816228,22.499220444375062,-22.499220444375055));
#142=CARTESIAN_POINT('',(3.891435410783836,20.912110222187533,-20.912110222187525));
#143=CARTESIAN_POINT('',(5.241023423751446,19.325000000000003,-19.324999999999996));
#144=CARTESIAN_POINT('',(3.891435410783836,17.737889777812473,-17.737889777812466));
#145=CARTESIAN_POINT('',(2.541847397816230,16.150779555624943,-16.150779555624936));
#146=CARTESIAN_POINT('',(0.758474576271182,17.227760540365374,-17.227760540365367));
#147=CARTESIAN_POINT('',(0.758474576271182,21.422239459634632,2.623381E-015));
#148=CARTESIAN_POINT('',(2.541847397816228,22.499220444375062,2.755269E-015));
#149=CARTESIAN_POINT('',(3.891435410783837,20.912110222187533,2.560910E-015));
#150=CARTESIAN_POINT('',(5.241023423751446,19.325000000000003,2.366552E-015));
#151=CARTESIAN_POINT('',(3.891435410783837,17.737889777812473,2.172193E-015));
#152=CARTESIAN_POINT('',(2.541847397816230,16.150779555624943,1.977835E-015));
#153=CARTESIAN_POINT('',(0.758474576271182,17.227760540365374,2.109723E-015));
#154=CARTESIAN_POINT('',(0.758474576271182,21.422239459634625,21.422239459634632));
#155=CARTESIAN_POINT('',(2.541847397816228,22.499220444375055,22.499220444375062));
#156=CARTESIAN_POINT('',(3.891435410783836,20.912110222187525,20.912110222187533));
#157=CARTESIAN_POINT('',(5.241023423751446,19.324999999999996,19.325000000000003));
#158=CARTESIAN_POINT('',(3.891435410783836,17.737889777812466,17.737889777812473));
#159=CARTESIAN_POINT('',(2.541847397816230,16.150779555624936,16.150779555624943));
#160=CARTESIAN_POINT('',(0.758474576271182,17.227760540365367,17.227760540365374));
#161=CARTESIAN_POINT('',(0.758474576271181,-2.548661E-015,21.422239459634632));
#162=CARTESIAN_POINT('',(2.541847397816227,-2.785761E-015,22.499220444375062));
#163=CARTESIAN_POINT('',(3.891435410783835,-2.671023E-015,20.912110222187533));
#164=CARTESIAN_POINT('',(5.241023423751445,-2.556285E-015,19.325000000000003));
#165=CARTESIAN_POINT('',(3.891435410783836,-2.282306E-015,17.737889777812473));
#166=CARTESIAN_POINT('',(2.541847397816229,-2.008327E-015,16.150779555624943));
#167=CARTESIAN_POINT('',(0.758474576271181,-2.035002E-015,17.227760540365374));
#175=(BOUNDED_SURFACE()B_SPLINE_SURFACE(2,2,((#105,#112,#119,#126,#133,#140,#147,#154,#161),(#106,#113,#120,#127,#134,#141,#148,#155,#162),(#107,#114,#121,#128,#135,#142,#149,#156,#163),(#108,#115,#122,#129,#136,#143,#150,#157,#164),(#109,#116,#123,#130,#137,#144,#151,#158,#165),(#110,#117,#124,#131,#138,#145,#152,#159,#166),(#111,#118,#125,#132,#139,#146,#153,#160,#167)),.UNSPECIFIED.,.F.,.T.,.U.)B_SPLINE_SURFACE_WITH_KNOTS((3,2,2,3),(3,2,2,2,3),(-0.543283092341542,0.866103187082750,2.275489466507043,3.684875745931335),(0.0,1.570796326794897,3.141592653589793,4.712388980384690,6.283185307179586),.UNSPECIFIED.)GEOMETRIC_REPRESENTATION_ITEM()RATIONAL_B_SPLINE_SURFACE(((1.0,0.707106781186548,1.0,0.707106781186548,1.0,0.707106781186548,1.0,0.707106781186548,1.0),(0.761810371748502,0.538681279841611,0.761810371748502,0.538681279841611,0.761810371748502,0.538681279841611,0.761810371748502,0.538681279841611,0.761810371748502),(1.0,0.707106781186548,1.0,0.707106781186548,1.0,0.707106781186548,1.0,0.707106781186548,1.0),(0.761810371748506,0.538681279841613,0.761810371748506,0.538681279841613,0.761810371748506,0.538681279841613,0.761810371748506,0.538681279841613,0.761810371748506),(1.0,0.707106781186548,1.0,0.707106781186548,1.0,0.707106781186548,1.0,0.707106781186548,1.0),(0.761810371748503,0.538681279841611,0.761810371748503,0.538681279841611,0.761810371748503,0.538681279841611,0.761810371748503,0.538681279841611,0.761810371748503),(1.0,0.707106781186548,1.0,0.707106781186548,1.0,0.707106781186548,1.0,0.707106781186548,1.0)))REPRESENTATION_ITEM('')SURFACE());
#176=CARTESIAN_POINT('',(0.758474576271183,21.422239459634632,0.0));
#177=VERTEX_POINT('',#176);
#178=CARTESIAN_POINT('',(0.758474576271182,-4.474718E-017,0.0));
#179=DIRECTION('',(1.0,0.0,0.0));
#180=DIRECTION('',(0.0,1.0,0.0));
#181=AXIS2_PLACEMENT_3D('',#178,#179,#180);
#182=CIRCLE('',#181,21.422239459634632);
#183=EDGE_CURVE('',#177,#177,#182,.T.);
#184=ORIENTED_EDGE('',*,*,#183,.F.);
#185=EDGE_LOOP('',(#184));
#186=FACE_OUTER_BOUND('',#185,.T.);
#187=ORIENTED_EDGE('',*,*,#97,.T.);
#188=EDGE_LOOP('',(#187));
#189=FACE_BOUND('',#188,.T.);
#190=ADVANCED_FACE('',(#186,#189),#175,.T.);
#191=CARTESIAN_POINT('',(0.499999999999995,0.0,0.0));
#192=DIRECTION('',(1.0,-5.899628E-017,0.0));
#193=DIRECTION('',(0.0,0.0,-1.0));
#194=AXIS2_PLACEMENT_3D('',#191,#192,#193);
#195=TOROIDAL_SURFACE('',#194,21.850247512621294,0.500000000000000);
#196=CARTESIAN_POINT('',(-4.024558E-015,21.850247512621294,0.0));
#197=VERTEX_POINT('',#196);
#198=CARTESIAN_POINT('',(-4.996004E-015,3.081488E-031,0.0));
#199=DIRECTION('',(1.0,0.0,0.0));
#200=DIRECTION('',(0.0,1.0,0.0));
#201=AXIS2_PLACEMENT_3D('',#198,#199,#200);
#202=CIRCLE('',#201,21.850247512621294);
#203=EDGE_CURVE('',#197,#197,#202,.T.);
#204=ORIENTED_EDGE('',*,*,#203,.F.);
#205=EDGE_LOOP('',(#204));
#206=FACE_OUTER_BOUND('',#205,.T.);
#207=ORIENTED_EDGE('',*,*,#183,.T.);
#208=EDGE_LOOP('',(#207));
#209=FACE_BOUND('',#208,.T.);
#210=ADVANCED_FACE('',(#206,#209),#195,.T.);
#211=CARTESIAN_POINT('',(-4.198031E-015,22.690342816884783,0.0));
#212=DIRECTION('',(-1.0,0.0,0.0));
#213=DIRECTION('',(0.0,0.0,1.0));
#214=AXIS2_PLACEMENT_3D('',#211,#212,#213);
#215=PLANE('',#214);
#216=CARTESIAN_POINT('',(-4.371503E-015,23.530438121148272,0.0));
#217=VERTEX_POINT('',#216);
#218=CARTESIAN_POINT('',(-6.106227E-015,3.697785E-031,0.0));
#219=DIRECTION('',(1.0,0.0,0.0));
#220=DIRECTION('',(0.0,1.0,0.0));
#221=AXIS2_PLACEMENT_3D('',#218,#219,#220);
#222=CIRCLE('',#221,23.530438121148272);
#223=EDGE_CURVE('',#217,#217,#222,.T.);
#224=ORIENTED_EDGE('',*,*,#223,.F.);
#225=EDGE_LOOP('',(#224));
#226=FACE_OUTER_BOUND('',#225,.T.);
#227=ORIENTED_EDGE('',*,*,#203,.T.);
#228=EDGE_LOOP('',(#227));
#229=FACE_BOUND('',#228,.T.);
#230=ADVANCED_FACE('',(#226,#229),#215,.T.);
#231=CARTESIAN_POINT('',(0.499999999999994,0.0,0.0));
#232=DIRECTION('',(1.0,-5.899628E-017,0.0));
#233=DIRECTION('',(0.0,0.0,-1.0));
#234=AXIS2_PLACEMENT_3D('',#231,#232,#233);
#235=TOROIDAL_SURFACE('',#234,23.530438121148272,0.500000000000008);
#236=CARTESIAN_POINT('',(0.370590477448735,24.013401034292809,0.0));
#237=VERTEX_POINT('',#236);
#238=CARTESIAN_POINT('',(0.370590477448733,-2.186346E-017,0.0));
#239=DIRECTION('',(1.0,0.0,0.0));
#240=DIRECTION('',(0.0,1.0,0.0));
#241=AXIS2_PLACEMENT_3D('',#238,#239,#240);
#242=CIRCLE('',#241,24.013401034292809);
#243=EDGE_CURVE('',#237,#237,#242,.T.);
#244=ORIENTED_EDGE('',*,*,#243,.F.);
#245=EDGE_LOOP('',(#244));
#246=FACE_OUTER_BOUND('',#245,.T.);
#247=ORIENTED_EDGE('',*,*,#223,.T.);
#248=EDGE_LOOP('',(#247));
#249=FACE_BOUND('',#248,.T.);
#250=ADVANCED_FACE('',(#246,#249),#235,.T.);
#251=CARTESIAN_POINT('',(1.185295238724364,-6.992802E-017,0.0));
#252=DIRECTION('',(1.0,-5.899628E-017,0.0));
#253=DIRECTION('',(0.0,1.0,0.0));
#254=AXIS2_PLACEMENT_3D('',#251,#252,#253);
#255=CONICAL_SURFACE('',#254,24.231700517146404,15.000000000000066);
#256=CARTESIAN_POINT('',(1.999999999999996,24.450000000000003,0.0));
#257=VERTEX_POINT('',#256);
#258=CARTESIAN_POINT('',(1.999999999999994,-1.179926E-016,0.0));
#259=DIRECTION('',(1.0,0.0,0.0));
#260=DIRECTION('',(0.0,1.0,0.0));
#261=AXIS2_PLACEMENT_3D('',#258,#259,#260);
#262=CIRCLE('',#261,24.450000000000003);
#263=EDGE_CURVE('',#257,#257,#262,.T.);
#264=ORIENTED_EDGE('',*,*,#263,.F.);
#265=EDGE_LOOP('',(#264));
#266=FACE_OUTER_BOUND('',#265,.T.);
#267=ORIENTED_EDGE('',*,*,#243,.T.);
#268=EDGE_LOOP('',(#267));
#269=FACE_BOUND('',#268,.T.);
#270=ADVANCED_FACE('',(#266,#269),#255,.T.);
#271=CARTESIAN_POINT('',(5.999999999999995,-3.539777E-016,0.0));
#272=DIRECTION('',(1.0,-5.899628E-017,0.0));
#273=DIRECTION('',(0.0,1.0,0.0));
#274=AXIS2_PLACEMENT_3D('',#271,#272,#273);
#275=CYLINDRICAL_SURFACE('',#274,24.450000000000003);
#276=CARTESIAN_POINT('',(9.999999999999995,24.450000000000003,0.0));
#277=VERTEX_POINT('',#276);
#278=CARTESIAN_POINT('',(9.999999999999993,-5.899628E-016,0.0));
#279=DIRECTION('',(1.0,0.0,0.0));
#280=DIRECTION('',(0.0,1.0,0.0));
#281=AXIS2_PLACEMENT_3D('',#278,#279,#280);
#282=CIRCLE('',#281,24.450000000000003);
#283=EDGE_CURVE('',#277,#277,#282,.T.);
#284=ORIENTED_EDGE('',*,*,#283,.F.);
#285=EDGE_LOOP('',(#284));
#286=FACE_OUTER_BOUND('',#285,.T.);
#287=ORIENTED_EDGE('',*,*,#263,.T.);
#288=EDGE_LOOP('',(#287));
#289=FACE_BOUND('',#288,.T.);
#290=ADVANCED_FACE('',(#286,#289),#275,.T.);
#291=CARTESIAN_POINT('',(9.999999999999996,22.475000000000005,0.0));
#292=DIRECTION('',(1.0,0.0,0.0));
#293=DIRECTION('',(0.0,0.0,-1.0));
#294=AXIS2_PLACEMENT_3D('',#291,#292,#293);
#295=PLANE('',#294);
#296=ORIENTED_EDGE('',*,*,#283,.T.);
#297=EDGE_LOOP('',(#296));
#298=FACE_OUTER_BOUND('',#297,.T.);
#299=CARTESIAN_POINT('',(9.999999999999996,20.500000000000007,0.0));
#300=VERTEX_POINT('',#299);
#301=CARTESIAN_POINT('',(9.999999999999995,-5.899628E-016,0.0));
#302=DIRECTION('',(1.0,0.0,0.0));
#303=DIRECTION('',(0.0,1.0,0.0));
#304=AXIS2_PLACEMENT_3D('',#301,#302,#303);
#305=CIRCLE('',#304,20.500000000000007);
#306=EDGE_CURVE('',#300,#300,#305,.T.);
#307=ORIENTED_EDGE('',*,*,#306,.F.);
#308=EDGE_LOOP('',(#307));
#309=FACE_BOUND('',#308,.T.);
#310=ADVANCED_FACE('',(#298,#309),#295,.T.);
#311=CARTESIAN_POINT('',(11.499999999999995,-6.784573E-016,0.0));
#312=DIRECTION('',(1.0,-5.899628E-017,0.0));
#313=DIRECTION('',(0.0,1.0,0.0));
#314=AXIS2_PLACEMENT_3D('',#311,#312,#313);
#315=CYLINDRICAL_SURFACE('',#314,20.500000000000007);
#316=CARTESIAN_POINT('',(12.999999999999993,20.500000000000007,0.0));
#317=VERTEX_POINT('',#316);
#318=CARTESIAN_POINT('',(12.999999999999993,-7.669517E-016,0.0));
#319=DIRECTION('',(1.0,0.0,0.0));
#320=DIRECTION('',(0.0,1.0,0.0));
#321=AXIS2_PLACEMENT_3D('',#318,#319,#320);
#322=CIRCLE('',#321,20.500000000000007);
#323=EDGE_CURVE('',#317,#317,#322,.T.);
#324=ORIENTED_EDGE('',*,*,#323,.F.);
#325=EDGE_LOOP('',(#324));
#326=FACE_OUTER_BOUND('',#325,.T.);
#327=ORIENTED_EDGE('',*,*,#306,.T.);
#328=EDGE_LOOP('',(#327));
#329=FACE_BOUND('',#328,.T.);
#330=ADVANCED_FACE('',(#326,#329),#315,.T.);
#331=CARTESIAN_POINT('',(12.999999999999993,10.250000000000004,0.0));
#332=DIRECTION('',(1.0,0.0,0.0));
#333=DIRECTION('',(0.0,0.0,-1.0));
#334=AXIS2_PLACEMENT_3D('',#331,#332,#333);
#335=PLANE('',#334);
#336=ORIENTED_EDGE('',*,*,#323,.T.);
#337=EDGE_LOOP('',(#336));
#338=FACE_OUTER_BOUND('',#337,.T.);
#339=ADVANCED_FACE('',(#338),#335,.T.);
#340=CLOSED_SHELL('',(#84,#104,#190,#210,#230,#250,#270,#290,#310,#330,#339));
#341=MANIFOLD_SOLID_BREP('',#340);
#342=COLOUR_RGB('Standard',0.752941012382507,0.752941012382507,0.752941012382507);
#343=FILL_AREA_STYLE_COLOUR('Standard',#342);
#344=FILL_AREA_STYLE('Standard',(#343));
#345=SURFACE_STYLE_FILL_AREA(#344);
#346=SURFACE_SIDE_STYLE('Standard',(#345));
#347=SURFACE_STYLE_USAGE(.BOTH.,#346);
#348=PRESENTATION_STYLE_ASSIGNMENT((#347));
#349=STYLED_ITEM('',(#348),#341);
#350=MECHANICAL_DESIGN_GEOMETRIC_PRESENTATION_REPRESENTATION('',(#349),#36);
#351=ADVANCED_BREP_SHAPE_REPRESENTATION('ABSR',(#341),#36);
#352=SHAPE_REPRESENTATION_RELATIONSHIP('SRR','None',#351,#41);
ENDSEC;
END-ISO-10303-21;
