ISO-10303-21;
HEADER;
FILE_DESCRIPTION (( 'STEP AP203' ),
    '1' );
FILE_NAME ('3D_M2060_40-32_174121065.STEP',
    '2024-09-05T10:18:41',
    ( '' ),
    ( '' ),
    'SwSTEP 2.0',
    'SolidWorks 2024',
    '' );
FILE_SCHEMA (( 'CONFIG_CONTROL_DESIGN' ));
ENDSEC;

DATA;
#1 = ADVANCED_BREP_SHAPE_REPRESENTATION ( '3D_M2060_40-32_174121065', ( #238, #115 ), #171 ) ;
#2 = APPROVAL_PERSON_ORGANIZATION ( #63, #53, #67 ) ;
#3 = CONICAL_SURFACE ( 'NONE', #64, 16.00000000000000000, 0.2662520491509253184 ) ;
#4 = ORIENTED_EDGE ( 'NONE', *, *, #232, .F. ) ;
#5 = ORIENTED_EDGE ( 'NONE', *, *, #18, .F. ) ;
#6 = APPROVAL_DATE_TIME ( #183, #66 ) ;
#7 = ORIENTED_EDGE ( 'NONE', *, *, #143, .T. ) ;
#8 = PERSON_AND_ORGANIZATION ( #77, #103 ) ;
#9 = CARTESIAN_POINT ( 'NONE',  ( 10.60532389131183706, 0.000000000000000000, 0.000000000000000000 ) ) ;
#10 = CARTESIAN_POINT ( 'NONE',  ( 11.00000000000000000, 0.000000000000000000, 0.000000000000000000 ) ) ;
#11 = DIRECTION ( 'NONE',  ( 1.000000000000000000, 0.000000000000000000, 0.000000000000000000 ) ) ;
#12 = ORIENTED_EDGE ( 'NONE', *, *, #160, .T. ) ;
#13 = PERSON_AND_ORGANIZATION_ROLE ( 'creator' ) ;
#14 = DIRECTION ( 'NONE',  ( 0.000000000000000000, 0.000000000000000000, -1.000000000000000000 ) ) ;
#15 = CC_DESIGN_APPROVAL ( #16, ( #175 ) ) ;
#16 = APPROVAL ( #148, 'UNSPECIFIED' ) ;
#17 = CIRCLE ( 'NONE', #230, 16.00000000000000000 ) ;
#18 = EDGE_CURVE ( 'NONE', #180, #174, #177, .T. ) ;
#19 = DESIGN_CONTEXT ( 'detailed design', #76, 'design' ) ;
#20 = CLOSED_SHELL ( 'NONE', ( #98, #25, #229, #139, #48, #71 ) ) ;
#21 = DIRECTION ( 'NONE',  ( 1.000000000000000000, 0.000000000000000000, 0.000000000000000000 ) ) ;
#22 = EDGE_LOOP ( 'NONE', ( #223, #38 ) ) ;
#23 = LOCAL_TIME ( 12, 18, 41.00000000000000000, #129 ) ;
#24 = DIRECTION ( 'NONE',  ( 0.000000000000000000, 0.000000000000000000, 1.000000000000000000 ) ) ;
#25 = ADVANCED_FACE ( 'NONE', ( #185 ), #90, .T. ) ;
#26 = ORIENTED_EDGE ( 'NONE', *, *, #211, .T. ) ;
#27 = ORIENTED_EDGE ( 'NONE', *, *, #192, .F. ) ;
#28 = ORIENTED_EDGE ( 'NONE', *, *, #211, .F. ) ;
#29 = PERSON_AND_ORGANIZATION_ROLE ( 'classification_officer' ) ;
#30 = DIRECTION ( 'NONE',  ( 1.000000000000000000, 0.000000000000000000, 0.000000000000000000 ) ) ;
#31 = DIRECTION ( 'NONE',  ( 1.000000000000000000, 0.000000000000000000, 0.000000000000000000 ) ) ;
#32 = LINE ( 'NONE', #132, #54 ) ;
#33 = PRODUCT ( '3D_M2060_40-32_174121065', '3D_M2060_40-32_174121065', '', ( #246 ) ) ;
#34 = CC_DESIGN_PERSON_AND_ORGANIZATION_ASSIGNMENT ( #8, #29, ( #218 ) ) ;
#35 = AXIS2_PLACEMENT_3D ( 'NONE', #152, #30, #172 ) ;
#36 = AXIS2_PLACEMENT_3D ( 'NONE', #89, #82, #225 ) ;
#37 = ORIENTED_EDGE ( 'NONE', *, *, #143, .F. ) ;
#38 = ORIENTED_EDGE ( 'NONE', *, *, #96, .F. ) ;
#39 = EDGE_LOOP ( 'NONE', ( #97, #159, #156, #138 ) ) ;
#40 = DIRECTION ( 'NONE',  ( 0.000000000000000000, 0.000000000000000000, -1.000000000000000000 ) ) ;
#41 = CIRCLE ( 'NONE', #62, 19.00000000000000000 ) ;
#42 = APPLICATION_CONTEXT ( 'configuration controlled 3d designs of mechanical parts and assemblies' ) ;
#43 = PERSON_AND_ORGANIZATION_ROLE ( 'creator' ) ;
#44 = CONICAL_SURFACE ( 'NONE', #88, 14.55285426814340255, 0.2662520491509253184 ) ;
#45 = FACE_OUTER_BOUND ( 'NONE', #78, .T. ) ;
#46 = LINE ( 'NONE', #141, #165 ) ;
#47 = APPROVAL_ROLE ( '' ) ;
#48 = ADVANCED_FACE ( 'NONE', ( #45 ), #3, .T. ) ;
#49 = DIRECTION ( 'NONE',  ( 0.000000000000000000, 0.000000000000000000, 1.000000000000000000 ) ) ;
#50 = PERSON_AND_ORGANIZATION ( #77, #103 ) ;
#51 = DIRECTION ( 'NONE',  ( 1.000000000000000000, 0.000000000000000000, 0.000000000000000000 ) ) ;
#52 = DIRECTION ( 'NONE',  ( 0.000000000000000000, 0.000000000000000000, -1.000000000000000000 ) ) ;
#53 = APPROVAL ( #187, 'UNSPECIFIED' ) ;
#54 = VECTOR ( 'NONE', #169, 1000.000000000000000 ) ;
#55 = AXIS2_PLACEMENT_3D ( 'NONE', #113, #208, #14 ) ;
#56 = CC_DESIGN_PERSON_AND_ORGANIZATION_ASSIGNMENT ( #209, #43, ( #214 ) ) ;
#57 = EDGE_LOOP ( 'NONE', ( #27, #140, #162, #5 ) ) ;
#58 = CARTESIAN_POINT ( 'NONE',  ( 11.00000000000000000, 1.959434878635765131E-15, -16.00000000000000000 ) ) ;
#59 = FACE_OUTER_BOUND ( 'NONE', #39, .T. ) ;
#60 = PRODUCT_RELATED_PRODUCT_CATEGORY ( 'detail', '', ( #33 ) ) ;
#61 = CARTESIAN_POINT ( 'NONE',  ( 0.000000000000000000, 0.000000000000000000, 0.000000000000000000 ) ) ;
#62 = AXIS2_PLACEMENT_3D ( 'NONE', #210, #31, #135 ) ;
#63 = PERSON_AND_ORGANIZATION ( #77, #103 ) ;
#64 = AXIS2_PLACEMENT_3D ( 'NONE', #239, #128, #237 ) ;
#65 = LINE ( 'NONE', #58, #74 ) ;
#66 = APPROVAL ( #146, 'UNSPECIFIED' ) ;
#67 = APPROVAL_ROLE ( '' ) ;
#68 = DIRECTION ( 'NONE',  ( 0.000000000000000000, 0.000000000000000000, 1.000000000000000000 ) ) ;
#69 = APPROVAL_DATE_TIME ( #202, #16 ) ;
#70 = CARTESIAN_POINT ( 'NONE',  ( 0.000000000000000000, 2.136422711359862507E-15, -17.44521532941026720 ) ) ;
#71 = ADVANCED_FACE ( 'NONE', ( #203 ), #233, .F. ) ;
#72 = LOCAL_TIME ( 12, 18, 41.00000000000000000, #126 ) ;
#73 = ORIENTED_EDGE ( 'NONE', *, *, #205, .T. ) ;
#74 = VECTOR ( 'NONE', #147, 1000.000000000000000 ) ;
#75 = CC_DESIGN_PERSON_AND_ORGANIZATION_ASSIGNMENT ( #85, #158, ( #175 ) ) ;
#76 = APPLICATION_CONTEXT ( 'configuration controlled 3d designs of mechanical parts and assemblies' ) ;
#77 = PERSON ( 'UNSPECIFIED', 'UNSPECIFIED', 'UNSPECIFIED', ('UNSPECIFIED'), ('UNSPECIFIED'), ('UNSPECIFIED') ) ;
#78 = EDGE_LOOP ( 'NONE', ( #37, #182, #194, #216 ) ) ;
#79 = UNCERTAINTY_MEASURE_WITH_UNIT (LENGTH_MEASURE( 1.000000000000000082E-05 ), #247, 'distance_accuracy_value', 'NONE');
#80 = PLANE ( 'NONE',  #100 ) ;
#81 = CALENDAR_DATE ( 2024, 5, 9 ) ;
#82 = DIRECTION ( 'NONE',  ( -1.000000000000000000, -0.000000000000000000, -0.000000000000000000 ) ) ;
#83 = DATE_AND_TIME ( #181, #23 ) ;
#84 = CARTESIAN_POINT ( 'NONE',  ( 0.000000000000000000, 0.000000000000000000, 0.000000000000000000 ) ) ;
#85 = PERSON_AND_ORGANIZATION ( #77, #103 ) ;
#86 = CARTESIAN_POINT ( 'NONE',  ( 0.000000000000000000, 3.490243377569956456E-15, -19.00000000000000000 ) ) ;
#87 = DATE_AND_TIME ( #122, #123 ) ;
#88 = AXIS2_PLACEMENT_3D ( 'NONE', #9, #149, #49 ) ;
#89 = CARTESIAN_POINT ( 'NONE',  ( 11.00000000000000000, 0.000000000000000000, 0.000000000000000000 ) ) ;
#90 = CONICAL_SURFACE ( 'NONE', #36, 16.00000000000000000, 0.2662520491509253184 ) ;
#91 = DIRECTION ( 'NONE',  ( -0.9647638212377321887, 3.222258888032611890E-17, -0.2631174057921087384 ) ) ;
#92 = DIRECTION ( 'NONE',  ( 1.000000000000000000, 0.000000000000000000, 0.000000000000000000 ) ) ;
#93 = CC_DESIGN_APPROVAL ( #66, ( #218 ) ) ;
#94 =( NAMED_UNIT ( * ) PLANE_ANGLE_UNIT ( ) SI_UNIT ( $, .RADIAN. ) );
#95 = PRODUCT_DEFINITION_SHAPE ( 'NONE', 'NONE',  #214 ) ;
#96 = EDGE_CURVE ( 'NONE', #99, #215, #155, .T. ) ;
#97 = ORIENTED_EDGE ( 'NONE', *, *, #109, .T. ) ;
#98 = ADVANCED_FACE ( 'NONE', ( #59 ), #44, .F. ) ;
#99 = VERTEX_POINT ( 'NONE', #142 ) ;
#100 = AXIS2_PLACEMENT_3D ( 'NONE', #220, #242, #236 ) ;
#101 = EDGE_LOOP ( 'NONE', ( #4, #117 ) ) ;
#102 = DIRECTION ( 'NONE',  ( 0.000000000000000000, 0.000000000000000000, -1.000000000000000000 ) ) ;
#103 = ORGANIZATION ( 'UNSPECIFIED', 'UNSPECIFIED', '' ) ;
#104 = EDGE_LOOP ( 'NONE', ( #28, #7, #73, #111 ) ) ;
#105 = PERSON_AND_ORGANIZATION ( #77, #103 ) ;
#106 = VERTEX_POINT ( 'NONE', #184 ) ;
#107 = APPROVAL_ROLE ( '' ) ;
#108 = DIRECTION ( 'NONE',  ( 0.000000000000000000, 0.000000000000000000, -1.000000000000000000 ) ) ;
#109 = EDGE_CURVE ( 'NONE', #215, #99, #125, .T. ) ;
#110 = COORDINATED_UNIVERSAL_TIME_OFFSET ( 1, 0, .AHEAD. ) ;
#111 = ORIENTED_EDGE ( 'NONE', *, *, #186, .F. ) ;
#112 = DATE_TIME_ROLE ( 'classification_date' ) ;
#113 = CARTESIAN_POINT ( 'NONE',  ( 11.00000000000000000, 0.000000000000000000, 0.000000000000000000 ) ) ;
#114 = LINE ( 'NONE', #190, #136 ) ;
#115 = AXIS2_PLACEMENT_3D ( 'NONE', #179, #24, #11 ) ;
#116 = CIRCLE ( 'NONE', #35, 19.00000000000000000 ) ;
#117 = ORIENTED_EDGE ( 'NONE', *, *, #205, .F. ) ;
#118 = EDGE_CURVE ( 'NONE', #174, #180, #193, .T. ) ;
#119 = VERTEX_POINT ( 'NONE', #86 ) ;
#120 = ORIENTED_EDGE ( 'NONE', *, *, #18, .T. ) ;
#121 = CARTESIAN_POINT ( 'NONE',  ( 11.00000000000000000, 0.000000000000000000, 0.000000000000000000 ) ) ;
#122 = CALENDAR_DATE ( 2024, 5, 9 ) ;
#123 = LOCAL_TIME ( 12, 18, 41.00000000000000000, #133 ) ;
#124 = FACE_BOUND ( 'NONE', #245, .T. ) ;
#125 = CIRCLE ( 'NONE', #176, 14.44521532941026543 ) ;
#126 = COORDINATED_UNIVERSAL_TIME_OFFSET ( 1, 0, .AHEAD. ) ;
#127 = CC_DESIGN_DATE_AND_TIME_ASSIGNMENT ( #87, #204, ( #214 ) ) ;
#128 = DIRECTION ( 'NONE',  ( -1.000000000000000000, -0.000000000000000000, -0.000000000000000000 ) ) ;
#129 = COORDINATED_UNIVERSAL_TIME_OFFSET ( 1, 0, .AHEAD. ) ;
#130 = DIRECTION ( 'NONE',  ( -0.9647638212377321887, 0.000000000000000000, 0.2631174057921087384 ) ) ;
#131 = CALENDAR_DATE ( 2024, 5, 9 ) ;
#132 = CARTESIAN_POINT ( 'NONE',  ( 11.00000000000000000, 0.000000000000000000, 16.00000000000000000 ) ) ;
#133 = COORDINATED_UNIVERSAL_TIME_OFFSET ( 1, 0, .AHEAD. ) ;
#134 = CARTESIAN_POINT ( 'NONE',  ( 0.000000000000000000, 0.000000000000000000, 17.44521532941026720 ) ) ;
#135 = DIRECTION ( 'NONE',  ( 0.000000000000000000, 0.000000000000000000, -1.000000000000000000 ) ) ;
#136 = VECTOR ( 'NONE', #91, 1000.000000000000000 ) ;
#137 = APPROVAL_PERSON_ORGANIZATION ( #241, #16, #47 ) ;
#138 = ORIENTED_EDGE ( 'NONE', *, *, #153, .F. ) ;
#139 = ADVANCED_FACE ( 'NONE', ( #124, #164 ), #80, .F. ) ;
#140 = ORIENTED_EDGE ( 'NONE', *, *, #96, .T. ) ;
#141 = CARTESIAN_POINT ( 'NONE',  ( 10.60532389131183706, 0.000000000000000000, 14.55285426814340255 ) ) ;
#142 = CARTESIAN_POINT ( 'NONE',  ( 11.00000000000000000, 1.952725691487758996E-15, -14.44521532941026543 ) ) ;
#143 = EDGE_CURVE ( 'NONE', #234, #119, #65, .T. ) ;
#144 = DIRECTION ( 'NONE',  ( 1.000000000000000000, 0.000000000000000000, 0.000000000000000000 ) ) ;
#145 = AXIS2_PLACEMENT_3D ( 'NONE', #157, #197, #68 ) ;
#146 = APPROVAL_STATUS ( 'not_yet_approved' ) ;
#147 = DIRECTION ( 'NONE',  ( -0.9647638212377321887, 3.222258888032611890E-17, -0.2631174057921087384 ) ) ;
#148 = APPROVAL_STATUS ( 'not_yet_approved' ) ;
#149 = DIRECTION ( 'NONE',  ( -1.000000000000000000, -0.000000000000000000, -0.000000000000000000 ) ) ;
#150 =( NAMED_UNIT ( * ) SI_UNIT ( $, .STERADIAN. ) SOLID_ANGLE_UNIT ( ) );
#151 = DIRECTION ( 'NONE',  ( 0.000000000000000000, 0.000000000000000000, -1.000000000000000000 ) ) ;
#152 = CARTESIAN_POINT ( 'NONE',  ( 0.000000000000000000, 0.000000000000000000, 0.000000000000000000 ) ) ;
#153 = EDGE_CURVE ( 'NONE', #215, #174, #46, .T. ) ;
#154 = CC_DESIGN_SECURITY_CLASSIFICATION ( #218, ( #175 ) ) ;
#155 = CIRCLE ( 'NONE', #196, 14.44521532941026543 ) ;
#156 = ORIENTED_EDGE ( 'NONE', *, *, #118, .F. ) ;
#157 = CARTESIAN_POINT ( 'NONE',  ( 10.60532389131183706, 0.000000000000000000, 0.000000000000000000 ) ) ;
#158 = PERSON_AND_ORGANIZATION_ROLE ( 'design_supplier' ) ;
#159 = ORIENTED_EDGE ( 'NONE', *, *, #192, .T. ) ;
#160 = EDGE_CURVE ( 'NONE', #106, #234, #221, .T. ) ;
#161 = PERSON_AND_ORGANIZATION ( #77, #103 ) ;
#162 = ORIENTED_EDGE ( 'NONE', *, *, #153, .T. ) ;
#163 = SHAPE_DEFINITION_REPRESENTATION ( #95, #1 ) ;
#164 = FACE_OUTER_BOUND ( 'NONE', #101, .T. ) ;
#165 = VECTOR ( 'NONE', #130, 1000.000000000000000 ) ;
#166 = APPLICATION_PROTOCOL_DEFINITION ( 'international standard', 'config_control_design', 1994, #42 ) ;
#167 = DIRECTION ( 'NONE',  ( 1.000000000000000000, 0.000000000000000000, 0.000000000000000000 ) ) ;
#168 = AXIS2_PLACEMENT_3D ( 'NONE', #84, #198, #102 ) ;
#169 = DIRECTION ( 'NONE',  ( -0.9647638212377321887, 0.000000000000000000, 0.2631174057921087384 ) ) ;
#170 = CARTESIAN_POINT ( 'NONE',  ( 11.00000000000000000, 0.000000000000000000, 14.44521532941026543 ) ) ;
#171 =( GEOMETRIC_REPRESENTATION_CONTEXT ( 3 ) GLOBAL_UNCERTAINTY_ASSIGNED_CONTEXT ( ( #79 ) ) GLOBAL_UNIT_ASSIGNED_CONTEXT ( ( #247, #94, #150 ) ) REPRESENTATION_CONTEXT ( 'NONE', 'WORKASPACE' ) );
#172 = DIRECTION ( 'NONE',  ( 0.000000000000000000, 0.000000000000000000, -1.000000000000000000 ) ) ;
#173 = CC_DESIGN_PERSON_AND_ORGANIZATION_ASSIGNMENT ( #161, #244, ( #33 ) ) ;
#174 = VERTEX_POINT ( 'NONE', #134 ) ;
#175 = PRODUCT_DEFINITION_FORMATION_WITH_SPECIFIED_SOURCE ( 'ANY', '', #33, .NOT_KNOWN. ) ;
#176 = AXIS2_PLACEMENT_3D ( 'NONE', #10, #21, #40 ) ;
#177 = CIRCLE ( 'NONE', #168, 17.44521532941026720 ) ;
#178 = DIRECTION ( 'NONE',  ( 0.000000000000000000, 0.000000000000000000, -1.000000000000000000 ) ) ;
#179 = CARTESIAN_POINT ( 'NONE',  ( 0.000000000000000000, 0.000000000000000000, 0.000000000000000000 ) ) ;
#180 = VERTEX_POINT ( 'NONE', #70 ) ;
#181 = CALENDAR_DATE ( 2024, 5, 9 ) ;
#182 = ORIENTED_EDGE ( 'NONE', *, *, #160, .F. ) ;
#183 = DATE_AND_TIME ( #81, #199 ) ;
#184 = CARTESIAN_POINT ( 'NONE',  ( 11.00000000000000000, 9.797174393178825657E-16, 16.00000000000000000 ) ) ;
#185 = FACE_OUTER_BOUND ( 'NONE', #104, .T. ) ;
#186 = EDGE_CURVE ( 'NONE', #106, #217, #32, .T. ) ;
#187 = APPROVAL_STATUS ( 'not_yet_approved' ) ;
#188 = FACE_BOUND ( 'NONE', #22, .T. ) ;
#189 = FACE_OUTER_BOUND ( 'NONE', #235, .T. ) ;
#190 = CARTESIAN_POINT ( 'NONE',  ( 10.60532389131183706, 1.782210639793971724E-15, -14.55285426814340255 ) ) ;
#191 = LOCAL_TIME ( 12, 18, 41.00000000000000000, #222 ) ;
#192 = EDGE_CURVE ( 'NONE', #99, #180, #114, .T. ) ;
#193 = CIRCLE ( 'NONE', #213, 17.44521532941026720 ) ;
#194 = ORIENTED_EDGE ( 'NONE', *, *, #186, .T. ) ;
#195 = CC_DESIGN_DATE_AND_TIME_ASSIGNMENT ( #83, #112, ( #218 ) ) ;
#196 = AXIS2_PLACEMENT_3D ( 'NONE', #206, #167, #108 ) ;
#197 = DIRECTION ( 'NONE',  ( -1.000000000000000000, -0.000000000000000000, -0.000000000000000000 ) ) ;
#198 = DIRECTION ( 'NONE',  ( 1.000000000000000000, 0.000000000000000000, 0.000000000000000000 ) ) ;
#199 = LOCAL_TIME ( 12, 18, 41.00000000000000000, #110 ) ;
#200 = APPROVAL_DATE_TIME ( #224, #53 ) ;
#201 = ORIENTED_EDGE ( 'NONE', *, *, #118, .T. ) ;
#202 = DATE_AND_TIME ( #226, #72 ) ;
#203 = FACE_OUTER_BOUND ( 'NONE', #57, .T. ) ;
#204 = DATE_TIME_ROLE ( 'creation_date' ) ;
#205 = EDGE_CURVE ( 'NONE', #119, #217, #116, .T. ) ;
#206 = CARTESIAN_POINT ( 'NONE',  ( 11.00000000000000000, 0.000000000000000000, 0.000000000000000000 ) ) ;
#207 = SECURITY_CLASSIFICATION_LEVEL ( 'unclassified' ) ;
#208 = DIRECTION ( 'NONE',  ( 1.000000000000000000, 0.000000000000000000, 0.000000000000000000 ) ) ;
#209 = PERSON_AND_ORGANIZATION ( #77, #103 ) ;
#210 = CARTESIAN_POINT ( 'NONE',  ( 0.000000000000000000, 0.000000000000000000, 0.000000000000000000 ) ) ;
#211 = EDGE_CURVE ( 'NONE', #234, #106, #17, .T. ) ;
#212 = CARTESIAN_POINT ( 'NONE',  ( 11.00000000000000000, 9.797174393178825657E-16, -16.00000000000000000 ) ) ;
#213 = AXIS2_PLACEMENT_3D ( 'NONE', #61, #144, #178 ) ;
#214 = PRODUCT_DEFINITION ( 'UNKNOWN', '', #175, #19 ) ;
#215 = VERTEX_POINT ( 'NONE', #170 ) ;
#216 = ORIENTED_EDGE ( 'NONE', *, *, #232, .T. ) ;
#217 = VERTEX_POINT ( 'NONE', #228 ) ;
#218 = SECURITY_CLASSIFICATION ( '', '', #207 ) ;
#219 = APPLICATION_PROTOCOL_DEFINITION ( 'international standard', 'config_control_design', 1994, #76 ) ;
#220 = CARTESIAN_POINT ( 'NONE',  ( 0.000000000000000000, 0.000000000000000000, 0.000000000000000000 ) ) ;
#221 = CIRCLE ( 'NONE', #243, 16.00000000000000000 ) ;
#222 = COORDINATED_UNIVERSAL_TIME_OFFSET ( 1, 0, .AHEAD. ) ;
#223 = ORIENTED_EDGE ( 'NONE', *, *, #109, .F. ) ;
#224 = DATE_AND_TIME ( #131, #191 ) ;
#225 = DIRECTION ( 'NONE',  ( 0.000000000000000000, 0.000000000000000000, 1.000000000000000000 ) ) ;
#226 = CALENDAR_DATE ( 2024, 5, 9 ) ;
#227 = CARTESIAN_POINT ( 'NONE',  ( 11.00000000000000000, 0.000000000000000000, 0.000000000000000000 ) ) ;
#228 = CARTESIAN_POINT ( 'NONE',  ( 0.000000000000000000, -1.163414459189985485E-15, 19.00000000000000000 ) ) ;
#229 = ADVANCED_FACE ( 'NONE', ( #188, #189 ), #249, .T. ) ;
#230 = AXIS2_PLACEMENT_3D ( 'NONE', #227, #51, #52 ) ;
#231 = APPROVAL_PERSON_ORGANIZATION ( #50, #66, #107 ) ;
#232 = EDGE_CURVE ( 'NONE', #217, #119, #41, .T. ) ;
#233 = CONICAL_SURFACE ( 'NONE', #145, 14.55285426814340255, 0.2662520491509253184 ) ;
#234 = VERTEX_POINT ( 'NONE', #212 ) ;
#235 = EDGE_LOOP ( 'NONE', ( #12, #26 ) ) ;
#236 = DIRECTION ( 'NONE',  ( 0.000000000000000000, 0.000000000000000000, -1.000000000000000000 ) ) ;
#237 = DIRECTION ( 'NONE',  ( 0.000000000000000000, 0.000000000000000000, 1.000000000000000000 ) ) ;
#238 = MANIFOLD_SOLID_BREP ( 'Wandung2', #20 ) ;
#239 = CARTESIAN_POINT ( 'NONE',  ( 11.00000000000000000, 0.000000000000000000, 0.000000000000000000 ) ) ;
#240 = CC_DESIGN_PERSON_AND_ORGANIZATION_ASSIGNMENT ( #105, #13, ( #175 ) ) ;
#241 = PERSON_AND_ORGANIZATION ( #77, #103 ) ;
#242 = DIRECTION ( 'NONE',  ( 1.000000000000000000, 0.000000000000000000, 0.000000000000000000 ) ) ;
#243 = AXIS2_PLACEMENT_3D ( 'NONE', #121, #92, #151 ) ;
#244 = PERSON_AND_ORGANIZATION_ROLE ( 'design_owner' ) ;
#245 = EDGE_LOOP ( 'NONE', ( #201, #120 ) ) ;
#246 = MECHANICAL_CONTEXT ( 'NONE', #42, 'mechanical' ) ;
#247 =( LENGTH_UNIT ( ) NAMED_UNIT ( * ) SI_UNIT ( .MILLI., .METRE. ) );
#248 = CC_DESIGN_APPROVAL ( #53, ( #214 ) ) ;
#249 = PLANE ( 'NONE',  #55 ) ;
ENDSEC;
END-ISO-10303-21;
