ISO-10303-21;
HEADER;
FILE_DESCRIPTION (( 'STEP AP203' ),
    '1' );
FILE_NAME ('3D_R1620_33.7x2_173630110_173631100.STEP',
    '2024-08-27T11:04:42',
    ( '' ),
    ( '' ),
    'SwSTEP 2.0',
    'SolidWorks 2024',
    '' );
FILE_SCHEMA (( 'CONFIG_CONTROL_DESIGN' ));
ENDSEC;

DATA;
#1 = ORIENTED_EDGE ( 'NONE', *, *, #49, .F. ) ;
#2 = PERSON ( 'UNSPECIFIED', 'UNSPECIFIED', 'UNSPECIFIED', ('UNSPECIFIED'), ('UNSPECIFIED'), ('UNSPECIFIED') ) ;
#3 = DATE_AND_TIME ( #63, #65 ) ;
#4 = AXIS2_PLACEMENT_3D ( 'NONE', #78, #246, #150 ) ;
#5 = ORIENTED_EDGE ( 'NONE', *, *, #234, .F. ) ;
#6 = CALENDAR_DATE ( 2024, 27, 8 ) ;
#7 = TOROIDAL_SURFACE ( 'NONE', #214, 28.00000000000000000, 14.84999999999999964 ) ;
#8 = EDGE_LOOP ( 'NONE', ( #136, #195, #203, #115 ) ) ;
#9 = FACE_OUTER_BOUND ( 'NONE', #26, .T. ) ;
#10 = DIRECTION ( 'NONE',  ( -1.908867422086748770E-16, 0.000000000000000000, 1.000000000000000000 ) ) ;
#11 = AXIS2_PLACEMENT_3D ( 'NONE', #91, #35, #57 ) ;
#12 = ORIENTED_EDGE ( 'NONE', *, *, #222, .T. ) ;
#13 = ADVANCED_BREP_SHAPE_REPRESENTATION ( '3D_R1620_33.7x2_173630110_173631100', ( #190, #4 ), #167 ) ;
#14 = CARTESIAN_POINT ( 'NONE',  ( -28.00000000000000000, 0.000000000000000000, -5.143516556418896733E-15 ) ) ;
#15 = CARTESIAN_POINT ( 'NONE',  ( -1.338081197168800906E-13, 0.000000000000000000, -44.85000000000000142 ) ) ;
#16 = ORGANIZATION ( 'UNSPECIFIED', 'UNSPECIFIED', '' ) ;
#17 = APPROVAL_DATE_TIME ( #208, #199 ) ;
#18 = PERSON_AND_ORGANIZATION ( #2, #16 ) ;
#19 = CC_DESIGN_APPROVAL ( #134, ( #138 ) ) ;
#20 = CC_DESIGN_PERSON_AND_ORGANIZATION_ASSIGNMENT ( #114, #137, ( #96 ) ) ;
#21 = ORIENTED_EDGE ( 'NONE', *, *, #61, .F. ) ;
#22 = AXIS2_PLACEMENT_3D ( 'NONE', #170, #58, #131 ) ;
#23 = DATE_AND_TIME ( #6, #30 ) ;
#24 = COORDINATED_UNIVERSAL_TIME_OFFSET ( 1, 0, .AHEAD. ) ;
#25 = CIRCLE ( 'NONE', #128, 14.84999999999999964 ) ;
#26 = EDGE_LOOP ( 'NONE', ( #83, #56 ) ) ;
#27 = ORIENTED_EDGE ( 'NONE', *, *, #49, .T. ) ;
#28 = CARTESIAN_POINT ( 'NONE',  ( -8.361247409299968862E-14, 0.000000000000000000, -28.00000000000000000 ) ) ;
#29 = EDGE_CURVE ( 'NONE', #196, #198, #106, .T. ) ;
#30 = LOCAL_TIME ( 13, 4, 42.00000000000000000, #230 ) ;
#31 = DIRECTION ( 'NONE',  ( 2.978970066699131799E-15, 0.000000000000000000, 1.000000000000000000 ) ) ;
#32 = DIRECTION ( 'NONE',  ( 2.978970066699131799E-15, 0.000000000000000000, 1.000000000000000000 ) ) ;
#33 = CC_DESIGN_PERSON_AND_ORGANIZATION_ASSIGNMENT ( #173, #151, ( #138 ) ) ;
#34 = DIRECTION ( 'NONE',  ( 0.000000000000000000, 0.000000000000000000, 1.000000000000000000 ) ) ;
#35 = DIRECTION ( 'NONE',  ( 0.000000000000000000, 1.000000000000000000, 0.000000000000000000 ) ) ;
#36 = TOROIDAL_SURFACE ( 'NONE', #247, 28.00000000000000000, 16.85000000000000142 ) ;
#37 = DIRECTION ( 'NONE',  ( -1.908867422086748770E-16, 0.000000000000000000, 1.000000000000000000 ) ) ;
#38 = PERSON_AND_ORGANIZATION ( #2, #16 ) ;
#39 = ADVANCED_FACE ( 'NONE', ( #101, #85 ), #142, .F. ) ;
#40 = DATE_AND_TIME ( #116, #70 ) ;
#41 = TOROIDAL_SURFACE ( 'NONE', #129, 28.00000000000000000, 14.84999999999999964 ) ;
#42 = APPROVAL_DATE_TIME ( #156, #67 ) ;
#43 = PRODUCT ( '3D_R1620_33.7x2_173630110_173631100', '3D_R1620_33.7x2_173630110_173631100', '', ( #226 ) ) ;
#44 = VERTEX_POINT ( 'NONE', #54 ) ;
#45 = COORDINATED_UNIVERSAL_TIME_OFFSET ( 1, 0, .AHEAD. ) ;
#46 = EDGE_LOOP ( 'NONE', ( #180, #64 ) ) ;
#47 = AXIS2_PLACEMENT_3D ( 'NONE', #184, #219, #204 ) ;
#48 = DATE_TIME_ROLE ( 'classification_date' ) ;
#49 = EDGE_CURVE ( 'NONE', #220, #179, #241, .T. ) ;
#50 = DIRECTION ( 'NONE',  ( 0.000000000000000000, 1.000000000000000000, 0.000000000000000000 ) ) ;
#51 = AXIS2_PLACEMENT_3D ( 'NONE', #100, #244, #102 ) ;
#52 = CARTESIAN_POINT ( 'NONE',  ( -8.341116186757569984E-14, 0.000000000000000000, -28.00000000000000000 ) ) ;
#53 = DIRECTION ( 'NONE',  ( -1.908867422086748770E-16, 0.000000000000000000, 1.000000000000000000 ) ) ;
#54 = CARTESIAN_POINT ( 'NONE',  ( -11.15000000000000036, 0.000000000000000000, -1.927074950202724897E-15 ) ) ;
#55 = CIRCLE ( 'NONE', #227, 14.84999999999999964 ) ;
#56 = ORIENTED_EDGE ( 'NONE', *, *, #234, .T. ) ;
#57 = DIRECTION ( 'NONE',  ( 0.000000000000000000, 0.000000000000000000, 1.000000000000000000 ) ) ;
#58 = DIRECTION ( 'NONE',  ( 0.000000000000000000, 1.000000000000000000, 0.000000000000000000 ) ) ;
#59 = CIRCLE ( 'NONE', #11, 11.15000000000000036 ) ;
#60 = FACE_OUTER_BOUND ( 'NONE', #172, .T. ) ;
#61 = EDGE_CURVE ( 'NONE', #126, #220, #232, .T. ) ;
#62 = APPROVAL_ROLE ( '' ) ;
#63 = CALENDAR_DATE ( 2024, 27, 8 ) ;
#64 = ORIENTED_EDGE ( 'NONE', *, *, #163, .T. ) ;
#65 = LOCAL_TIME ( 13, 4, 42.00000000000000000, #45 ) ;
#66 = EDGE_LOOP ( 'NONE', ( #157, #73 ) ) ;
#67 = APPROVAL ( #233, 'UNSPECIFIED' ) ;
#68 = FACE_OUTER_BOUND ( 'NONE', #8, .T. ) ;
#69 = DIRECTION ( 'NONE',  ( 0.000000000000000000, 0.000000000000000000, 1.000000000000000000 ) ) ;
#70 = LOCAL_TIME ( 13, 4, 42.00000000000000000, #24 ) ;
#71 = CARTESIAN_POINT ( 'NONE',  ( -28.00000000000000000, 0.000000000000000000, -5.143516556418896733E-15 ) ) ;
#72 = CARTESIAN_POINT ( 'NONE',  ( 0.000000000000000000, 0.000000000000000000, 0.000000000000000000 ) ) ;
#73 = ORIENTED_EDGE ( 'NONE', *, *, #140, .F. ) ;
#74 = CLOSED_SHELL ( 'NONE', ( #191, #231, #237, #125, #39, #166 ) ) ;
#75 = COORDINATED_UNIVERSAL_TIME_OFFSET ( 1, 0, .AHEAD. ) ;
#76 = CARTESIAN_POINT ( 'NONE',  ( 0.000000000000000000, 0.000000000000000000, 0.000000000000000000 ) ) ;
#77 = EDGE_CURVE ( 'NONE', #174, #198, #55, .T. ) ;
#78 = CARTESIAN_POINT ( 'NONE',  ( 0.000000000000000000, 0.000000000000000000, 0.000000000000000000 ) ) ;
#79 = AXIS2_PLACEMENT_3D ( 'NONE', #28, #141, #31 ) ;
#80 = CC_DESIGN_DATE_AND_TIME_ASSIGNMENT ( #40, #110, ( #245 ) ) ;
#81 = AXIS2_PLACEMENT_3D ( 'NONE', #76, #209, #225 ) ;
#82 = ORIENTED_EDGE ( 'NONE', *, *, #222, .F. ) ;
#83 = ORIENTED_EDGE ( 'NONE', *, *, #159, .T. ) ;
#84 = AXIS2_PLACEMENT_3D ( 'NONE', #236, #182, #86 ) ;
#85 = FACE_OUTER_BOUND ( 'NONE', #242, .T. ) ;
#86 = DIRECTION ( 'NONE',  ( 1.000000000000000000, 0.000000000000000000, 1.908867422086749017E-16 ) ) ;
#87 = DIRECTION ( 'NONE',  ( 0.000000000000000000, 1.000000000000000000, 0.000000000000000000 ) ) ;
#88 = LOCAL_TIME ( 13, 4, 42.00000000000000000, #155 ) ;
#89 = CARTESIAN_POINT ( 'NONE',  ( 0.000000000000000000, 0.000000000000000000, 0.000000000000000000 ) ) ;
#90 = CARTESIAN_POINT ( 'NONE',  ( -8.361247409299968862E-14, 0.000000000000000000, -28.00000000000000000 ) ) ;
#91 = CARTESIAN_POINT ( 'NONE',  ( 0.000000000000000000, -2.063529856563290244E-15, 0.000000000000000000 ) ) ;
#92 = CC_DESIGN_PERSON_AND_ORGANIZATION_ASSIGNMENT ( #146, #149, ( #43 ) ) ;
#93 = PERSON_AND_ORGANIZATION_ROLE ( 'creator' ) ;
#94 = PRODUCT_DEFINITION_SHAPE ( 'NONE', 'NONE',  #245 ) ;
#95 = ORIENTED_EDGE ( 'NONE', *, *, #127, .T. ) ;
#96 = PRODUCT_DEFINITION_FORMATION_WITH_SPECIFIED_SOURCE ( 'ANY', '', #43, .NOT_KNOWN. ) ;
#97 = APPROVAL_ROLE ( '' ) ;
#98 = VERTEX_POINT ( 'NONE', #158 ) ;
#99 = CIRCLE ( 'NONE', #47, 14.84999999999999964 ) ;
#100 = CARTESIAN_POINT ( 'NONE',  ( 0.000000000000000000, 0.000000000000000000, 0.000000000000000000 ) ) ;
#101 = FACE_BOUND ( 'NONE', #46, .T. ) ;
#102 = DIRECTION ( 'NONE',  ( 0.000000000000000000, 0.000000000000000000, 1.000000000000000000 ) ) ;
#103 = FACE_BOUND ( 'NONE', #66, .T. ) ;
#104 = CC_DESIGN_PERSON_AND_ORGANIZATION_ASSIGNMENT ( #18, #93, ( #245 ) ) ;
#105 = CARTESIAN_POINT ( 'NONE',  ( 0.000000000000000000, 0.000000000000000000, 0.000000000000000000 ) ) ;
#106 = CIRCLE ( 'NONE', #181, 42.85000000000000142 ) ;
#107 =( NAMED_UNIT ( * ) SI_UNIT ( $, .STERADIAN. ) SOLID_ANGLE_UNIT ( ) );
#108 = CARTESIAN_POINT ( 'NONE',  ( -42.85000000000000142, 0.000000000000000000, -8.179496903641718244E-15 ) ) ;
#109 = FACE_OUTER_BOUND ( 'NONE', #117, .T. ) ;
#110 = DATE_TIME_ROLE ( 'creation_date' ) ;
#111 = CIRCLE ( 'NONE', #189, 16.85000000000000142 ) ;
#112 = CC_DESIGN_PERSON_AND_ORGANIZATION_ASSIGNMENT ( #113, #135, ( #96 ) ) ;
#113 = PERSON_AND_ORGANIZATION ( #2, #16 ) ;
#114 = PERSON_AND_ORGANIZATION ( #2, #16 ) ;
#115 = ORIENTED_EDGE ( 'NONE', *, *, #77, .T. ) ;
#116 = CALENDAR_DATE ( 2024, 27, 8 ) ;
#117 = EDGE_LOOP ( 'NONE', ( #206, #144, #154, #186 ) ) ;
#118 = AXIS2_PLACEMENT_3D ( 'NONE', #201, #124, #183 ) ;
#119 = ORIENTED_EDGE ( 'NONE', *, *, #159, .F. ) ;
#120 = DIRECTION ( 'NONE',  ( 0.000000000000000000, 0.000000000000000000, 1.000000000000000000 ) ) ;
#121 = DIRECTION ( 'NONE',  ( 2.978970066699131799E-15, 0.000000000000000000, 1.000000000000000000 ) ) ;
#122 = ORIENTED_EDGE ( 'NONE', *, *, #61, .T. ) ;
#123 = APPLICATION_CONTEXT ( 'configuration controlled 3d designs of mechanical parts and assemblies' ) ;
#124 = DIRECTION ( 'NONE',  ( -1.908867422086749017E-16, 0.000000000000000000, 1.000000000000000000 ) ) ;
#125 = ADVANCED_FACE ( 'NONE', ( #103, #9 ), #216, .T. ) ;
#126 = VERTEX_POINT ( 'NONE', #143 ) ;
#127 = EDGE_CURVE ( 'NONE', #220, #126, #193, .T. ) ;
#128 = AXIS2_PLACEMENT_3D ( 'NONE', #52, #202, #32 ) ;
#129 = AXIS2_PLACEMENT_3D ( 'NONE', #89, #50, #120 ) ;
#130 = CALENDAR_DATE ( 2024, 27, 8 ) ;
#131 = DIRECTION ( 'NONE',  ( 0.000000000000000000, 0.000000000000000000, 1.000000000000000000 ) ) ;
#132 = APPROVAL_DATE_TIME ( #3, #134 ) ;
#133 = AXIS2_PLACEMENT_3D ( 'NONE', #14, #37, #224 ) ;
#134 = APPROVAL ( #177, 'UNSPECIFIED' ) ;
#135 = PERSON_AND_ORGANIZATION_ROLE ( 'design_supplier' ) ;
#136 = ORIENTED_EDGE ( 'NONE', *, *, #29, .F. ) ;
#137 = PERSON_AND_ORGANIZATION_ROLE ( 'creator' ) ;
#138 = SECURITY_CLASSIFICATION ( '', '', #235 ) ;
#139 = DIRECTION ( 'NONE',  ( -1.000000000000000000, 0.000000000000000000, 2.978970066699131799E-15 ) ) ;
#140 = EDGE_CURVE ( 'NONE', #198, #174, #221, .T. ) ;
#141 = DIRECTION ( 'NONE',  ( -1.000000000000000000, 0.000000000000000000, 2.978970066699131799E-15 ) ) ;
#142 = PLANE ( 'NONE',  #79 ) ;
#143 = CARTESIAN_POINT ( 'NONE',  ( -3.341682846911931824E-14, 0.000000000000000000, -11.15000000000000036 ) ) ;
#144 = ORIENTED_EDGE ( 'NONE', *, *, #29, .T. ) ;
#145 = AXIS2_PLACEMENT_3D ( 'NONE', #240, #139, #160 ) ;
#146 = PERSON_AND_ORGANIZATION ( #2, #16 ) ;
#147 = CC_DESIGN_DATE_AND_TIME_ASSIGNMENT ( #23, #48, ( #138 ) ) ;
#148 = CIRCLE ( 'NONE', #22, 13.15000000000000036 ) ;
#149 = PERSON_AND_ORGANIZATION_ROLE ( 'design_owner' ) ;
#150 = DIRECTION ( 'NONE',  ( 1.000000000000000000, 0.000000000000000000, 0.000000000000000000 ) ) ;
#151 = PERSON_AND_ORGANIZATION_ROLE ( 'classification_officer' ) ;
#152 = LOCAL_TIME ( 13, 4, 42.00000000000000000, #75 ) ;
#153 = APPROVAL_ROLE ( '' ) ;
#154 = ORIENTED_EDGE ( 'NONE', *, *, #140, .T. ) ;
#155 = COORDINATED_UNIVERSAL_TIME_OFFSET ( 1, 0, .AHEAD. ) ;
#156 = DATE_AND_TIME ( #178, #88 ) ;
#157 = ORIENTED_EDGE ( 'NONE', *, *, #77, .F. ) ;
#158 = CARTESIAN_POINT ( 'NONE',  ( -3.917345637709358833E-14, 0.000000000000000000, -13.15000000000000036 ) ) ;
#159 = EDGE_CURVE ( 'NONE', #44, #179, #111, .T. ) ;
#160 = DIRECTION ( 'NONE',  ( 2.978970066699131799E-15, 0.000000000000000000, 1.000000000000000000 ) ) ;
#161 = PRODUCT_RELATED_PRODUCT_CATEGORY ( 'detail', '', ( #43 ) ) ;
#162 = DIRECTION ( 'NONE',  ( 1.000000000000000000, 0.000000000000000000, 1.908867422086749017E-16 ) ) ;
#163 = EDGE_CURVE ( 'NONE', #196, #98, #99, .T. ) ;
#164 = EDGE_LOOP ( 'NONE', ( #1, #95, #12, #5 ) ) ;
#165 = DIRECTION ( 'NONE',  ( -1.000000000000000000, 0.000000000000000000, 2.978970066699131799E-15 ) ) ;
#166 = ADVANCED_FACE ( 'NONE', ( #68 ), #41, .F. ) ;
#167 =( GEOMETRIC_REPRESENTATION_CONTEXT ( 3 ) GLOBAL_UNCERTAINTY_ASSIGNED_CONTEXT ( ( #210 ) ) GLOBAL_UNIT_ASSIGNED_CONTEXT ( ( #207, #168, #107 ) ) REPRESENTATION_CONTEXT ( 'NONE', 'WORKASPACE' ) );
#168 =( NAMED_UNIT ( * ) PLANE_ANGLE_UNIT ( ) SI_UNIT ( $, .RADIAN. ) );
#169 = APPLICATION_PROTOCOL_DEFINITION ( 'international standard', 'config_control_design', 1994, #123 ) ;
#170 = CARTESIAN_POINT ( 'NONE',  ( 0.000000000000000000, -1.818600496733819553E-15, 0.000000000000000000 ) ) ;
#171 = APPROVAL_PERSON_ORGANIZATION ( #213, #134, #153 ) ;
#172 = EDGE_LOOP ( 'NONE', ( #122, #27, #119, #82 ) ) ;
#173 = PERSON_AND_ORGANIZATION ( #2, #16 ) ;
#174 = VERTEX_POINT ( 'NONE', #215 ) ;
#175 = EDGE_CURVE ( 'NONE', #98, #196, #25, .T. ) ;
#176 = APPROVAL_PERSON_ORGANIZATION ( #38, #199, #62 ) ;
#177 = APPROVAL_STATUS ( 'not_yet_approved' ) ;
#178 = CALENDAR_DATE ( 2024, 27, 8 ) ;
#179 = VERTEX_POINT ( 'NONE', #187 ) ;
#180 = ORIENTED_EDGE ( 'NONE', *, *, #175, .T. ) ;
#181 = AXIS2_PLACEMENT_3D ( 'NONE', #72, #87, #69 ) ;
#182 = DIRECTION ( 'NONE',  ( -1.908867422086748770E-16, 0.000000000000000000, 1.000000000000000000 ) ) ;
#183 = DIRECTION ( 'NONE',  ( 1.000000000000000000, 0.000000000000000000, 1.908867422086749017E-16 ) ) ;
#184 = CARTESIAN_POINT ( 'NONE',  ( -8.341116186757569984E-14, 0.000000000000000000, -28.00000000000000000 ) ) ;
#185 = CC_DESIGN_APPROVAL ( #67, ( #96 ) ) ;
#186 = ORIENTED_EDGE ( 'NONE', *, *, #249, .F. ) ;
#187 = CARTESIAN_POINT ( 'NONE',  ( -44.85000000000000142, 0.000000000000000000, -8.359958162635068174E-15 ) ) ;
#188 = DIRECTION ( 'NONE',  ( 0.000000000000000000, 1.000000000000000000, 0.000000000000000000 ) ) ;
#189 = AXIS2_PLACEMENT_3D ( 'NONE', #71, #53, #238 ) ;
#190 = MANIFOLD_SOLID_BREP ( 'Wandung1', #74 ) ;
#191 = ADVANCED_FACE ( 'NONE', ( #109 ), #7, .F. ) ;
#192 = APPROVAL_STATUS ( 'not_yet_approved' ) ;
#193 = CIRCLE ( 'NONE', #145, 16.85000000000000142 ) ;
#194 = SHAPE_DEFINITION_REPRESENTATION ( #94, #13 ) ;
#195 = ORIENTED_EDGE ( 'NONE', *, *, #175, .F. ) ;
#196 = VERTEX_POINT ( 'NONE', #248 ) ;
#197 = APPROVAL_PERSON_ORGANIZATION ( #212, #67, #97 ) ;
#198 = VERTEX_POINT ( 'NONE', #108 ) ;
#199 = APPROVAL ( #192, 'UNSPECIFIED' ) ;
#200 = ORIENTED_EDGE ( 'NONE', *, *, #127, .F. ) ;
#201 = CARTESIAN_POINT ( 'NONE',  ( -28.00000000000000000, 0.000000000000000000, -5.143516556418896733E-15 ) ) ;
#202 = DIRECTION ( 'NONE',  ( -1.000000000000000000, 0.000000000000000000, 2.978970066699131799E-15 ) ) ;
#203 = ORIENTED_EDGE ( 'NONE', *, *, #249, .T. ) ;
#204 = DIRECTION ( 'NONE',  ( 2.978970066699131799E-15, 0.000000000000000000, 1.000000000000000000 ) ) ;
#205 = CC_DESIGN_SECURITY_CLASSIFICATION ( #138, ( #96 ) ) ;
#206 = ORIENTED_EDGE ( 'NONE', *, *, #163, .F. ) ;
#207 =( LENGTH_UNIT ( ) NAMED_UNIT ( * ) SI_UNIT ( .MILLI., .METRE. ) );
#208 = DATE_AND_TIME ( #130, #152 ) ;
#209 = DIRECTION ( 'NONE',  ( 0.000000000000000000, 1.000000000000000000, 0.000000000000000000 ) ) ;
#210 = UNCERTAINTY_MEASURE_WITH_UNIT (LENGTH_MEASURE( 1.000000000000000082E-05 ), #207, 'distance_accuracy_value', 'NONE');
#211 = TOROIDAL_SURFACE ( 'NONE', #81, 28.00000000000000000, 16.85000000000000142 ) ;
#212 = PERSON_AND_ORGANIZATION ( #2, #16 ) ;
#213 = PERSON_AND_ORGANIZATION ( #2, #16 ) ;
#214 = AXIS2_PLACEMENT_3D ( 'NONE', #105, #188, #250 ) ;
#215 = CARTESIAN_POINT ( 'NONE',  ( -13.15000000000000036, 0.000000000000000000, -2.510160660044074081E-15 ) ) ;
#216 = PLANE ( 'NONE',  #118 ) ;
#217 = CC_DESIGN_APPROVAL ( #199, ( #245 ) ) ;
#218 = CARTESIAN_POINT ( 'NONE',  ( -28.00000000000000000, 0.000000000000000000, -5.344828781842896557E-15 ) ) ;
#219 = DIRECTION ( 'NONE',  ( -1.000000000000000000, 0.000000000000000000, 2.978970066699131799E-15 ) ) ;
#220 = VERTEX_POINT ( 'NONE', #15 ) ;
#221 = CIRCLE ( 'NONE', #84, 14.84999999999999964 ) ;
#222 = EDGE_CURVE ( 'NONE', #126, #44, #59, .T. ) ;
#223 = APPLICATION_CONTEXT ( 'configuration controlled 3d designs of mechanical parts and assemblies' ) ;
#224 = DIRECTION ( 'NONE',  ( 1.000000000000000000, 0.000000000000000000, 1.908867422086748770E-16 ) ) ;
#225 = DIRECTION ( 'NONE',  ( 0.000000000000000000, 0.000000000000000000, 1.000000000000000000 ) ) ;
#226 = MECHANICAL_CONTEXT ( 'NONE', #123, 'mechanical' ) ;
#227 = AXIS2_PLACEMENT_3D ( 'NONE', #218, #10, #162 ) ;
#228 = CARTESIAN_POINT ( 'NONE',  ( 0.000000000000000000, 0.000000000000000000, 0.000000000000000000 ) ) ;
#229 = APPLICATION_PROTOCOL_DEFINITION ( 'international standard', 'config_control_design', 1994, #223 ) ;
#230 = COORDINATED_UNIVERSAL_TIME_OFFSET ( 1, 0, .AHEAD. ) ;
#231 = ADVANCED_FACE ( 'NONE', ( #60 ), #36, .T. ) ;
#232 = CIRCLE ( 'NONE', #252, 16.85000000000000142 ) ;
#233 = APPROVAL_STATUS ( 'not_yet_approved' ) ;
#234 = EDGE_CURVE ( 'NONE', #179, #44, #239, .T. ) ;
#235 = SECURITY_CLASSIFICATION_LEVEL ( 'unclassified' ) ;
#236 = CARTESIAN_POINT ( 'NONE',  ( -28.00000000000000000, 0.000000000000000000, -5.344828781842896557E-15 ) ) ;
#237 = ADVANCED_FACE ( 'NONE', ( #251 ), #211, .T. ) ;
#238 = DIRECTION ( 'NONE',  ( 1.000000000000000000, 0.000000000000000000, 1.908867422086748770E-16 ) ) ;
#239 = CIRCLE ( 'NONE', #133, 16.85000000000000142 ) ;
#240 = CARTESIAN_POINT ( 'NONE',  ( -8.361247409299968862E-14, 0.000000000000000000, -28.00000000000000000 ) ) ;
#241 = CIRCLE ( 'NONE', #51, 44.85000000000000142 ) ;
#242 = EDGE_LOOP ( 'NONE', ( #21, #200 ) ) ;
#243 = DESIGN_CONTEXT ( 'detailed design', #223, 'design' ) ;
#244 = DIRECTION ( 'NONE',  ( 0.000000000000000000, 1.000000000000000000, 0.000000000000000000 ) ) ;
#245 = PRODUCT_DEFINITION ( 'UNKNOWN', '', #96, #243 ) ;
#246 = DIRECTION ( 'NONE',  ( 0.000000000000000000, 0.000000000000000000, 1.000000000000000000 ) ) ;
#247 = AXIS2_PLACEMENT_3D ( 'NONE', #228, #253, #34 ) ;
#248 = CARTESIAN_POINT ( 'NONE',  ( -1.276488673580578050E-13, 0.000000000000000000, -42.85000000000000142 ) ) ;
#249 = EDGE_CURVE ( 'NONE', #98, #174, #148, .T. ) ;
#250 = DIRECTION ( 'NONE',  ( 0.000000000000000000, 0.000000000000000000, 1.000000000000000000 ) ) ;
#251 = FACE_OUTER_BOUND ( 'NONE', #164, .T. ) ;
#252 = AXIS2_PLACEMENT_3D ( 'NONE', #90, #165, #121 ) ;
#253 = DIRECTION ( 'NONE',  ( 0.000000000000000000, 1.000000000000000000, 0.000000000000000000 ) ) ;
ENDSEC;
END-ISO-10303-21;
