ISO-10303-21;
HEADER;
FILE_DESCRIPTION (( 'STEP AP203' ),
    '1' );
FILE_NAME ('3D_R175_DN17.2x2_17336140.STEP',
    '2024-07-18T09:58:03',
    ( '' ),
    ( '' ),
    'SwSTEP 2.0',
    'SolidWorks 2024',
    '' );
FILE_SCHEMA (( 'CONFIG_CONTROL_DESIGN' ));
ENDSEC;

DATA;
#1 = DIRECTION ( 'NONE',  ( 1.000000000000000000, 0.000000000000000000, 0.000000000000000000 ) ) ;
#2 = FACE_OUTER_BOUND ( 'NONE', #268, .T. ) ;
#3 = DIRECTION ( 'NONE',  ( 1.000000000000000000, -4.596983092540343816E-18, 0.000000000000000000 ) ) ;
#4 = DIRECTION ( 'NONE',  ( 0.000000000000000000, 0.000000000000000000, 1.000000000000000000 ) ) ;
#5 = DIRECTION ( 'NONE',  ( 4.596983092540331490E-18, 1.000000000000000000, -0.000000000000000000 ) ) ;
#6 = DIRECTION ( 'NONE',  ( 0.000000000000000000, 0.000000000000000000, 1.000000000000000000 ) ) ;
#7 = CC_DESIGN_PERSON_AND_ORGANIZATION_ASSIGNMENT ( #13, #200, ( #270 ) ) ;
#8 = DIRECTION ( 'NONE',  ( -0.000000000000000000, 0.000000000000000000, -1.000000000000000000 ) ) ;
#9 = APPLICATION_PROTOCOL_DEFINITION ( 'international standard', 'config_control_design', 1994, #283 ) ;
#10 = ADVANCED_FACE ( 'NONE', ( #29 ), #141, .F. ) ;
#11 = DIRECTION ( 'NONE',  ( 4.596983092540343816E-18, 1.000000000000000000, -0.000000000000000000 ) ) ;
#12 = ORIENTED_EDGE ( 'NONE', *, *, #81, .T. ) ;
#13 = PERSON_AND_ORGANIZATION ( #312, #313 ) ;
#14 = EDGE_CURVE ( 'NONE', #280, #136, #168, .T. ) ;
#15 = CC_DESIGN_DATE_AND_TIME_ASSIGNMENT ( #279, #224, ( #270 ) ) ;
#16 = APPROVAL_STATUS ( 'not_yet_approved' ) ;
#17 = AXIS2_PLACEMENT_3D ( 'NONE', #187, #55, #343 ) ;
#18 = ORIENTED_EDGE ( 'NONE', *, *, #345, .T. ) ;
#19 = ORIENTED_EDGE ( 'NONE', *, *, #162, .F. ) ;
#20 = CIRCLE ( 'NONE', #91, 11.75999999999999979 ) ;
#21 = ORIENTED_EDGE ( 'NONE', *, *, #64, .T. ) ;
#22 = CARTESIAN_POINT ( 'NONE',  ( -8.599999999999985434, 2817.965330118411202, 0.000000000000000000 ) ) ;
#23 = PRODUCT ( '3D_R175_DN17.2x2_17336140', '3D_R175_DN17.2x2_17336140', '', ( #149 ) ) ;
#24 = EDGE_LOOP ( 'NONE', ( #44, #100, #295, #101 ) ) ;
#25 = ADVANCED_FACE ( 'NONE', ( #254 ), #139, .F. ) ;
#26 = DIRECTION ( 'NONE',  ( 4.596983092540343816E-18, 1.000000000000000000, -0.000000000000000000 ) ) ;
#27 = AXIS2_PLACEMENT_3D ( 'NONE', #211, #6, #334 ) ;
#28 = CARTESIAN_POINT ( 'NONE',  ( 9.559620506719827635E-16, 7.029223324568345532, 0.000000000000000000 ) ) ;
#29 = FACE_OUTER_BOUND ( 'NONE', #353, .T. ) ;
#30 = DIRECTION ( 'NONE',  ( -1.000000000000000000, 0.000000000000000000, 0.000000000000000000 ) ) ;
#31 = DIRECTION ( 'NONE',  ( -0.000000000000000000, 0.000000000000000000, -1.000000000000000000 ) ) ;
#32 = CARTESIAN_POINT ( 'NONE',  ( 9.503259161383471399E-16, -0.7600000000000002309, 0.000000000000000000 ) ) ;
#33 = APPROVAL_PERSON_ORGANIZATION ( #344, #179, #318 ) ;
#34 = ADVANCED_FACE ( 'NONE', ( #316 ), #275, .F. ) ;
#35 =( NAMED_UNIT ( * ) PLANE_ANGLE_UNIT ( ) SI_UNIT ( $, .RADIAN. ) );
#36 = DIRECTION ( 'NONE',  ( 4.596983092540343816E-18, 1.000000000000000000, -0.000000000000000000 ) ) ;
#37 = DIRECTION ( 'NONE',  ( 1.000000000000000000, -4.596983092540343816E-18, 0.000000000000000000 ) ) ;
#38 = DIRECTION ( 'NONE',  ( -1.000000000000000000, 4.596983092540343816E-18, 0.000000000000000000 ) ) ;
#39 = AXIS2_PLACEMENT_3D ( 'NONE', #52, #31, #210 ) ;
#40 = EDGE_CURVE ( 'NONE', #238, #330, #209, .T. ) ;
#41 = PERSON_AND_ORGANIZATION ( #312, #313 ) ;
#42 = APPROVAL_DATE_TIME ( #267, #202 ) ;
#43 = PERSON_AND_ORGANIZATION_ROLE ( 'classification_officer' ) ;
#44 = ORIENTED_EDGE ( 'NONE', *, *, #75, .F. ) ;
#45 = ADVANCED_FACE ( 'NONE', ( #317 ), #291, .T. ) ;
#46 = DIRECTION ( 'NONE',  ( 4.596983092540343816E-18, 1.000000000000000000, -0.000000000000000000 ) ) ;
#47 = CC_DESIGN_APPROVAL ( #179, ( #103 ) ) ;
#48 = DIRECTION ( 'NONE',  ( -1.000000000000000000, 0.000000000000000000, 0.000000000000000000 ) ) ;
#49 = ORIENTED_EDGE ( 'NONE', *, *, #56, .T. ) ;
#50 = AXIS2_PLACEMENT_3D ( 'NONE', #132, #271, #189 ) ;
#51 = EDGE_LOOP ( 'NONE', ( #130, #170, #232 ) ) ;
#52 = CARTESIAN_POINT ( 'NONE',  ( 9.503259161383471399E-16, -0.7600000000000002309, 0.000000000000000000 ) ) ;
#53 = DIRECTION ( 'NONE',  ( 4.596983092540343816E-18, 1.000000000000000000, -0.000000000000000000 ) ) ;
#54 = PLANE ( 'NONE',  #87 ) ;
#55 = DIRECTION ( 'NONE',  ( 4.596983092540343816E-18, 1.000000000000000000, -0.000000000000000000 ) ) ;
#56 = EDGE_CURVE ( 'NONE', #156, #72, #193, .T. ) ;
#57 = DIRECTION ( 'NONE',  ( 1.000000000000000000, -4.596983092540343816E-18, 0.000000000000000000 ) ) ;
#58 = AXIS2_PLACEMENT_3D ( 'NONE', #120, #5, #66 ) ;
#59 = CARTESIAN_POINT ( 'NONE',  ( -6.599999999999998757, 3.034008841076626795E-17, 0.000000000000000000 ) ) ;
#60 = AXIS2_PLACEMENT_3D ( 'NONE', #144, #123, #148 ) ;
#61 = CIRCLE ( 'NONE', #104, 8.599999999999999645 ) ;
#62 = APPROVAL_DATE_TIME ( #92, #93 ) ;
#63 = EDGE_CURVE ( 'NONE', #72, #156, #155, .T. ) ;
#64 = EDGE_CURVE ( 'NONE', #72, #199, #217, .T. ) ;
#65 = APPLICATION_PROTOCOL_DEFINITION ( 'international standard', 'config_control_design', 1994, #231 ) ;
#66 = DIRECTION ( 'NONE',  ( 1.000000000000000000, 0.000000000000000000, 0.000000000000000000 ) ) ;
#67 = COORDINATED_UNIVERSAL_TIME_OFFSET ( 1, 0, .AHEAD. ) ;
#68 = CIRCLE ( 'NONE', #242, 0.5799999999999989608 ) ;
#69 = PERSON_AND_ORGANIZATION_ROLE ( 'design_supplier' ) ;
#70 = VECTOR ( 'NONE', #337, 1000.000000000000000 ) ;
#71 = CIRCLE ( 'NONE', #326, 6.599999999999999645 ) ;
#72 = VERTEX_POINT ( 'NONE', #214 ) ;
#73 = ADVANCED_FACE ( 'NONE', ( #83 ), #118, .T. ) ;
#74 = VERTEX_POINT ( 'NONE', #59 ) ;
#75 = EDGE_CURVE ( 'NONE', #238, #160, #164, .T. ) ;
#76 = CARTESIAN_POINT ( 'NONE',  ( 9.578196551619374797E-16, 7.433315411173868625, 0.000000000000000000 ) ) ;
#77 = ORIENTED_EDGE ( 'NONE', *, *, #81, .F. ) ;
#78 = COORDINATED_UNIVERSAL_TIME_OFFSET ( 1, 0, .AHEAD. ) ;
#79 = AXIS2_PLACEMENT_3D ( 'NONE', #278, #53, #107 ) ;
#80 = CARTESIAN_POINT ( 'NONE',  ( 6.600000000000000533, -3.034008841076626795E-17, 8.082668874372531019E-16 ) ) ;
#81 = EDGE_CURVE ( 'NONE', #293, #160, #61, .T. ) ;
#82 = ORIENTED_EDGE ( 'NONE', *, *, #75, .T. ) ;
#83 = FACE_OUTER_BOUND ( 'NONE', #94, .T. ) ;
#84 = AXIS2_PLACEMENT_3D ( 'NONE', #109, #301, #1 ) ;
#85 = DIRECTION ( 'NONE',  ( -1.000000000000000000, 0.000000000000000000, 0.000000000000000000 ) ) ;
#86 = AXIS2_PLACEMENT_3D ( 'NONE', #171, #11, #37 ) ;
#87 = AXIS2_PLACEMENT_3D ( 'NONE', #138, #247, #3 ) ;
#88 = ORIENTED_EDGE ( 'NONE', *, *, #276, .T. ) ;
#89 = APPROVAL_ROLE ( '' ) ;
#90 = CARTESIAN_POINT ( 'NONE',  ( -8.436064400715562073, 7.433315411173868625, 0.000000000000000000 ) ) ;
#91 = AXIS2_PLACEMENT_3D ( 'NONE', #32, #8, #163 ) ;
#92 = DATE_AND_TIME ( #197, #178 ) ;
#93 = APPROVAL ( #342, 'UNSPECIFIED' ) ;
#94 = EDGE_LOOP ( 'NONE', ( #264, #204, #88 ) ) ;
#95 = UNCERTAINTY_MEASURE_WITH_UNIT (LENGTH_MEASURE( 1.000000000000000082E-05 ), #220, 'distance_accuracy_value', 'NONE');
#96 = ORIENTED_EDGE ( 'NONE', *, *, #40, .F. ) ;
#97 = ADVANCED_FACE ( 'NONE', ( #244 ), #207, .T. ) ;
#98 = CARTESIAN_POINT ( 'NONE',  ( 6.600000000000013856, 2817.965330118411202, 8.082668874372531019E-16 ) ) ;
#99 = EDGE_CURVE ( 'NONE', #330, #293, #329, .T. ) ;
#100 = ORIENTED_EDGE ( 'NONE', *, *, #40, .T. ) ;
#101 = ORIENTED_EDGE ( 'NONE', *, *, #285, .F. ) ;
#102 = FACE_OUTER_BOUND ( 'NONE', #203, .T. ) ;
#103 = PRODUCT_DEFINITION_FORMATION_WITH_SPECIFIED_SOURCE ( 'ANY', '', #23, .NOT_KNOWN. ) ;
#104 = AXIS2_PLACEMENT_3D ( 'NONE', #28, #352, #48 ) ;
#105 = CARTESIAN_POINT ( 'NONE',  ( 9.503259161383471399E-16, -0.7600000000000002309, 0.000000000000000000 ) ) ;
#106 = PRODUCT_DEFINITION_SHAPE ( 'NONE', 'NONE',  #270 ) ;
#107 = DIRECTION ( 'NONE',  ( -1.000000000000000000, 0.000000000000000000, 0.000000000000000000 ) ) ;
#108 = CARTESIAN_POINT ( 'NONE',  ( 9.578196551619374797E-16, 7.433315411173868625, 0.000000000000000000 ) ) ;
#109 = CARTESIAN_POINT ( 'NONE',  ( 9.532079106952096493E-16, 6.430104310787058353, 0.000000000000000000 ) ) ;
#110 = LINE ( 'NONE', #215, #70 ) ;
#111 = CC_DESIGN_APPROVAL ( #202, ( #265 ) ) ;
#112 = CARTESIAN_POINT ( 'NONE',  ( 9.236488298952508525E-16, 0.000000000000000000, 0.000000000000000000 ) ) ;
#113 = AXIS2_PLACEMENT_3D ( 'NONE', #245, #357, #161 ) ;
#114 = CIRCLE ( 'NONE', #135, 9.759999999999999787 ) ;
#115 = ADVANCED_BREP_SHAPE_REPRESENTATION ( '3D_R175_DN17.2x2_17336140', ( #287, #261 ), #288 ) ;
#116 = FACE_OUTER_BOUND ( 'NONE', #24, .T. ) ;
#117 = PERSON_AND_ORGANIZATION_ROLE ( 'design_owner' ) ;
#118 = SPHERICAL_SURFACE ( 'NONE', #228, 11.75999999999999979 ) ;
#119 = AXIS2_PLACEMENT_3D ( 'NONE', #108, #246, #85 ) ;
#120 = CARTESIAN_POINT ( 'NONE',  ( 9.532079106952096493E-16, 6.430104310787058353, 0.000000000000000000 ) ) ;
#121 = COORDINATED_UNIVERSAL_TIME_OFFSET ( 1, 0, .AHEAD. ) ;
#122 = CALENDAR_DATE ( 2024, 18, 7 ) ;
#123 = DIRECTION ( 'NONE',  ( 4.596983092540343816E-18, 1.000000000000000000, -0.000000000000000000 ) ) ;
#124 = AXIS2_PLACEMENT_3D ( 'NONE', #259, #346, #176 ) ;
#125 = ORIENTED_EDGE ( 'NONE', *, *, #294, .T. ) ;
#126 = CLOSED_SHELL ( 'NONE', ( #292, #10, #97, #234, #260, #223, #324, #45, #73, #34, #25 ) ) ;
#127 = APPROVAL_STATUS ( 'not_yet_approved' ) ;
#128 = CARTESIAN_POINT ( 'NONE',  ( 3.975648331376326833E-16, 9.000000000000000000, 0.000000000000000000 ) ) ;
#129 = CARTESIAN_POINT ( 'NONE',  ( 9.503259161383471399E-16, -0.7600000000000002309, 0.000000000000000000 ) ) ;
#130 = ORIENTED_EDGE ( 'NONE', *, *, #56, .F. ) ;
#131 = DATE_AND_TIME ( #150, #252 ) ;
#132 = CARTESIAN_POINT ( 'NONE',  ( -8.019999999999997797, 7.029223324568375730, 0.000000000000000000 ) ) ;
#133 = DIRECTION ( 'NONE',  ( 4.596983092540343816E-18, 1.000000000000000000, -0.000000000000000000 ) ) ;
#134 = ORIENTED_EDGE ( 'NONE', *, *, #99, .F. ) ;
#135 = AXIS2_PLACEMENT_3D ( 'NONE', #140, #249, #218 ) ;
#136 = VERTEX_POINT ( 'NONE', #239 ) ;
#137 = TOROIDAL_SURFACE ( 'NONE', #341, 8.019999999999999574, 0.5799999999999987388 ) ;
#138 = CARTESIAN_POINT ( 'NONE',  ( -9.086869027833763655E-35, -1.976702729792347163E-17, 0.000000000000000000 ) ) ;
#139 = SPHERICAL_SURFACE ( 'NONE', #184, 9.759999999999999787 ) ;
#140 = CARTESIAN_POINT ( 'NONE',  ( 9.503259161383471399E-16, -0.7600000000000002309, 0.000000000000000000 ) ) ;
#141 = CYLINDRICAL_SURFACE ( 'NONE', #222, 6.599999999999999645 ) ;
#142 = DIRECTION ( 'NONE',  ( 4.596983092540343816E-18, 1.000000000000000000, -0.000000000000000000 ) ) ;
#143 = CIRCLE ( 'NONE', #79, 8.599999999999999645 ) ;
#144 = CARTESIAN_POINT ( 'NONE',  ( 9.236488298952508525E-16, 0.000000000000000000, 0.000000000000000000 ) ) ;
#145 = CARTESIAN_POINT ( 'NONE',  ( 1.387778780781445676E-14, 2817.965330118411202, 0.000000000000000000 ) ) ;
#146 = PERSON_AND_ORGANIZATION ( #312, #313 ) ;
#147 = AXIS2_PLACEMENT_3D ( 'NONE', #145, #269, #255 ) ;
#148 = DIRECTION ( 'NONE',  ( -1.000000000000000000, 4.596983092540343816E-18, 0.000000000000000000 ) ) ;
#149 = MECHANICAL_CONTEXT ( 'NONE', #283, 'mechanical' ) ;
#150 = CALENDAR_DATE ( 2024, 18, 7 ) ;
#151 = CC_DESIGN_APPROVAL ( #93, ( #270 ) ) ;
#152 = VECTOR ( 'NONE', #212, 1000.000000000000000 ) ;
#153 = EDGE_LOOP ( 'NONE', ( #182, #327, #206 ) ) ;
#154 = ORIENTED_EDGE ( 'NONE', *, *, #294, .F. ) ;
#155 = CIRCLE ( 'NONE', #84, 6.599999999999999645 ) ;
#156 = VERTEX_POINT ( 'NONE', #356 ) ;
#157 = COORDINATED_UNIVERSAL_TIME_OFFSET ( 1, 0, .AHEAD. ) ;
#158 = ORIENTED_EDGE ( 'NONE', *, *, #335, .F. ) ;
#159 = DIRECTION ( 'NONE',  ( -1.000000000000000000, 0.000000000000000000, 0.000000000000000000 ) ) ;
#160 = VERTEX_POINT ( 'NONE', #183 ) ;
#161 = DIRECTION ( 'NONE',  ( 1.000000000000000000, 0.000000000000000000, 1.224646799147353207E-16 ) ) ;
#162 = EDGE_CURVE ( 'NONE', #293, #328, #174, .T. ) ;
#163 = DIRECTION ( 'NONE',  ( -1.000000000000000000, 0.000000000000000000, 0.000000000000000000 ) ) ;
#164 = LINE ( 'NONE', #296, #338 ) ;
#165 = DIRECTION ( 'NONE',  ( -1.000000000000000000, 0.000000000000000000, 0.000000000000000000 ) ) ;
#166 = CARTESIAN_POINT ( 'NONE',  ( 1.387778780781445676E-14, 2817.965330118411202, 0.000000000000000000 ) ) ;
#167 = DIRECTION ( 'NONE',  ( 4.596983092540343816E-18, 1.000000000000000000, -0.000000000000000000 ) ) ;
#168 = CIRCLE ( 'NONE', #113, 11.75999999999999979 ) ;
#169 = CALENDAR_DATE ( 2024, 18, 7 ) ;
#170 = ORIENTED_EDGE ( 'NONE', *, *, #300, .T. ) ;
#171 = CARTESIAN_POINT ( 'NONE',  ( 9.236488298952508525E-16, 0.000000000000000000, 0.000000000000000000 ) ) ;
#172 = DIRECTION ( 'NONE',  ( 4.596983092540343816E-18, 1.000000000000000000, -0.000000000000000000 ) ) ;
#173 = DATE_AND_TIME ( #122, #277 ) ;
#174 = CIRCLE ( 'NONE', #50, 0.5799999999999989608 ) ;
#175 = SECURITY_CLASSIFICATION_LEVEL ( 'unclassified' ) ;
#176 = DIRECTION ( 'NONE',  ( -1.000000000000000000, 0.000000000000000000, 0.000000000000000000 ) ) ;
#177 = EDGE_LOOP ( 'NONE', ( #297, #158, #325, #185 ) ) ;
#178 = LOCAL_TIME ( 11, 58, 3.000000000000000000, #198 ) ;
#179 = APPROVAL ( #16, 'UNSPECIFIED' ) ;
#180 = ORIENTED_EDGE ( 'NONE', *, *, #285, .T. ) ;
#181 = ORIENTED_EDGE ( 'NONE', *, *, #190, .T. ) ;
#182 = ORIENTED_EDGE ( 'NONE', *, *, #192, .T. ) ;
#183 = CARTESIAN_POINT ( 'NONE',  ( 8.600000000000001421, 7.029223324568345532, 1.053196247266723694E-15 ) ) ;
#184 = AXIS2_PLACEMENT_3D ( 'NONE', #105, #248, #336 ) ;
#185 = ORIENTED_EDGE ( 'NONE', *, *, #63, .T. ) ;
#186 = DATE_TIME_ROLE ( 'classification_date' ) ;
#187 = CARTESIAN_POINT ( 'NONE',  ( 9.236488298952508525E-16, 0.000000000000000000, 0.000000000000000000 ) ) ;
#188 = CARTESIAN_POINT ( 'NONE',  ( 1.734723475976807094E-15, 7.029223324568375730, 0.000000000000000000 ) ) ;
#189 = DIRECTION ( 'NONE',  ( -1.000000000000000000, 0.000000000000000000, 0.000000000000000000 ) ) ;
#190 = EDGE_CURVE ( 'NONE', #266, #156, #303, .T. ) ;
#191 = EDGE_LOOP ( 'NONE', ( #351, #263, #21 ) ) ;
#192 = EDGE_CURVE ( 'NONE', #328, #280, #243, .T. ) ;
#193 = CIRCLE ( 'NONE', #58, 6.599999999999999645 ) ;
#194 = CARTESIAN_POINT ( 'NONE',  ( 8.599999999999999645, -3.953405459584694942E-17, 1.053196247266723694E-15 ) ) ;
#195 = PRODUCT_RELATED_PRODUCT_CATEGORY ( 'detail', '', ( #23 ) ) ;
#196 = LOCAL_TIME ( 11, 58, 3.000000000000000000, #78 ) ;
#197 = CALENDAR_DATE ( 2024, 18, 7 ) ;
#198 = COORDINATED_UNIVERSAL_TIME_OFFSET ( 1, 0, .AHEAD. ) ;
#199 = VERTEX_POINT ( 'NONE', #128 ) ;
#200 = PERSON_AND_ORGANIZATION_ROLE ( 'creator' ) ;
#201 = PERSON_AND_ORGANIZATION_ROLE ( 'creator' ) ;
#202 = APPROVAL ( #127, 'UNSPECIFIED' ) ;
#203 = EDGE_LOOP ( 'NONE', ( #348, #96 ) ) ;
#204 = ORIENTED_EDGE ( 'NONE', *, *, #233, .T. ) ;
#205 = PERSON_AND_ORGANIZATION ( #312, #313 ) ;
#206 = ORIENTED_EDGE ( 'NONE', *, *, #276, .F. ) ;
#207 = SPHERICAL_SURFACE ( 'NONE', #314, 11.75999999999999979 ) ;
#208 = ORIENTED_EDGE ( 'NONE', *, *, #308, .F. ) ;
#209 = CIRCLE ( 'NONE', #17, 8.599999999999997868 ) ;
#210 = DIRECTION ( 'NONE',  ( -1.000000000000000000, 0.000000000000000000, 0.000000000000000000 ) ) ;
#211 = CARTESIAN_POINT ( 'NONE',  ( 9.503259161383471399E-16, -0.7600000000000002309, 0.000000000000000000 ) ) ;
#212 = DIRECTION ( 'NONE',  ( 4.596983092540343816E-18, 1.000000000000000000, -0.000000000000000000 ) ) ;
#213 = DIRECTION ( 'NONE',  ( -1.000000000000000000, 0.000000000000000000, 0.000000000000000000 ) ) ;
#214 = CARTESIAN_POINT ( 'NONE',  ( -6.599999999999998757, 6.430104310787058353, 0.000000000000000000 ) ) ;
#215 = CARTESIAN_POINT ( 'NONE',  ( -6.599999999999986322, 2817.965330118411202, 0.000000000000000000 ) ) ;
#216 = APPROVAL_PERSON_ORGANIZATION ( #256, #93, #89 ) ;
#217 = CIRCLE ( 'NONE', #39, 9.759999999999999787 ) ;
#218 = DIRECTION ( 'NONE',  ( 1.000000000000000000, 0.000000000000000000, 1.224646799147353207E-16 ) ) ;
#219 = CARTESIAN_POINT ( 'NONE',  ( 8.020000000000001350, 7.029223324568375730, 9.821667329161771188E-16 ) ) ;
#220 =( LENGTH_UNIT ( ) NAMED_UNIT ( * ) SI_UNIT ( .MILLI., .METRE. ) );
#221 = CARTESIAN_POINT ( 'NONE',  ( 9.503259161383471399E-16, -0.7600000000000002309, 0.000000000000000000 ) ) ;
#222 = AXIS2_PLACEMENT_3D ( 'NONE', #332, #36, #165 ) ;
#223 = ADVANCED_FACE ( 'NONE', ( #236, #102 ), #54, .T. ) ;
#224 = DATE_TIME_ROLE ( 'creation_date' ) ;
#225 = PERSON_AND_ORGANIZATION ( #312, #313 ) ;
#226 = CIRCLE ( 'NONE', #86, 6.599999999999999645 ) ;
#227 = DIRECTION ( 'NONE',  ( 0.000000000000000000, 0.000000000000000000, 1.000000000000000000 ) ) ;
#228 = AXIS2_PLACEMENT_3D ( 'NONE', #221, #340, #159 ) ;
#229 = CC_DESIGN_DATE_AND_TIME_ASSIGNMENT ( #131, #186, ( #265 ) ) ;
#230 = EDGE_LOOP ( 'NONE', ( #12, #305, #354, #19 ) ) ;
#231 = APPLICATION_CONTEXT ( 'configuration controlled 3d designs of mechanical parts and assemblies' ) ;
#232 = ORIENTED_EDGE ( 'NONE', *, *, #64, .F. ) ;
#233 = EDGE_CURVE ( 'NONE', #280, #328, #257, .T. ) ;
#234 = ADVANCED_FACE ( 'NONE', ( #241 ), #137, .T. ) ;
#235 = CALENDAR_DATE ( 2024, 18, 7 ) ;
#236 = FACE_BOUND ( 'NONE', #273, .T. ) ;
#237 = CC_DESIGN_PERSON_AND_ORGANIZATION_ASSIGNMENT ( #320, #69, ( #103 ) ) ;
#238 = VERTEX_POINT ( 'NONE', #194 ) ;
#239 = CARTESIAN_POINT ( 'NONE',  ( 2.842941194079780132E-16, 11.00000000000000000, 0.000000000000000000 ) ) ;
#240 = CARTESIAN_POINT ( 'NONE',  ( 1.734723475976807094E-15, 7.029223324568375730, 0.000000000000000000 ) ) ;
#241 = FACE_OUTER_BOUND ( 'NONE', #230, .T. ) ;
#242 = AXIS2_PLACEMENT_3D ( 'NONE', #219, #339, #307 ) ;
#243 = CIRCLE ( 'NONE', #251, 8.436064400715563849 ) ;
#244 = FACE_OUTER_BOUND ( 'NONE', #153, .T. ) ;
#245 = CARTESIAN_POINT ( 'NONE',  ( 9.503259161383471399E-16, -0.7600000000000002309, 0.000000000000000000 ) ) ;
#246 = DIRECTION ( 'NONE',  ( 4.596983092540343816E-18, 1.000000000000000000, -0.000000000000000000 ) ) ;
#247 = DIRECTION ( 'NONE',  ( -4.596983092540343816E-18, -1.000000000000000000, 0.000000000000000000 ) ) ;
#248 = DIRECTION ( 'NONE',  ( 0.000000000000000000, 0.000000000000000000, 1.000000000000000000 ) ) ;
#249 = DIRECTION ( 'NONE',  ( -1.224646799147353207E-16, 5.629680630014033300E-34, 1.000000000000000000 ) ) ;
#250 = CARTESIAN_POINT ( 'NONE',  ( -8.599999999999997868, 7.029223324568345532, 0.000000000000000000 ) ) ;
#251 = AXIS2_PLACEMENT_3D ( 'NONE', #76, #46, #355 ) ;
#252 = LOCAL_TIME ( 11, 58, 3.000000000000000000, #157 ) ;
#253 = CARTESIAN_POINT ( 'NONE',  ( 0.000000000000000000, 0.000000000000000000, 0.000000000000000000 ) ) ;
#254 = FACE_OUTER_BOUND ( 'NONE', #191, .T. ) ;
#255 = DIRECTION ( 'NONE',  ( -1.000000000000000000, 0.000000000000000000, 0.000000000000000000 ) ) ;
#256 = PERSON_AND_ORGANIZATION ( #312, #313 ) ;
#257 = CIRCLE ( 'NONE', #119, 8.436064400715563849 ) ;
#258 = DIRECTION ( 'NONE',  ( 1.000000000000000000, 0.000000000000000000, 0.000000000000000000 ) ) ;
#259 = CARTESIAN_POINT ( 'NONE',  ( 1.387778780781445676E-14, 2817.965330118411202, 0.000000000000000000 ) ) ;
#260 = ADVANCED_FACE ( 'NONE', ( #2 ), #311, .T. ) ;
#261 = AXIS2_PLACEMENT_3D ( 'NONE', #253, #227, #258 ) ;
#262 = SHAPE_DEFINITION_REPRESENTATION ( #106, #115 ) ;
#263 = ORIENTED_EDGE ( 'NONE', *, *, #63, .F. ) ;
#264 = ORIENTED_EDGE ( 'NONE', *, *, #14, .F. ) ;
#265 = SECURITY_CLASSIFICATION ( '', '', #175 ) ;
#266 = VERTEX_POINT ( 'NONE', #80 ) ;
#267 = DATE_AND_TIME ( #235, #196 ) ;
#268 = EDGE_LOOP ( 'NONE', ( #18, #82, #77, #134 ) ) ;
#269 = DIRECTION ( 'NONE',  ( 4.596983092540343816E-18, 1.000000000000000000, -0.000000000000000000 ) ) ;
#270 = PRODUCT_DEFINITION ( 'UNKNOWN', '', #103, #323 ) ;
#271 = DIRECTION ( 'NONE',  ( -0.000000000000000000, 0.000000000000000000, -1.000000000000000000 ) ) ;
#272 = DIRECTION ( 'NONE',  ( 4.596983092540343816E-18, 1.000000000000000000, -0.000000000000000000 ) ) ;
#273 = EDGE_LOOP ( 'NONE', ( #349, #125 ) ) ;
#274 = FACE_OUTER_BOUND ( 'NONE', #51, .T. ) ;
#275 = CYLINDRICAL_SURFACE ( 'NONE', #147, 6.599999999999999645 ) ;
#276 = EDGE_CURVE ( 'NONE', #328, #136, #20, .T. ) ;
#277 = LOCAL_TIME ( 11, 58, 3.000000000000000000, #67 ) ;
#278 = CARTESIAN_POINT ( 'NONE',  ( 9.559620506719827635E-16, 7.029223324568345532, 0.000000000000000000 ) ) ;
#279 = DATE_AND_TIME ( #169, #347 ) ;
#280 = VERTEX_POINT ( 'NONE', #302 ) ;
#281 = CC_DESIGN_PERSON_AND_ORGANIZATION_ASSIGNMENT ( #41, #43, ( #265 ) ) ;
#282 = ORIENTED_EDGE ( 'NONE', *, *, #306, .F. ) ;
#283 = APPLICATION_CONTEXT ( 'configuration controlled 3d designs of mechanical parts and assemblies' ) ;
#284 = CYLINDRICAL_SURFACE ( 'NONE', #124, 8.599999999999999645 ) ;
#285 = EDGE_CURVE ( 'NONE', #160, #293, #143, .T. ) ;
#286 = CARTESIAN_POINT ( 'NONE',  ( -8.599999999999996092, 3.953405459584694942E-17, 0.000000000000000000 ) ) ;
#287 = MANIFOLD_SOLID_BREP ( 'Wandung1', #126 ) ;
#288 =( GEOMETRIC_REPRESENTATION_CONTEXT ( 3 ) GLOBAL_UNCERTAINTY_ASSIGNED_CONTEXT ( ( #95 ) ) GLOBAL_UNIT_ASSIGNED_CONTEXT ( ( #220, #35, #315 ) ) REPRESENTATION_CONTEXT ( 'NONE', 'WORKASPACE' ) );
#289 = EDGE_LOOP ( 'NONE', ( #208, #180, #299, #333 ) ) ;
#290 = APPROVAL_ROLE ( '' ) ;
#291 = TOROIDAL_SURFACE ( 'NONE', #319, 8.019999999999999574, 0.5799999999999987388 ) ;
#292 = ADVANCED_FACE ( 'NONE', ( #274 ), #304, .F. ) ;
#293 = VERTEX_POINT ( 'NONE', #250 ) ;
#294 = EDGE_CURVE ( 'NONE', #266, #74, #71, .T. ) ;
#295 = ORIENTED_EDGE ( 'NONE', *, *, #99, .T. ) ;
#296 = CARTESIAN_POINT ( 'NONE',  ( 8.600000000000013856, 2817.965330118411202, 1.053196247266723694E-15 ) ) ;
#297 = ORIENTED_EDGE ( 'NONE', *, *, #190, .F. ) ;
#298 = AXIS2_PLACEMENT_3D ( 'NONE', #166, #167, #30 ) ;
#299 = ORIENTED_EDGE ( 'NONE', *, *, #162, .T. ) ;
#300 = EDGE_CURVE ( 'NONE', #156, #199, #114, .T. ) ;
#301 = DIRECTION ( 'NONE',  ( 4.596983092540331490E-18, 1.000000000000000000, -0.000000000000000000 ) ) ;
#302 = CARTESIAN_POINT ( 'NONE',  ( 8.436064400715565625, 7.433315411173868625, 1.043158086920224038E-15 ) ) ;
#303 = LINE ( 'NONE', #98, #152 ) ;
#304 = SPHERICAL_SURFACE ( 'NONE', #27, 9.759999999999999787 ) ;
#305 = ORIENTED_EDGE ( 'NONE', *, *, #308, .T. ) ;
#306 = EDGE_CURVE ( 'NONE', #74, #72, #110, .T. ) ;
#307 = DIRECTION ( 'NONE',  ( 1.000000000000000000, 0.000000000000000000, 1.224646799147352221E-16 ) ) ;
#308 = EDGE_CURVE ( 'NONE', #160, #280, #68, .T. ) ;
#309 = DIRECTION ( 'NONE',  ( -1.000000000000000000, 4.596983092540343816E-18, 0.000000000000000000 ) ) ;
#310 = CC_DESIGN_PERSON_AND_ORGANIZATION_ASSIGNMENT ( #146, #117, ( #23 ) ) ;
#311 = CYLINDRICAL_SURFACE ( 'NONE', #298, 8.599999999999999645 ) ;
#312 = PERSON ( 'UNSPECIFIED', 'UNSPECIFIED', 'UNSPECIFIED', ('UNSPECIFIED'), ('UNSPECIFIED'), ('UNSPECIFIED') ) ;
#313 = ORGANIZATION ( 'UNSPECIFIED', 'UNSPECIFIED', '' ) ;
#314 = AXIS2_PLACEMENT_3D ( 'NONE', #129, #4, #213 ) ;
#315 =( NAMED_UNIT ( * ) SI_UNIT ( $, .STERADIAN. ) SOLID_ANGLE_UNIT ( ) );
#316 = FACE_OUTER_BOUND ( 'NONE', #177, .T. ) ;
#317 = FACE_OUTER_BOUND ( 'NONE', #289, .T. ) ;
#318 = APPROVAL_ROLE ( '' ) ;
#319 = AXIS2_PLACEMENT_3D ( 'NONE', #240, #172, #38 ) ;
#320 = PERSON_AND_ORGANIZATION ( #312, #313 ) ;
#321 = CIRCLE ( 'NONE', #60, 8.599999999999997868 ) ;
#322 = APPROVAL_DATE_TIME ( #173, #179 ) ;
#323 = DESIGN_CONTEXT ( 'detailed design', #231, 'design' ) ;
#324 = ADVANCED_FACE ( 'NONE', ( #116 ), #284, .T. ) ;
#325 = ORIENTED_EDGE ( 'NONE', *, *, #306, .T. ) ;
#326 = AXIS2_PLACEMENT_3D ( 'NONE', #112, #142, #57 ) ;
#327 = ORIENTED_EDGE ( 'NONE', *, *, #14, .T. ) ;
#328 = VERTEX_POINT ( 'NONE', #90 ) ;
#329 = LINE ( 'NONE', #22, #359 ) ;
#330 = VERTEX_POINT ( 'NONE', #286 ) ;
#331 = CC_DESIGN_SECURITY_CLASSIFICATION ( #265, ( #103 ) ) ;
#332 = CARTESIAN_POINT ( 'NONE',  ( 1.387778780781445676E-14, 2817.965330118411202, 0.000000000000000000 ) ) ;
#333 = ORIENTED_EDGE ( 'NONE', *, *, #233, .F. ) ;
#334 = DIRECTION ( 'NONE',  ( -1.000000000000000000, 0.000000000000000000, 0.000000000000000000 ) ) ;
#335 = EDGE_CURVE ( 'NONE', #74, #266, #226, .T. ) ;
#336 = DIRECTION ( 'NONE',  ( -1.000000000000000000, 0.000000000000000000, 0.000000000000000000 ) ) ;
#337 = DIRECTION ( 'NONE',  ( 4.596983092540343816E-18, 1.000000000000000000, -0.000000000000000000 ) ) ;
#338 = VECTOR ( 'NONE', #272, 1000.000000000000000 ) ;
#339 = DIRECTION ( 'NONE',  ( -1.224646799147353207E-16, 5.629680630014033300E-34, 1.000000000000000000 ) ) ;
#340 = DIRECTION ( 'NONE',  ( 0.000000000000000000, 0.000000000000000000, 1.000000000000000000 ) ) ;
#341 = AXIS2_PLACEMENT_3D ( 'NONE', #188, #26, #309 ) ;
#342 = APPROVAL_STATUS ( 'not_yet_approved' ) ;
#343 = DIRECTION ( 'NONE',  ( -1.000000000000000000, 4.596983092540343816E-18, 0.000000000000000000 ) ) ;
#344 = PERSON_AND_ORGANIZATION ( #312, #313 ) ;
#345 = EDGE_CURVE ( 'NONE', #330, #238, #321, .T. ) ;
#346 = DIRECTION ( 'NONE',  ( 4.596983092540343816E-18, 1.000000000000000000, -0.000000000000000000 ) ) ;
#347 = LOCAL_TIME ( 11, 58, 3.000000000000000000, #121 ) ;
#348 = ORIENTED_EDGE ( 'NONE', *, *, #345, .F. ) ;
#349 = ORIENTED_EDGE ( 'NONE', *, *, #335, .T. ) ;
#350 = CC_DESIGN_PERSON_AND_ORGANIZATION_ASSIGNMENT ( #225, #201, ( #103 ) ) ;
#351 = ORIENTED_EDGE ( 'NONE', *, *, #300, .F. ) ;
#352 = DIRECTION ( 'NONE',  ( 4.596983092540343816E-18, 1.000000000000000000, -0.000000000000000000 ) ) ;
#353 = EDGE_LOOP ( 'NONE', ( #154, #181, #49, #282 ) ) ;
#354 = ORIENTED_EDGE ( 'NONE', *, *, #192, .F. ) ;
#355 = DIRECTION ( 'NONE',  ( -1.000000000000000000, 0.000000000000000000, 0.000000000000000000 ) ) ;
#356 = CARTESIAN_POINT ( 'NONE',  ( 6.600000000000000533, 6.430104310787058353, 8.082668874372531019E-16 ) ) ;
#357 = DIRECTION ( 'NONE',  ( -1.224646799147353207E-16, 5.629680630014033300E-34, 1.000000000000000000 ) ) ;
#358 = APPROVAL_PERSON_ORGANIZATION ( #205, #202, #290 ) ;
#359 = VECTOR ( 'NONE', #133, 1000.000000000000000 ) ;
ENDSEC;
END-ISO-10303-21;
