ISO-10303-21;
HEADER;
FILE_DESCRIPTION (( 'STEP AP203' ),
    '1' );
FILE_NAME ('3D_GR1214_42.4x2_188701400.STEP',
    '2024-10-08T07:10:37',
    ( '' ),
    ( '' ),
    'SwSTEP 2.0',
    'SolidWorks 2024',
    '' );
FILE_SCHEMA (( 'CONFIG_CONTROL_DESIGN' ));
ENDSEC;

DATA;
#1 = FACE_OUTER_BOUND ( 'NONE', #365, .T. ) ;
#2 = VERTEX_POINT ( 'NONE', #140 ) ;
#3 = AXIS2_PLACEMENT_3D ( 'NONE', #176, #289, #377 ) ;
#4 = ORIENTED_EDGE ( 'NONE', *, *, #61, .T. ) ;
#5 = ADVANCED_FACE ( 'NONE', ( #42, #78 ), #138, .F. ) ;
#6 = DIRECTION ( 'NONE',  ( 1.000000000000000000, 0.000000000000000000, 0.000000000000000000 ) ) ;
#7 = ORIENTED_EDGE ( 'NONE', *, *, #172, .T. ) ;
#8 = CARTESIAN_POINT ( 'NONE',  ( 0.000000000000000000, 0.000000000000000000, 0.000000000000000000 ) ) ;
#9 = EDGE_LOOP ( 'NONE', ( #275, #366 ) ) ;
#10 = AXIS2_PLACEMENT_3D ( 'NONE', #133, #28, #290 ) ;
#11 = DIRECTION ( 'NONE',  ( 0.000000000000000000, 0.000000000000000000, -1.000000000000000000 ) ) ;
#12 = LOCAL_TIME ( 9, 10, 37.00000000000000000, #53 ) ;
#13 = ORIENTED_EDGE ( 'NONE', *, *, #172, .F. ) ;
#14 = EDGE_CURVE ( 'NONE', #216, #95, #46, .T. ) ;
#15 = DATE_AND_TIME ( #103, #388 ) ;
#16 = FACE_OUTER_BOUND ( 'NONE', #37, .T. ) ;
#17 = ADVANCED_FACE ( 'NONE', ( #323 ), #270, .T. ) ;
#18 = CARTESIAN_POINT ( 'NONE',  ( 4.571038726967977972, 0.000000000000000000, 69.40961473851436381 ) ) ;
#19 = DIRECTION ( 'NONE',  ( 1.000000000000000000, 0.000000000000000000, 0.000000000000000000 ) ) ;
#20 = PLANE ( 'NONE',  #355 ) ;
#21 = PERSON_AND_ORGANIZATION ( #52, #123 ) ;
#22 = LINE ( 'NONE', #26, #187 ) ;
#23 = CC_DESIGN_PERSON_AND_ORGANIZATION_ASSIGNMENT ( #252, #38, ( #180 ) ) ;
#24 = AXIS2_PLACEMENT_3D ( 'NONE', #213, #330, #6 ) ;
#25 = PERSON_AND_ORGANIZATION ( #52, #123 ) ;
#26 = CARTESIAN_POINT ( 'NONE',  ( -14.62896127303202398, 0.000000000000000000, 69.40961473851436381 ) ) ;
#27 = DIRECTION ( 'NONE',  ( -1.000000000000000000, 0.000000000000000000, 0.000000000000000000 ) ) ;
#28 = DIRECTION ( 'NONE',  ( 0.000000000000000000, 0.000000000000000000, 1.000000000000000000 ) ) ;
#29 = TOROIDAL_SURFACE ( 'NONE', #143, 43.79999999999999716, 19.20000000000000284 ) ;
#30 = CARTESIAN_POINT ( 'NONE',  ( 23.77103872696797993, 2.351321854362918079E-15, 69.40961473851436381 ) ) ;
#31 = CARTESIAN_POINT ( 'NONE',  ( -14.62896127303202398, 0.000000000000000000, 69.40961473851436381 ) ) ;
#32 = COORDINATED_UNIVERSAL_TIME_OFFSET ( 1, 0, .AHEAD. ) ;
#33 = ORIENTED_EDGE ( 'NONE', *, *, #91, .T. ) ;
#34 = TOROIDAL_SURFACE ( 'NONE', #86, 43.79999999999999716, 19.20000000000000284 ) ;
#35 = CARTESIAN_POINT ( 'NONE',  ( 4.571038726967977972, 0.000000000000000000, 69.40961473851436381 ) ) ;
#36 = ORIENTED_EDGE ( 'NONE', *, *, #217, .T. ) ;
#37 = EDGE_LOOP ( 'NONE', ( #312, #141, #70, #341 ) ) ;
#38 = PERSON_AND_ORGANIZATION_ROLE ( 'creator' ) ;
#39 = VERTEX_POINT ( 'NONE', #320 ) ;
#40 = CIRCLE ( 'NONE', #317, 21.19999999999999929 ) ;
#41 = FACE_OUTER_BOUND ( 'NONE', #277, .T. ) ;
#42 = FACE_BOUND ( 'NONE', #257, .T. ) ;
#43 = EDGE_CURVE ( 'NONE', #63, #228, #112, .T. ) ;
#44 = CARTESIAN_POINT ( 'NONE',  ( 48.37103872696797424, 0.000000000000000000, -20.59038526148563619 ) ) ;
#45 = APPLICATION_CONTEXT ( 'configuration controlled 3d designs of mechanical parts and assemblies' ) ;
#46 = CIRCLE ( 'NONE', #300, 65.00000000000000000 ) ;
#47 = AXIS2_PLACEMENT_3D ( 'NONE', #310, #161, #11 ) ;
#48 = DIRECTION ( 'NONE',  ( 0.000000000000000000, 0.000000000000000000, 1.000000000000000000 ) ) ;
#49 = DIRECTION ( 'NONE',  ( -0.000000000000000000, -1.000000000000000000, -0.000000000000000000 ) ) ;
#50 = EDGE_CURVE ( 'NONE', #39, #63, #170, .T. ) ;
#51 = DIRECTION ( 'NONE',  ( 0.000000000000000000, 0.000000000000000000, -1.000000000000000000 ) ) ;
#52 = PERSON ( 'UNSPECIFIED', 'UNSPECIFIED', 'UNSPECIFIED', ('UNSPECIFIED'), ('UNSPECIFIED'), ('UNSPECIFIED') ) ;
#53 = COORDINATED_UNIVERSAL_TIME_OFFSET ( 1, 0, .AHEAD. ) ;
#54 = CARTESIAN_POINT ( 'NONE',  ( 25.17103872696798206, 2.522772406243547839E-15, 69.40961473851436381 ) ) ;
#55 = CARTESIAN_POINT ( 'NONE',  ( 48.37103872696797424, 0.000000000000000000, 44.40961473851437091 ) ) ;
#56 = CARTESIAN_POINT ( 'NONE',  ( 48.37103872696797424, 0.000000000000000000, 44.40961473851437091 ) ) ;
#57 = DIRECTION ( 'NONE',  ( -0.000000000000000000, -0.000000000000000000, -1.000000000000000000 ) ) ;
#58 = CIRCLE ( 'NONE', #191, 20.60000000000000497 ) ;
#59 = CIRCLE ( 'NONE', #47, 24.59999999999999787 ) ;
#60 = DIRECTION ( 'NONE',  ( -1.000000000000000000, 0.000000000000000000, 0.000000000000000000 ) ) ;
#61 = EDGE_CURVE ( 'NONE', #256, #228, #58, .T. ) ;
#62 = APPLICATION_PROTOCOL_DEFINITION ( 'international standard', 'config_control_design', 1994, #45 ) ;
#63 = VERTEX_POINT ( 'NONE', #263 ) ;
#64 = PERSON_AND_ORGANIZATION ( #52, #123 ) ;
#65 = EDGE_LOOP ( 'NONE', ( #249, #128 ) ) ;
#66 = DIRECTION ( 'NONE',  ( 1.000000000000000000, 0.000000000000000000, 0.000000000000000000 ) ) ;
#67 = ORIENTED_EDGE ( 'NONE', *, *, #372, .F. ) ;
#68 = ADVANCED_FACE ( 'NONE', ( #16 ), #344, .T. ) ;
#69 = APPLICATION_PROTOCOL_DEFINITION ( 'international standard', 'config_control_design', 1994, #127 ) ;
#70 = ORIENTED_EDGE ( 'NONE', *, *, #250, .F. ) ;
#71 = VERTEX_POINT ( 'NONE', #175 ) ;
#72 = VECTOR ( 'NONE', #211, 1000.000000000000000 ) ;
#73 = PERSON_AND_ORGANIZATION_ROLE ( 'classification_officer' ) ;
#74 = CC_DESIGN_PERSON_AND_ORGANIZATION_ASSIGNMENT ( #25, #73, ( #230 ) ) ;
#75 = DIRECTION ( 'NONE',  ( -1.000000000000000000, 0.000000000000000000, -1.680321552529725535E-16 ) ) ;
#76 = CARTESIAN_POINT ( 'NONE',  ( 4.571038726967977972, 0.000000000000000000, 69.40961473851436381 ) ) ;
#77 = CIRCLE ( 'NONE', #361, 20.60000000000000497 ) ;
#78 = FACE_OUTER_BOUND ( 'NONE', #65, .T. ) ;
#79 = APPROVAL ( #224, 'UNSPECIFIED' ) ;
#80 = APPROVAL_ROLE ( '' ) ;
#81 = DIRECTION ( 'NONE',  ( 0.000000000000000000, 0.000000000000000000, 1.000000000000000000 ) ) ;
#82 = APPROVAL_DATE_TIME ( #373, #183 ) ;
#83 = UNCERTAINTY_MEASURE_WITH_UNIT (LENGTH_MEASURE( 1.000000000000000082E-05 ), #255, 'distance_accuracy_value', 'NONE');
#84 = DIRECTION ( 'NONE',  ( -0.000000000000000000, -0.000000000000000000, -1.000000000000000000 ) ) ;
#85 = AXIS2_PLACEMENT_3D ( 'NONE', #248, #325, #152 ) ;
#86 = AXIS2_PLACEMENT_3D ( 'NONE', #55, #181, #247 ) ;
#87 = DIRECTION ( 'NONE',  ( 1.000000000000000000, 1.066863758001642026E-31, -3.614007241618347785E-16 ) ) ;
#88 = ADVANCED_FACE ( 'NONE', ( #201 ), #238, .F. ) ;
#89 = DIRECTION ( 'NONE',  ( -0.000000000000000000, -1.000000000000000000, -0.000000000000000000 ) ) ;
#90 = CC_DESIGN_APPROVAL ( #79, ( #180 ) ) ;
#91 = EDGE_CURVE ( 'NONE', #374, #162, #220, .T. ) ;
#92 = PERSON_AND_ORGANIZATION_ROLE ( 'design_owner' ) ;
#93 = ORIENTED_EDGE ( 'NONE', *, *, #288, .F. ) ;
#94 = DATE_TIME_ROLE ( 'creation_date' ) ;
#95 = VERTEX_POINT ( 'NONE', #44 ) ;
#96 = AXIS2_PLACEMENT_3D ( 'NONE', #376, #49, #348 ) ;
#97 = CARTESIAN_POINT ( 'NONE',  ( 4.571038726967977972, 0.000000000000000000, 44.40961473851436381 ) ) ;
#98 = ORIENTED_EDGE ( 'NONE', *, *, #205, .T. ) ;
#99 = CIRCLE ( 'NONE', #150, 19.20000000000000284 ) ;
#100 = PERSON_AND_ORGANIZATION ( #52, #123 ) ;
#101 = ORIENTED_EDGE ( 'NONE', *, *, #43, .F. ) ;
#102 = ADVANCED_BREP_SHAPE_REPRESENTATION ( '3D_GR1214_42.4x2_188701400', ( #262, #165 ), #237 ) ;
#103 = CALENDAR_DATE ( 2024, 8, 10 ) ;
#104 = ORIENTED_EDGE ( 'NONE', *, *, #288, .T. ) ;
#105 = ORIENTED_EDGE ( 'NONE', *, *, #217, .F. ) ;
#106 = AXIS2_PLACEMENT_3D ( 'NONE', #206, #302, #246 ) ;
#107 = LOCAL_TIME ( 9, 10, 37.00000000000000000, #163 ) ;
#108 = ORIENTED_EDGE ( 'NONE', *, *, #231, .F. ) ;
#109 = CARTESIAN_POINT ( 'NONE',  ( 48.37103872696797424, 0.000000000000000000, 44.40961473851437091 ) ) ;
#110 = FACE_OUTER_BOUND ( 'NONE', #9, .T. ) ;
#111 = APPROVAL_ROLE ( '' ) ;
#112 = LINE ( 'NONE', #322, #137 ) ;
#113 = APPROVAL_PERSON_ORGANIZATION ( #177, #183, #111 ) ;
#114 = DIRECTION ( 'NONE',  ( -1.000000000000000000, 0.000000000000000000, -3.273063162220390819E-16 ) ) ;
#115 = ADVANCED_FACE ( 'NONE', ( #286 ), #349, .F. ) ;
#116 = DIRECTION ( 'NONE',  ( 3.614007241618347785E-16, -2.952024405805843690E-16, 1.000000000000000000 ) ) ;
#117 = FACE_OUTER_BOUND ( 'NONE', #219, .T. ) ;
#118 = CIRCLE ( 'NONE', #309, 21.19999999999999929 ) ;
#119 = LINE ( 'NONE', #54, #72 ) ;
#120 = CARTESIAN_POINT ( 'NONE',  ( 48.37103872696797424, 0.000000000000000000, 0.6096147385143693143 ) ) ;
#121 = ADVANCED_FACE ( 'NONE', ( #110, #233 ), #20, .T. ) ;
#122 = VERTEX_POINT ( 'NONE', #203 ) ;
#123 = ORGANIZATION ( 'UNSPECIFIED', 'UNSPECIFIED', '' ) ;
#124 = DATE_AND_TIME ( #156, #214 ) ;
#125 = EDGE_LOOP ( 'NONE', ( #306, #200, #280, #36 ) ) ;
#126 = CARTESIAN_POINT ( 'NONE',  ( 4.571038726967977972, 0.000000000000000000, 44.40961473851436381 ) ) ;
#127 = APPLICATION_CONTEXT ( 'configuration controlled 3d designs of mechanical parts and assemblies' ) ;
#128 = ORIENTED_EDGE ( 'NONE', *, *, #276, .F. ) ;
#129 = ORIENTED_EDGE ( 'NONE', *, *, #343, .F. ) ;
#130 = AXIS2_PLACEMENT_3D ( 'NONE', #168, #287, #321 ) ;
#131 = ORIENTED_EDGE ( 'NONE', *, *, #276, .T. ) ;
#132 = ADVANCED_FACE ( 'NONE', ( #41 ), #260, .T. ) ;
#133 = CARTESIAN_POINT ( 'NONE',  ( 4.571038726967977972, 0.000000000000000000, 69.40961473851436381 ) ) ;
#134 = EDGE_CURVE ( 'NONE', #362, #169, #184, .T. ) ;
#135 = COORDINATED_UNIVERSAL_TIME_OFFSET ( 1, 0, .AHEAD. ) ;
#136 = DIRECTION ( 'NONE',  ( 0.000000000000000000, 0.000000000000000000, 1.000000000000000000 ) ) ;
#137 = VECTOR ( 'NONE', #284, 1000.000000000000000 ) ;
#138 = PLANE ( 'NONE',  #157 ) ;
#139 = EDGE_CURVE ( 'NONE', #169, #122, #358, .T. ) ;
#140 = CARTESIAN_POINT ( 'NONE',  ( -14.62896127303202398, 0.000000000000000000, 44.40961473851436381 ) ) ;
#141 = ORIENTED_EDGE ( 'NONE', *, *, #14, .T. ) ;
#142 = DATE_AND_TIME ( #145, #12 ) ;
#143 = AXIS2_PLACEMENT_3D ( 'NONE', #56, #354, #299 ) ;
#144 = CARTESIAN_POINT ( 'NONE',  ( 4.571038726967977972, 0.000000000000000000, 69.40961473851436381 ) ) ;
#145 = CALENDAR_DATE ( 2024, 8, 10 ) ;
#146 = DIRECTION ( 'NONE',  ( 0.000000000000000000, 0.000000000000000000, -1.000000000000000000 ) ) ;
#147 = CC_DESIGN_PERSON_AND_ORGANIZATION_ASSIGNMENT ( #21, #345, ( #223 ) ) ;
#148 = CARTESIAN_POINT ( 'NONE',  ( 25.77103872696797993, 2.596251214192388770E-15, 44.40961473851437091 ) ) ;
#149 = CARTESIAN_POINT ( 'NONE',  ( 48.37103872696797424, 0.000000000000000000, 19.80961473851436949 ) ) ;
#150 = AXIS2_PLACEMENT_3D ( 'NONE', #126, #281, #60 ) ;
#151 = ADVANCED_FACE ( 'NONE', ( #242 ), #29, .F. ) ;
#152 = DIRECTION ( 'NONE',  ( 0.000000000000000000, 0.000000000000000000, -1.000000000000000000 ) ) ;
#153 = CARTESIAN_POINT ( 'NONE',  ( 48.37103872696797424, 0.000000000000000000, -18.59038526148563264 ) ) ;
#154 = ORIENTED_EDGE ( 'NONE', *, *, #139, .T. ) ;
#155 = ADVANCED_FACE ( 'NONE', ( #117 ), #324, .F. ) ;
#156 = CALENDAR_DATE ( 2024, 8, 10 ) ;
#157 = AXIS2_PLACEMENT_3D ( 'NONE', #229, #264, #75 ) ;
#158 = ORIENTED_EDGE ( 'NONE', *, *, #205, .F. ) ;
#159 = DIRECTION ( 'NONE',  ( -1.000000000000000000, 0.000000000000000000, -3.273063162220390819E-16 ) ) ;
#160 = ORIENTED_EDGE ( 'NONE', *, *, #303, .F. ) ;
#161 = DIRECTION ( 'NONE',  ( -0.000000000000000000, -1.000000000000000000, -0.000000000000000000 ) ) ;
#162 = VERTEX_POINT ( 'NONE', #149 ) ;
#163 = COORDINATED_UNIVERSAL_TIME_OFFSET ( 1, 0, .AHEAD. ) ;
#164 = ORIENTED_EDGE ( 'NONE', *, *, #134, .T. ) ;
#165 = AXIS2_PLACEMENT_3D ( 'NONE', #8, #337, #66 ) ;
#166 = DATE_TIME_ROLE ( 'classification_date' ) ;
#167 = EDGE_CURVE ( 'NONE', #282, #71, #198, .T. ) ;
#168 = CARTESIAN_POINT ( 'NONE',  ( 4.571038726967977972, 0.000000000000000000, 69.40961473851436381 ) ) ;
#169 = VERTEX_POINT ( 'NONE', #360 ) ;
#170 = CIRCLE ( 'NONE', #375, 20.60000000000000497 ) ;
#171 = DIRECTION ( 'NONE',  ( -0.000000000000000000, -1.000000000000000000, -0.000000000000000000 ) ) ;
#172 = EDGE_CURVE ( 'NONE', #95, #71, #185, .T. ) ;
#173 = CIRCLE ( 'NONE', #222, 21.19999999999999929 ) ;
#174 = CC_DESIGN_APPROVAL ( #363, ( #223 ) ) ;
#175 = CARTESIAN_POINT ( 'NONE',  ( 48.37103872696797424, 2.596251214192388770E-15, 21.80961473851436949 ) ) ;
#176 = CARTESIAN_POINT ( 'NONE',  ( 48.37103872696797424, 0.000000000000000000, 0.6096147385143690922 ) ) ;
#177 = PERSON_AND_ORGANIZATION ( #52, #123 ) ;
#178 = SHAPE_DEFINITION_REPRESENTATION ( #307, #102 ) ;
#179 = DIRECTION ( 'NONE',  ( -0.000000000000000000, -0.000000000000000000, -1.000000000000000000 ) ) ;
#180 = PRODUCT_DEFINITION ( 'UNKNOWN', '', #223, #234 ) ;
#181 = DIRECTION ( 'NONE',  ( -0.000000000000000000, -1.000000000000000000, -0.000000000000000000 ) ) ;
#182 = CARTESIAN_POINT ( 'NONE',  ( 4.571038726967977972, 0.000000000000000000, 44.40961473851436381 ) ) ;
#183 = APPROVAL ( #227, 'UNSPECIFIED' ) ;
#184 = CIRCLE ( 'NONE', #10, 19.20000000000000284 ) ;
#185 = CIRCLE ( 'NONE', #85, 21.19999999999999929 ) ;
#186 = CARTESIAN_POINT ( 'NONE',  ( -16.02896127303202434, 0.000000000000000000, 44.40961473851436381 ) ) ;
#187 = VECTOR ( 'NONE', #179, 1000.000000000000000 ) ;
#188 = DIRECTION ( 'NONE',  ( 1.000000000000000000, 0.000000000000000000, 0.000000000000000000 ) ) ;
#189 = ORIENTED_EDGE ( 'NONE', *, *, #14, .F. ) ;
#190 = APPROVAL_STATUS ( 'not_yet_approved' ) ;
#191 = AXIS2_PLACEMENT_3D ( 'NONE', #283, #81, #19 ) ;
#192 = ORIENTED_EDGE ( 'NONE', *, *, #250, .T. ) ;
#193 = DIRECTION ( 'NONE',  ( 1.000000000000000000, -0.000000000000000000, -0.000000000000000000 ) ) ;
#194 = ORIENTED_EDGE ( 'NONE', *, *, #167, .T. ) ;
#195 = APPROVAL_ROLE ( '' ) ;
#196 = ORIENTED_EDGE ( 'NONE', *, *, #91, .F. ) ;
#197 = EDGE_LOOP ( 'NONE', ( #232, #318, #4, #101 ) ) ;
#198 = CIRCLE ( 'NONE', #106, 22.59999999999999787 ) ;
#199 = CIRCLE ( 'NONE', #271, 19.20000000000000284 ) ;
#200 = ORIENTED_EDGE ( 'NONE', *, *, #291, .T. ) ;
#201 = FACE_OUTER_BOUND ( 'NONE', #314, .T. ) ;
#202 = DIRECTION ( 'NONE',  ( 1.000000000000000000, 0.000000000000000000, 0.000000000000000000 ) ) ;
#203 = CARTESIAN_POINT ( 'NONE',  ( 23.77103872696797993, 2.351321854362918079E-15, 44.40961473851436381 ) ) ;
#204 = DIRECTION ( 'NONE',  ( -0.000000000000000000, -1.000000000000000000, -0.000000000000000000 ) ) ;
#205 = EDGE_CURVE ( 'NONE', #2, #374, #308, .T. ) ;
#206 = CARTESIAN_POINT ( 'NONE',  ( 48.37103872696797424, 2.596251214192388770E-15, 44.40961473851437091 ) ) ;
#207 = VECTOR ( 'NONE', #57, 1000.000000000000000 ) ;
#208 = AXIS2_PLACEMENT_3D ( 'NONE', #182, #210, #209 ) ;
#209 = DIRECTION ( 'NONE',  ( -1.000000000000000000, 0.000000000000000000, 0.000000000000000000 ) ) ;
#210 = DIRECTION ( 'NONE',  ( 1.680321552529725535E-16, 0.000000000000000000, -1.000000000000000000 ) ) ;
#211 = DIRECTION ( 'NONE',  ( -0.000000000000000000, -0.000000000000000000, -1.000000000000000000 ) ) ;
#212 = CIRCLE ( 'NONE', #208, 19.20000000000000284 ) ;
#213 = CARTESIAN_POINT ( 'NONE',  ( 4.571038726967977972, 0.000000000000000000, 69.40961473851436381 ) ) ;
#214 = LOCAL_TIME ( 9, 10, 37.00000000000000000, #32 ) ;
#215 = DIRECTION ( 'NONE',  ( 0.000000000000000000, 0.000000000000000000, 1.000000000000000000 ) ) ;
#216 = VERTEX_POINT ( 'NONE', #385 ) ;
#217 = EDGE_CURVE ( 'NONE', #2, #122, #212, .T. ) ;
#218 =( NAMED_UNIT ( * ) SI_UNIT ( $, .STERADIAN. ) SOLID_ANGLE_UNIT ( ) );
#219 = EDGE_LOOP ( 'NONE', ( #316, #196 ) ) ;
#220 = CIRCLE ( 'NONE', #3, 19.20000000000000284 ) ;
#221 = EDGE_LOOP ( 'NONE', ( #225, #371 ) ) ;
#222 = AXIS2_PLACEMENT_3D ( 'NONE', #279, #304, #159 ) ;
#223 = PRODUCT_DEFINITION_FORMATION_WITH_SPECIFIED_SOURCE ( 'ANY', '', #253, .NOT_KNOWN. ) ;
#224 = APPROVAL_STATUS ( 'not_yet_approved' ) ;
#225 = ORIENTED_EDGE ( 'NONE', *, *, #134, .F. ) ;
#226 = EDGE_CURVE ( 'NONE', #39, #256, #119, .T. ) ;
#227 = APPROVAL_STATUS ( 'not_yet_approved' ) ;
#228 = VERTEX_POINT ( 'NONE', #186 ) ;
#229 = CARTESIAN_POINT ( 'NONE',  ( 4.571038726967977972, 0.000000000000000000, 44.40961473851436381 ) ) ;
#230 = SECURITY_CLASSIFICATION ( '', '', #293 ) ;
#231 = EDGE_CURVE ( 'NONE', #362, #2, #22, .T. ) ;
#232 = ORIENTED_EDGE ( 'NONE', *, *, #50, .F. ) ;
#233 = FACE_BOUND ( 'NONE', #221, .T. ) ;
#234 = DESIGN_CONTEXT ( 'detailed design', #45, 'design' ) ;
#235 = DIRECTION ( 'NONE',  ( -0.000000000000000000, -0.000000000000000000, -1.000000000000000000 ) ) ;
#236 = AXIS2_PLACEMENT_3D ( 'NONE', #109, #171, #265 ) ;
#237 =( GEOMETRIC_REPRESENTATION_CONTEXT ( 3 ) GLOBAL_UNCERTAINTY_ASSIGNED_CONTEXT ( ( #83 ) ) GLOBAL_UNIT_ASSIGNED_CONTEXT ( ( #255, #370, #218 ) ) REPRESENTATION_CONTEXT ( 'NONE', 'WORKASPACE' ) );
#238 = CYLINDRICAL_SURFACE ( 'NONE', #130, 19.20000000000000284 ) ;
#239 = ADVANCED_FACE ( 'NONE', ( #326 ), #34, .F. ) ;
#240 = CALENDAR_DATE ( 2024, 8, 10 ) ;
#241 = FACE_OUTER_BOUND ( 'NONE', #197, .T. ) ;
#242 = FACE_OUTER_BOUND ( 'NONE', #259, .T. ) ;
#243 = AXIS2_PLACEMENT_3D ( 'NONE', #120, #328, #272 ) ;
#244 = CIRCLE ( 'NONE', #387, 19.20000000000000284 ) ;
#245 = CC_DESIGN_DATE_AND_TIME_ASSIGNMENT ( #364, #94, ( #180 ) ) ;
#246 = DIRECTION ( 'NONE',  ( 0.000000000000000000, 0.000000000000000000, -1.000000000000000000 ) ) ;
#247 = DIRECTION ( 'NONE',  ( 0.000000000000000000, 0.000000000000000000, -1.000000000000000000 ) ) ;
#248 = CARTESIAN_POINT ( 'NONE',  ( 48.37103872696797424, 0.000000000000000000, 0.6096147385143690922 ) ) ;
#249 = ORIENTED_EDGE ( 'NONE', *, *, #296, .F. ) ;
#250 = EDGE_CURVE ( 'NONE', #71, #95, #118, .T. ) ;
#251 = EDGE_LOOP ( 'NONE', ( #158, #129, #104, #339 ) ) ;
#252 = PERSON_AND_ORGANIZATION ( #52, #123 ) ;
#253 = PRODUCT ( '3D_GR1214_42.4x2_188701400', '3D_GR1214_42.4x2_188701400', '', ( #368 ) ) ;
#254 = ORIENTED_EDGE ( 'NONE', *, *, #343, .T. ) ;
#255 =( LENGTH_UNIT ( ) NAMED_UNIT ( * ) SI_UNIT ( .MILLI., .METRE. ) );
#256 = VERTEX_POINT ( 'NONE', #273 ) ;
#257 = EDGE_LOOP ( 'NONE', ( #160, #334 ) ) ;
#258 = CARTESIAN_POINT ( 'NONE',  ( 48.37103872696797424, 0.000000000000000000, 0.6096147385143690922 ) ) ;
#259 = EDGE_LOOP ( 'NONE', ( #105, #98, #33, #93 ) ) ;
#260 = SPHERICAL_SURFACE ( 'NONE', #243, 21.19999999999999929 ) ;
#261 = ADVANCED_FACE ( 'NONE', ( #1 ), #295, .T. ) ;
#262 = MANIFOLD_SOLID_BREP ( 'Aufsatz-Linear austragen5', #335 ) ;
#263 = CARTESIAN_POINT ( 'NONE',  ( -16.02896127303202434, 0.000000000000000000, 69.40961473851436381 ) ) ;
#264 = DIRECTION ( 'NONE',  ( 1.680321552529725535E-16, 0.000000000000000000, -1.000000000000000000 ) ) ;
#265 = DIRECTION ( 'NONE',  ( 0.000000000000000000, 0.000000000000000000, -1.000000000000000000 ) ) ;
#266 = CC_DESIGN_PERSON_AND_ORGANIZATION_ASSIGNMENT ( #100, #92, ( #253 ) ) ;
#267 = DIRECTION ( 'NONE',  ( -0.000000000000000000, -0.000000000000000000, -1.000000000000000000 ) ) ;
#268 = CARTESIAN_POINT ( 'NONE',  ( 4.571038726967977972, 0.000000000000000000, 44.40961473851436381 ) ) ;
#269 = CARTESIAN_POINT ( 'NONE',  ( 4.571038726967977972, 0.000000000000000000, 69.40961473851436381 ) ) ;
#270 = TOROIDAL_SURFACE ( 'NONE', #236, 43.79999999999999716, 21.19999999999999929 ) ;
#271 = AXIS2_PLACEMENT_3D ( 'NONE', #258, #193, #340 ) ;
#272 = DIRECTION ( 'NONE',  ( 3.273063162220390819E-16, -2.952024405805843690E-16, 1.000000000000000000 ) ) ;
#273 = CARTESIAN_POINT ( 'NONE',  ( 25.17103872696798206, 2.522772406243547839E-15, 44.40961473851436381 ) ) ;
#274 = DIRECTION ( 'NONE',  ( 1.000000000000000000, 0.000000000000000000, 0.000000000000000000 ) ) ;
#275 = ORIENTED_EDGE ( 'NONE', *, *, #372, .T. ) ;
#276 = EDGE_CURVE ( 'NONE', #216, #282, #40, .T. ) ;
#277 = EDGE_LOOP ( 'NONE', ( #192, #7 ) ) ;
#278 = ORIENTED_EDGE ( 'NONE', *, *, #43, .T. ) ;
#279 = CARTESIAN_POINT ( 'NONE',  ( 4.571038726967977972, 0.000000000000000000, 44.40961473851436381 ) ) ;
#280 = ORIENTED_EDGE ( 'NONE', *, *, #231, .T. ) ;
#281 = DIRECTION ( 'NONE',  ( 1.680321552529725535E-16, 0.000000000000000000, -1.000000000000000000 ) ) ;
#282 = VERTEX_POINT ( 'NONE', #148 ) ;
#283 = CARTESIAN_POINT ( 'NONE',  ( 4.571038726967977972, 0.000000000000000000, 44.40961473851436381 ) ) ;
#284 = DIRECTION ( 'NONE',  ( -0.000000000000000000, -0.000000000000000000, -1.000000000000000000 ) ) ;
#285 = ADVANCED_FACE ( 'NONE', ( #241 ), #352, .T. ) ;
#286 = FACE_OUTER_BOUND ( 'NONE', #125, .T. ) ;
#287 = DIRECTION ( 'NONE',  ( -0.000000000000000000, -0.000000000000000000, -1.000000000000000000 ) ) ;
#288 = EDGE_CURVE ( 'NONE', #122, #162, #59, .T. ) ;
#289 = DIRECTION ( 'NONE',  ( 1.000000000000000000, -0.000000000000000000, -0.000000000000000000 ) ) ;
#290 = DIRECTION ( 'NONE',  ( 1.000000000000000000, 0.000000000000000000, 0.000000000000000000 ) ) ;
#291 = EDGE_CURVE ( 'NONE', #169, #362, #244, .T. ) ;
#292 = AXIS2_PLACEMENT_3D ( 'NONE', #327, #87, #116 ) ;
#293 = SECURITY_CLASSIFICATION_LEVEL ( 'unclassified' ) ;
#294 = CC_DESIGN_APPROVAL ( #183, ( #230 ) ) ;
#295 = CYLINDRICAL_SURFACE ( 'NONE', #356, 20.60000000000000497 ) ;
#296 = EDGE_CURVE ( 'NONE', #282, #216, #173, .T. ) ;
#297 = APPROVAL_DATE_TIME ( #15, #363 ) ;
#298 = DIRECTION ( 'NONE',  ( 1.000000000000000000, 0.000000000000000000, -1.488123152450744052E-16 ) ) ;
#299 = DIRECTION ( 'NONE',  ( 0.000000000000000000, 0.000000000000000000, -1.000000000000000000 ) ) ;
#300 = AXIS2_PLACEMENT_3D ( 'NONE', #347, #204, #346 ) ;
#301 = CIRCLE ( 'NONE', #24, 20.60000000000000497 ) ;
#302 = DIRECTION ( 'NONE',  ( -0.000000000000000000, -1.000000000000000000, -0.000000000000000000 ) ) ;
#303 = EDGE_CURVE ( 'NONE', #228, #256, #77, .T. ) ;
#304 = DIRECTION ( 'NONE',  ( 1.680321552529725535E-16, 0.000000000000000000, -1.000000000000000000 ) ) ;
#305 = PERSON_AND_ORGANIZATION ( #52, #123 ) ;
#306 = ORIENTED_EDGE ( 'NONE', *, *, #139, .F. ) ;
#307 = PRODUCT_DEFINITION_SHAPE ( 'NONE', 'NONE',  #180 ) ;
#308 = CIRCLE ( 'NONE', #367, 63.00000000000000000 ) ;
#309 = AXIS2_PLACEMENT_3D ( 'NONE', #357, #298, #146 ) ;
#310 = CARTESIAN_POINT ( 'NONE',  ( 48.37103872696797424, 2.351321854362918079E-15, 44.40961473851437091 ) ) ;
#311 = LOCAL_TIME ( 9, 10, 37.00000000000000000, #135 ) ;
#312 = ORIENTED_EDGE ( 'NONE', *, *, #296, .T. ) ;
#313 = DIRECTION ( 'NONE',  ( 0.000000000000000000, 0.000000000000000000, 1.000000000000000000 ) ) ;
#314 = EDGE_LOOP ( 'NONE', ( #164, #154, #254, #108 ) ) ;
#315 = APPROVAL_DATE_TIME ( #124, #79 ) ;
#316 = ORIENTED_EDGE ( 'NONE', *, *, #333, .F. ) ;
#317 = AXIS2_PLACEMENT_3D ( 'NONE', #268, #382, #114 ) ;
#318 = ORIENTED_EDGE ( 'NONE', *, *, #226, .T. ) ;
#319 = CC_DESIGN_DATE_AND_TIME_ASSIGNMENT ( #142, #166, ( #230 ) ) ;
#320 = CARTESIAN_POINT ( 'NONE',  ( 25.17103872696798206, 2.522772406243547839E-15, 69.40961473851436381 ) ) ;
#321 = DIRECTION ( 'NONE',  ( -1.000000000000000000, 0.000000000000000000, 0.000000000000000000 ) ) ;
#322 = CARTESIAN_POINT ( 'NONE',  ( -16.02896127303202434, 0.000000000000000000, 69.40961473851436381 ) ) ;
#323 = FACE_OUTER_BOUND ( 'NONE', #342, .T. ) ;
#324 = SPHERICAL_SURFACE ( 'NONE', #292, 19.20000000000000284 ) ;
#325 = DIRECTION ( 'NONE',  ( 1.000000000000000000, 0.000000000000000000, -1.488123152450744052E-16 ) ) ;
#326 = FACE_OUTER_BOUND ( 'NONE', #251, .T. ) ;
#327 = CARTESIAN_POINT ( 'NONE',  ( 48.37103872696797424, 0.000000000000000000, 0.6096147385143693143 ) ) ;
#328 = DIRECTION ( 'NONE',  ( 1.000000000000000000, 9.662162336618645256E-32, -3.273063162220390819E-16 ) ) ;
#329 = APPROVAL_PERSON_ORGANIZATION ( #305, #79, #195 ) ;
#330 = DIRECTION ( 'NONE',  ( 0.000000000000000000, 0.000000000000000000, 1.000000000000000000 ) ) ;
#331 = ORIENTED_EDGE ( 'NONE', *, *, #226, .F. ) ;
#332 = CALENDAR_DATE ( 2024, 8, 10 ) ;
#333 = EDGE_CURVE ( 'NONE', #162, #374, #199, .T. ) ;
#334 = ORIENTED_EDGE ( 'NONE', *, *, #61, .F. ) ;
#335 = CLOSED_SHELL ( 'NONE', ( #151, #68, #88, #285, #17, #5, #132, #121, #261, #115, #155, #239 ) ) ;
#336 = AXIS2_PLACEMENT_3D ( 'NONE', #269, #84, #386 ) ;
#337 = DIRECTION ( 'NONE',  ( 0.000000000000000000, 0.000000000000000000, 1.000000000000000000 ) ) ;
#338 = APPROVAL_PERSON_ORGANIZATION ( #64, #363, #80 ) ;
#339 = ORIENTED_EDGE ( 'NONE', *, *, #333, .T. ) ;
#340 = DIRECTION ( 'NONE',  ( 0.000000000000000000, 0.000000000000000000, 1.000000000000000000 ) ) ;
#341 = ORIENTED_EDGE ( 'NONE', *, *, #167, .F. ) ;
#342 = EDGE_LOOP ( 'NONE', ( #189, #131, #194, #13 ) ) ;
#343 = EDGE_CURVE ( 'NONE', #122, #2, #99, .T. ) ;
#344 = TOROIDAL_SURFACE ( 'NONE', #96, 43.79999999999999716, 21.19999999999999929 ) ;
#345 = PERSON_AND_ORGANIZATION_ROLE ( 'creator' ) ;
#346 = DIRECTION ( 'NONE',  ( 0.000000000000000000, 0.000000000000000000, -1.000000000000000000 ) ) ;
#347 = CARTESIAN_POINT ( 'NONE',  ( 48.37103872696797424, 0.000000000000000000, 44.40961473851437091 ) ) ;
#348 = DIRECTION ( 'NONE',  ( 0.000000000000000000, 0.000000000000000000, -1.000000000000000000 ) ) ;
#349 = CYLINDRICAL_SURFACE ( 'NONE', #350, 19.20000000000000284 ) ;
#350 = AXIS2_PLACEMENT_3D ( 'NONE', #18, #235, #378 ) ;
#351 = DIRECTION ( 'NONE',  ( 1.000000000000000000, 0.000000000000000000, -0.000000000000000000 ) ) ;
#352 = CYLINDRICAL_SURFACE ( 'NONE', #336, 20.60000000000000497 ) ;
#353 = PERSON_AND_ORGANIZATION ( #52, #123 ) ;
#354 = DIRECTION ( 'NONE',  ( -0.000000000000000000, -1.000000000000000000, -0.000000000000000000 ) ) ;
#355 = AXIS2_PLACEMENT_3D ( 'NONE', #76, #48, #351 ) ;
#356 = AXIS2_PLACEMENT_3D ( 'NONE', #144, #267, #27 ) ;
#357 = CARTESIAN_POINT ( 'NONE',  ( 48.37103872696797424, 0.000000000000000000, 0.6096147385143690922 ) ) ;
#358 = LINE ( 'NONE', #30, #207 ) ;
#359 = PRODUCT_RELATED_PRODUCT_CATEGORY ( 'detail', '', ( #253 ) ) ;
#360 = CARTESIAN_POINT ( 'NONE',  ( 23.77103872696797993, 2.351321854362918079E-15, 69.40961473851436381 ) ) ;
#361 = AXIS2_PLACEMENT_3D ( 'NONE', #97, #313, #188 ) ;
#362 = VERTEX_POINT ( 'NONE', #31 ) ;
#363 = APPROVAL ( #190, 'UNSPECIFIED' ) ;
#364 = DATE_AND_TIME ( #332, #107 ) ;
#365 = EDGE_LOOP ( 'NONE', ( #331, #67, #278, #369 ) ) ;
#366 = ORIENTED_EDGE ( 'NONE', *, *, #50, .T. ) ;
#367 = AXIS2_PLACEMENT_3D ( 'NONE', #389, #89, #51 ) ;
#368 = MECHANICAL_CONTEXT ( 'NONE', #127, 'mechanical' ) ;
#369 = ORIENTED_EDGE ( 'NONE', *, *, #303, .T. ) ;
#370 =( NAMED_UNIT ( * ) PLANE_ANGLE_UNIT ( ) SI_UNIT ( $, .RADIAN. ) );
#371 = ORIENTED_EDGE ( 'NONE', *, *, #291, .F. ) ;
#372 = EDGE_CURVE ( 'NONE', #63, #39, #301, .T. ) ;
#373 = DATE_AND_TIME ( #240, #311 ) ;
#374 = VERTEX_POINT ( 'NONE', #153 ) ;
#375 = AXIS2_PLACEMENT_3D ( 'NONE', #380, #136, #202 ) ;
#376 = CARTESIAN_POINT ( 'NONE',  ( 48.37103872696797424, 0.000000000000000000, 44.40961473851437091 ) ) ;
#377 = DIRECTION ( 'NONE',  ( 0.000000000000000000, 0.000000000000000000, 1.000000000000000000 ) ) ;
#378 = DIRECTION ( 'NONE',  ( -1.000000000000000000, 0.000000000000000000, 0.000000000000000000 ) ) ;
#379 = COORDINATED_UNIVERSAL_TIME_OFFSET ( 1, 0, .AHEAD. ) ;
#380 = CARTESIAN_POINT ( 'NONE',  ( 4.571038726967977972, 0.000000000000000000, 69.40961473851436381 ) ) ;
#381 = CC_DESIGN_SECURITY_CLASSIFICATION ( #230, ( #223 ) ) ;
#382 = DIRECTION ( 'NONE',  ( 1.680321552529725535E-16, 0.000000000000000000, -1.000000000000000000 ) ) ;
#383 = CC_DESIGN_PERSON_AND_ORGANIZATION_ASSIGNMENT ( #353, #384, ( #223 ) ) ;
#384 = PERSON_AND_ORGANIZATION_ROLE ( 'design_supplier' ) ;
#385 = CARTESIAN_POINT ( 'NONE',  ( -16.62896127303202576, 0.000000000000000000, 44.40961473851435670 ) ) ;
#386 = DIRECTION ( 'NONE',  ( -1.000000000000000000, 0.000000000000000000, 0.000000000000000000 ) ) ;
#387 = AXIS2_PLACEMENT_3D ( 'NONE', #35, #215, #274 ) ;
#388 = LOCAL_TIME ( 9, 10, 37.00000000000000000, #379 ) ;
#389 = CARTESIAN_POINT ( 'NONE',  ( 48.37103872696797424, 0.000000000000000000, 44.40961473851437091 ) ) ;
ENDSEC;
END-ISO-10303-21;
