ISO-10303-21;
HEADER;
FILE_DESCRIPTION (( 'STEP AP203' ),
    '1' );
FILE_NAME ('3D_R365_33.7x2_173371113.STEP',
    '2024-07-16T06:16:29',
    ( '' ),
    ( '' ),
    'SwSTEP 2.0',
    'SolidWorks 2024',
    '' );
FILE_SCHEMA (( 'CONFIG_CONTROL_DESIGN' ));
ENDSEC;

DATA;
#1 = AXIS2_PLACEMENT_3D ( 'NONE', #18, #395, #329 ) ;
#2 = SPHERICAL_SURFACE ( 'NONE', #196, 22.96000000000000085 ) ;
#3 =( GEOMETRIC_REPRESENTATION_CONTEXT ( 3 ) GLOBAL_UNCERTAINTY_ASSIGNED_CONTEXT ( ( #143 ) ) GLOBAL_UNIT_ASSIGNED_CONTEXT ( ( #99, #262, #323 ) ) REPRESENTATION_CONTEXT ( 'NONE', 'WORKASPACE' ) );
#4 = FACE_OUTER_BOUND ( 'NONE', #385, .T. ) ;
#5 = SPHERICAL_SURFACE ( 'NONE', #92, 24.96000000000000441 ) ;
#6 = ORIENTED_EDGE ( 'NONE', *, *, #390, .F. ) ;
#7 = DIRECTION ( 'NONE',  ( 1.000000000000000000, -4.596983092540344586E-18, 0.000000000000000000 ) ) ;
#8 = VERTEX_POINT ( 'NONE', #235 ) ;
#9 = DIRECTION ( 'NONE',  ( 1.000000000000000000, 0.000000000000000000, 1.224646799147353207E-16 ) ) ;
#10 = ORIENTED_EDGE ( 'NONE', *, *, #218, .T. ) ;
#11 = EDGE_CURVE ( 'NONE', #295, #161, #276, .T. ) ;
#12 = CIRCLE ( 'NONE', #241, 16.84999999999999787 ) ;
#13 = PERSON_AND_ORGANIZATION ( #88, #373 ) ;
#14 = ORIENTED_EDGE ( 'NONE', *, *, #145, .F. ) ;
#15 = LOCAL_TIME ( 8, 16, 29.00000000000000000, #361 ) ;
#16 = DIRECTION ( 'NONE',  ( 4.596983092540343816E-18, 1.000000000000000000, -0.000000000000000000 ) ) ;
#17 = APPROVAL_ROLE ( '' ) ;
#18 = CARTESIAN_POINT ( 'NONE',  ( 2.566859691012853344E-15, -13.96000000000000441, 0.000000000000000000 ) ) ;
#19 = APPROVAL_ROLE ( '' ) ;
#20 = DIRECTION ( 'NONE',  ( 4.596983092540343816E-18, 1.000000000000000000, -0.000000000000000000 ) ) ;
#21 = AXIS2_PLACEMENT_3D ( 'NONE', #401, #79, #209 ) ;
#22 = DIRECTION ( 'NONE',  ( -1.000000000000000000, 4.596983092540343816E-18, 0.000000000000000000 ) ) ;
#23 = EDGE_LOOP ( 'NONE', ( #322, #71, #258, #356 ) ) ;
#24 = CARTESIAN_POINT ( 'NONE',  ( 9.376948792809994007E-16, 3.055492940259085799, 0.000000000000000000 ) ) ;
#25 = CARTESIAN_POINT ( 'NONE',  ( 2.566859691012853344E-15, -13.96000000000000441, 0.000000000000000000 ) ) ;
#26 = APPLICATION_CONTEXT ( 'configuration controlled 3d designs of mechanical parts and assemblies' ) ;
#27 = MANIFOLD_SOLID_BREP ( 'Wandung1', #43 ) ;
#28 = EDGE_CURVE ( 'NONE', #349, #64, #75, .T. ) ;
#29 = PLANE ( 'NONE',  #116 ) ;
#30 = CARTESIAN_POINT ( 'NONE',  ( 1.387778780781445676E-14, 2817.965330118411202, 0.000000000000000000 ) ) ;
#31 = FACE_OUTER_BOUND ( 'NONE', #139, .T. ) ;
#32 = AXIS2_PLACEMENT_3D ( 'NONE', #351, #231, #7 ) ;
#33 = ORIENTED_EDGE ( 'NONE', *, *, #317, .T. ) ;
#34 = ORIENTED_EDGE ( 'NONE', *, *, #367, .F. ) ;
#35 = DIRECTION ( 'NONE',  ( -1.224646799147353207E-16, 5.629680630014033300E-34, 1.000000000000000000 ) ) ;
#36 = VERTEX_POINT ( 'NONE', #202 ) ;
#37 = EDGE_CURVE ( 'NONE', #295, #8, #343, .T. ) ;
#38 = EDGE_CURVE ( 'NONE', #135, #349, #164, .T. ) ;
#39 = DIRECTION ( 'NONE',  ( -0.000000000000000000, 0.000000000000000000, -1.000000000000000000 ) ) ;
#40 = VERTEX_POINT ( 'NONE', #274 ) ;
#41 = DIRECTION ( 'NONE',  ( 0.000000000000000000, 0.000000000000000000, 1.000000000000000000 ) ) ;
#42 = CIRCLE ( 'NONE', #275, 3.054999999999998828 ) ;
#43 = CLOSED_SHELL ( 'NONE', ( #352, #312, #177, #346, #259, #199, #186, #113, #242, #57, #91, #248, #128 ) ) ;
#44 = DATE_AND_TIME ( #394, #15 ) ;
#45 = ORIENTED_EDGE ( 'NONE', *, *, #68, .T. ) ;
#46 = PERSON_AND_ORGANIZATION ( #88, #373 ) ;
#47 = CARTESIAN_POINT ( 'NONE',  ( 9.486038907581729948E-16, 5.428573558039939684, 0.000000000000000000 ) ) ;
#48 = ORIENTED_EDGE ( 'NONE', *, *, #379, .T. ) ;
#49 = DATE_AND_TIME ( #238, #315 ) ;
#50 = EDGE_LOOP ( 'NONE', ( #111, #212 ) ) ;
#51 = VECTOR ( 'NONE', #106, 1000.000000000000000 ) ;
#52 = EDGE_CURVE ( 'NONE', #102, #64, #268, .T. ) ;
#53 = DIRECTION ( 'NONE',  ( -1.000000000000000000, 0.000000000000000000, 0.000000000000000000 ) ) ;
#54 = CC_DESIGN_DATE_AND_TIME_ASSIGNMENT ( #49, #365, ( #160 ) ) ;
#55 = CARTESIAN_POINT ( 'NONE',  ( 2.566859691012853344E-15, -13.96000000000000441, 0.000000000000000000 ) ) ;
#56 = FACE_OUTER_BOUND ( 'NONE', #233, .T. ) ;
#57 = ADVANCED_FACE ( 'NONE', ( #272 ), #142, .T. ) ;
#58 = DIRECTION ( 'NONE',  ( 4.596983092540343816E-18, 1.000000000000000000, -0.000000000000000000 ) ) ;
#59 = CYLINDRICAL_SURFACE ( 'NONE', #387, 14.84999999999999609 ) ;
#60 = DIRECTION ( 'NONE',  ( -4.596983092540343816E-18, -1.000000000000000000, 0.000000000000000000 ) ) ;
#61 = AXIS2_PLACEMENT_3D ( 'NONE', #154, #182, #86 ) ;
#62 = AXIS2_PLACEMENT_3D ( 'NONE', #355, #96, #9 ) ;
#63 = ORIENTED_EDGE ( 'NONE', *, *, #11, .F. ) ;
#64 = VERTEX_POINT ( 'NONE', #178 ) ;
#65 = CC_DESIGN_APPROVAL ( #304, ( #160 ) ) ;
#66 = CARTESIAN_POINT ( 'NONE',  ( 14.85000000000001030, 2817.965330118411202, 1.818600496733819159E-15 ) ) ;
#67 = ORIENTED_EDGE ( 'NONE', *, *, #11, .T. ) ;
#68 = EDGE_CURVE ( 'NONE', #135, #102, #149, .T. ) ;
#69 = AXIS2_PLACEMENT_3D ( 'NONE', #185, #344, #153 ) ;
#70 = CARTESIAN_POINT ( 'NONE',  ( 1.734723475976807489E-15, 3.055492940258953904, 0.000000000000000000 ) ) ;
#71 = ORIENTED_EDGE ( 'NONE', *, *, #38, .T. ) ;
#72 = COORDINATED_UNIVERSAL_TIME_OFFSET ( 1, 0, .AHEAD. ) ;
#73 = DIRECTION ( 'NONE',  ( -1.000000000000000000, 0.000000000000000000, 0.000000000000000000 ) ) ;
#74 = PERSON_AND_ORGANIZATION ( #88, #373 ) ;
#75 = LINE ( 'NONE', #402, #229 ) ;
#76 = APPLICATION_PROTOCOL_DEFINITION ( 'international standard', 'config_control_design', 1994, #334 ) ;
#77 = CARTESIAN_POINT ( 'NONE',  ( 2.648846893473055398E-15, 3.875001958837942517, 0.000000000000000000 ) ) ;
#78 = PERSON_AND_ORGANIZATION ( #88, #373 ) ;
#79 = DIRECTION ( 'NONE',  ( 4.596983092540343816E-18, 1.000000000000000000, -0.000000000000000000 ) ) ;
#80 = AXIS2_PLACEMENT_3D ( 'NONE', #372, #214, #307 ) ;
#81 = PRODUCT_RELATED_PRODUCT_CATEGORY ( 'detail', '', ( #157 ) ) ;
#82 = DIRECTION ( 'NONE',  ( -1.000000000000000000, 0.000000000000000000, 0.000000000000000000 ) ) ;
#83 = AXIS2_PLACEMENT_3D ( 'NONE', #70, #291, #191 ) ;
#84 = DIRECTION ( 'NONE',  ( -1.000000000000000000, 0.000000000000000000, 0.000000000000000000 ) ) ;
#85 = CC_DESIGN_PERSON_AND_ORGANIZATION_ASSIGNMENT ( #396, #211, ( #93 ) ) ;
#86 = DIRECTION ( 'NONE',  ( 1.000000000000000000, 0.000000000000000000, 1.224646799147353207E-16 ) ) ;
#87 = CARTESIAN_POINT ( 'NONE',  ( 1.734723475976807489E-15, 3.055492940258953904, 0.000000000000000000 ) ) ;
#88 = PERSON ( 'UNSPECIFIED', 'UNSPECIFIED', 'UNSPECIFIED', ('UNSPECIFIED'), ('UNSPECIFIED'), ('UNSPECIFIED') ) ;
#89 = AXIS2_PLACEMENT_3D ( 'NONE', #306, #16, #73 ) ;
#90 = FACE_OUTER_BOUND ( 'NONE', #358, .T. ) ;
#91 = ADVANCED_FACE ( 'NONE', ( #303 ), #115, .F. ) ;
#92 = AXIS2_PLACEMENT_3D ( 'NONE', #125, #41, #129 ) ;
#93 = PRODUCT_DEFINITION_FORMATION_WITH_SPECIFIED_SOURCE ( 'ANY', '', #157, .NOT_KNOWN. ) ;
#94 = DIRECTION ( 'NONE',  ( 0.000000000000000000, 0.000000000000000000, 1.000000000000000000 ) ) ;
#95 = ORIENTED_EDGE ( 'NONE', *, *, #37, .T. ) ;
#96 = DIRECTION ( 'NONE',  ( -1.224646799147353207E-16, 5.629680630014033300E-34, 1.000000000000000000 ) ) ;
#97 = EDGE_CURVE ( 'NONE', #8, #295, #319, .T. ) ;
#98 = ORIENTED_EDGE ( 'NONE', *, *, #218, .F. ) ;
#99 =( LENGTH_UNIT ( ) NAMED_UNIT ( * ) SI_UNIT ( .MILLI., .METRE. ) );
#100 = ORIENTED_EDGE ( 'NONE', *, *, #97, .T. ) ;
#101 = DIRECTION ( 'NONE',  ( 4.596983092540343816E-18, 1.000000000000000000, -0.000000000000000000 ) ) ;
#102 = VERTEX_POINT ( 'NONE', #328 ) ;
#103 = AXIS2_PLACEMENT_3D ( 'NONE', #382, #94, #348 ) ;
#104 = DIRECTION ( 'NONE',  ( 4.596983092540343816E-18, 1.000000000000000000, -0.000000000000000000 ) ) ;
#105 = APPROVAL_STATUS ( 'not_yet_approved' ) ;
#106 = DIRECTION ( 'NONE',  ( 4.596983092540343816E-18, 1.000000000000000000, -0.000000000000000000 ) ) ;
#107 = DATE_AND_TIME ( #208, #118 ) ;
#108 = CIRCLE ( 'NONE', #122, 15.71893175074183446 ) ;
#109 = ORIENTED_EDGE ( 'NONE', *, *, #124, .T. ) ;
#110 = DIRECTION ( 'NONE',  ( 1.000000000000000000, 0.000000000000000000, 0.000000000000000000 ) ) ;
#111 = ORIENTED_EDGE ( 'NONE', *, *, #230, .T. ) ;
#112 = EDGE_CURVE ( 'NONE', #253, #40, #108, .T. ) ;
#113 = ADVANCED_FACE ( 'NONE', ( #147 ), #270, .T. ) ;
#114 = CC_DESIGN_PERSON_AND_ORGANIZATION_ASSIGNMENT ( #74, #138, ( #157 ) ) ;
#115 = CYLINDRICAL_SURFACE ( 'NONE', #399, 14.84999999999999609 ) ;
#116 = AXIS2_PLACEMENT_3D ( 'NONE', #309, #60, #117 ) ;
#117 = DIRECTION ( 'NONE',  ( 1.000000000000000000, -4.596983092540343816E-18, 0.000000000000000000 ) ) ;
#118 = LOCAL_TIME ( 8, 16, 29.00000000000000000, #72 ) ;
#119 = DIRECTION ( 'NONE',  ( -1.000000000000000000, 0.000000000000000000, 0.000000000000000000 ) ) ;
#120 = CARTESIAN_POINT ( 'NONE',  ( 9.236488298952508525E-16, 0.000000000000000000, 0.000000000000000000 ) ) ;
#121 = CARTESIAN_POINT ( 'NONE',  ( 14.84999999999999787, 3.055492940258953904, 1.818600496733819159E-15 ) ) ;
#122 = AXIS2_PLACEMENT_3D ( 'NONE', #47, #176, #398 ) ;
#123 = DIRECTION ( 'NONE',  ( -1.000000000000000000, 0.000000000000000000, 0.000000000000000000 ) ) ;
#124 = EDGE_CURVE ( 'NONE', #40, #253, #146, .T. ) ;
#125 = CARTESIAN_POINT ( 'NONE',  ( 2.566859691012853344E-15, -13.96000000000000441, 0.000000000000000000 ) ) ;
#126 = CC_DESIGN_PERSON_AND_ORGANIZATION_ASSIGNMENT ( #78, #144, ( #201 ) ) ;
#127 = FACE_OUTER_BOUND ( 'NONE', #170, .T. ) ;
#128 = ADVANCED_FACE ( 'NONE', ( #375 ), #2, .F. ) ;
#129 = DIRECTION ( 'NONE',  ( -1.000000000000000000, 0.000000000000000000, 0.000000000000000000 ) ) ;
#130 = ORIENTED_EDGE ( 'NONE', *, *, #124, .F. ) ;
#131 = CARTESIAN_POINT ( 'NONE',  ( -13.79499999999999815, 3.055492940258884627, 0.000000000000000000 ) ) ;
#132 = ORIENTED_EDGE ( 'NONE', *, *, #390, .T. ) ;
#133 = DIRECTION ( 'NONE',  ( 1.000000000000000000, 0.000000000000000000, 1.224646799147353700E-16 ) ) ;
#134 = AXIS2_PLACEMENT_3D ( 'NONE', #279, #308, #409 ) ;
#135 = VERTEX_POINT ( 'NONE', #152 ) ;
#136 = ORIENTED_EDGE ( 'NONE', *, *, #38, .F. ) ;
#137 = AXIS2_PLACEMENT_3D ( 'NONE', #131, #256, #254 ) ;
#138 = PERSON_AND_ORGANIZATION_ROLE ( 'design_owner' ) ;
#139 = EDGE_LOOP ( 'NONE', ( #338, #353, #316, #324 ) ) ;
#140 = CC_DESIGN_SECURITY_CLASSIFICATION ( #160, ( #93 ) ) ;
#141 = APPROVAL_DATE_TIME ( #44, #305 ) ;
#142 = SPHERICAL_SURFACE ( 'NONE', #1, 24.96000000000000441 ) ;
#143 = UNCERTAINTY_MEASURE_WITH_UNIT (LENGTH_MEASURE( 1.000000000000000082E-05 ), #99, 'distance_accuracy_value', 'NONE');
#144 = PERSON_AND_ORGANIZATION_ROLE ( 'creator' ) ;
#145 = EDGE_CURVE ( 'NONE', #349, #135, #250, .T. ) ;
#146 = CIRCLE ( 'NONE', #377, 15.71893175074183446 ) ;
#147 = FACE_OUTER_BOUND ( 'NONE', #23, .T. ) ;
#148 = COORDINATED_UNIVERSAL_TIME_OFFSET ( 1, 0, .AHEAD. ) ;
#149 = LINE ( 'NONE', #267, #51 ) ;
#150 = DIRECTION ( 'NONE',  ( 4.596983092540343816E-18, 1.000000000000000000, -0.000000000000000000 ) ) ;
#151 = AXIS2_PLACEMENT_3D ( 'NONE', #243, #58, #249 ) ;
#152 = CARTESIAN_POINT ( 'NONE',  ( 16.85000000000000142, -7.745916510930478436E-17, 2.063529856563289850E-15 ) ) ;
#153 = DIRECTION ( 'NONE',  ( -1.000000000000000000, 4.596983092540343816E-18, 0.000000000000000000 ) ) ;
#154 = CARTESIAN_POINT ( 'NONE',  ( 2.566859691012853344E-15, -13.96000000000000441, 0.000000000000000000 ) ) ;
#155 = VECTOR ( 'NONE', #101, 1000.000000000000000 ) ;
#156 = DIRECTION ( 'NONE',  ( 4.596983092540343816E-18, 1.000000000000000000, -0.000000000000000000 ) ) ;
#157 = PRODUCT ( '3D_R365_33.7x2_173371113', '3D_R365_33.7x2_173371113', '', ( #392 ) ) ;
#158 = APPROVAL_PERSON_ORGANIZATION ( #298, #305, #17 ) ;
#159 = CARTESIAN_POINT ( 'NONE',  ( -14.84999999999998366, 2817.965330118411202, 0.000000000000000000 ) ) ;
#160 = SECURITY_CLASSIFICATION ( '', '', #203 ) ;
#161 = VERTEX_POINT ( 'NONE', #219 ) ;
#162 = CARTESIAN_POINT ( 'NONE',  ( 0.000000000000000000, 0.000000000000000000, 0.000000000000000000 ) ) ;
#163 = ORIENTED_EDGE ( 'NONE', *, *, #410, .T. ) ;
#164 = CIRCLE ( 'NONE', #217, 16.85000000000000142 ) ;
#165 = DIRECTION ( 'NONE',  ( -1.224646799147353207E-16, 5.629680630014033300E-34, 1.000000000000000000 ) ) ;
#166 = ORIENTED_EDGE ( 'NONE', *, *, #230, .F. ) ;
#167 = FACE_OUTER_BOUND ( 'NONE', #240, .T. ) ;
#168 = DATE_TIME_ROLE ( 'creation_date' ) ;
#169 = VECTOR ( 'NONE', #227, 1000.000000000000000 ) ;
#170 = EDGE_LOOP ( 'NONE', ( #34, #132, #100, #224 ) ) ;
#171 = EDGE_CURVE ( 'NONE', #314, #193, #301, .T. ) ;
#172 = PERSON_AND_ORGANIZATION ( #88, #373 ) ;
#173 = ORIENTED_EDGE ( 'NONE', *, *, #171, .F. ) ;
#174 = AXIS2_PLACEMENT_3D ( 'NONE', #384, #165, #225 ) ;
#175 = DIRECTION ( 'NONE',  ( 0.000000000000000000, 0.000000000000000000, 1.000000000000000000 ) ) ;
#176 = DIRECTION ( 'NONE',  ( 4.596983092540343816E-18, 1.000000000000000000, -0.000000000000000000 ) ) ;
#177 = ADVANCED_FACE ( 'NONE', ( #216 ), #59, .F. ) ;
#178 = CARTESIAN_POINT ( 'NONE',  ( -16.84999999999999787, 3.055492940259085799, 0.000000000000000000 ) ) ;
#179 = DATE_AND_TIME ( #269, #265 ) ;
#180 = DIRECTION ( 'NONE',  ( -0.000000000000000000, 0.000000000000000000, -1.000000000000000000 ) ) ;
#181 = ORIENTED_EDGE ( 'NONE', *, *, #28, .F. ) ;
#182 = DIRECTION ( 'NONE',  ( -1.224646799147353207E-16, 5.629680630014033300E-34, 1.000000000000000000 ) ) ;
#183 = DIRECTION ( 'NONE',  ( -1.000000000000000000, 0.000000000000000000, 0.000000000000000000 ) ) ;
#184 = ADVANCED_BREP_SHAPE_REPRESENTATION ( '3D_R365_33.7x2_173371113', ( #27, #232 ), #3 ) ;
#185 = CARTESIAN_POINT ( 'NONE',  ( 9.236488298952508525E-16, 0.000000000000000000, 0.000000000000000000 ) ) ;
#186 = ADVANCED_FACE ( 'NONE', ( #311, #278 ), #29, .T. ) ;
#187 = FACE_OUTER_BOUND ( 'NONE', #255, .T. ) ;
#188 = CC_DESIGN_PERSON_AND_ORGANIZATION_ASSIGNMENT ( #172, #333, ( #93 ) ) ;
#189 = CIRCLE ( 'NONE', #310, 14.84999999999999609 ) ;
#190 = CARTESIAN_POINT ( 'NONE',  ( -15.71893175074183446, 5.428573558039939684, 0.000000000000000000 ) ) ;
#191 = DIRECTION ( 'NONE',  ( -1.000000000000000000, 0.000000000000000000, 0.000000000000000000 ) ) ;
#192 = ORIENTED_EDGE ( 'NONE', *, *, #331, .F. ) ;
#193 = VERTEX_POINT ( 'NONE', #121 ) ;
#194 = CARTESIAN_POINT ( 'NONE',  ( 13.79500000000000171, 3.055492940258884627, 1.689400259423773743E-15 ) ) ;
#195 = EDGE_LOOP ( 'NONE', ( #198, #109, #10 ) ) ;
#196 = AXIS2_PLACEMENT_3D ( 'NONE', #25, #342, #380 ) ;
#197 = DIRECTION ( 'NONE',  ( 4.596983092540343816E-18, 1.000000000000000000, -0.000000000000000000 ) ) ;
#198 = ORIENTED_EDGE ( 'NONE', *, *, #257, .F. ) ;
#199 = ADVANCED_FACE ( 'NONE', ( #187 ), #404, .T. ) ;
#200 = ORIENTED_EDGE ( 'NONE', *, *, #331, .T. ) ;
#201 = PRODUCT_DEFINITION ( 'UNKNOWN', '', #93, #330 ) ;
#202 = CARTESIAN_POINT ( 'NONE',  ( 14.84999999999999787, -6.826519892422409673E-17, 1.818600496733819159E-15 ) ) ;
#203 = SECURITY_CLASSIFICATION_LEVEL ( 'unclassified' ) ;
#204 = CARTESIAN_POINT ( 'NONE',  ( 1.387778780781445676E-14, 2817.965330118411202, 0.000000000000000000 ) ) ;
#205 = CC_DESIGN_PERSON_AND_ORGANIZATION_ASSIGNMENT ( #46, #337, ( #160 ) ) ;
#206 = APPROVAL_ROLE ( '' ) ;
#207 = DIRECTION ( 'NONE',  ( 4.596983092540343816E-18, 1.000000000000000000, -0.000000000000000000 ) ) ;
#208 = CALENDAR_DATE ( 2024, 16, 7 ) ;
#209 = DIRECTION ( 'NONE',  ( -1.000000000000000000, 0.000000000000000000, 0.000000000000000000 ) ) ;
#210 = CIRCLE ( 'NONE', #61, 24.96000000000000441 ) ;
#211 = PERSON_AND_ORGANIZATION_ROLE ( 'design_supplier' ) ;
#212 = ORIENTED_EDGE ( 'NONE', *, *, #411, .T. ) ;
#213 = CIRCLE ( 'NONE', #32, 14.84999999999999609 ) ;
#214 = DIRECTION ( 'NONE',  ( 4.596983092540343816E-18, 1.000000000000000000, -0.000000000000000000 ) ) ;
#215 = CARTESIAN_POINT ( 'NONE',  ( -14.45940196302207603, 3.875001958837942517, 0.000000000000000000 ) ) ;
#216 = FACE_OUTER_BOUND ( 'NONE', #292, .T. ) ;
#217 = AXIS2_PLACEMENT_3D ( 'NONE', #326, #104, #22 ) ;
#218 = EDGE_CURVE ( 'NONE', #253, #226, #221, .T. ) ;
#219 = CARTESIAN_POINT ( 'NONE',  ( 1.266511897396418223E-15, 8.999999999999998224, 0.000000000000000000 ) ) ;
#220 = DIRECTION ( 'NONE',  ( -1.000000000000000000, 0.000000000000000000, 0.000000000000000000 ) ) ;
#221 = CIRCLE ( 'NONE', #370, 24.96000000000000441 ) ;
#222 = APPLICATION_PROTOCOL_DEFINITION ( 'international standard', 'config_control_design', 1994, #26 ) ;
#223 = ORIENTED_EDGE ( 'NONE', *, *, #273, .F. ) ;
#224 = ORIENTED_EDGE ( 'NONE', *, *, #410, .F. ) ;
#225 = DIRECTION ( 'NONE',  ( 1.000000000000000000, 0.000000000000000000, 1.224646799147351975E-16 ) ) ;
#226 = VERTEX_POINT ( 'NONE', #280 ) ;
#227 = DIRECTION ( 'NONE',  ( 4.596983092540343816E-18, 1.000000000000000000, -0.000000000000000000 ) ) ;
#228 = ORIENTED_EDGE ( 'NONE', *, *, #317, .F. ) ;
#229 = VECTOR ( 'NONE', #207, 1000.000000000000000 ) ;
#230 = EDGE_CURVE ( 'NONE', #289, #36, #189, .T. ) ;
#231 = DIRECTION ( 'NONE',  ( 4.596983092540343816E-18, 1.000000000000000000, -0.000000000000000000 ) ) ;
#232 = AXIS2_PLACEMENT_3D ( 'NONE', #162, #175, #110 ) ;
#233 = EDGE_LOOP ( 'NONE', ( #320, #362, #389, #130 ) ) ;
#234 = ORIENTED_EDGE ( 'NONE', *, *, #411, .F. ) ;
#235 = CARTESIAN_POINT ( 'NONE',  ( 14.45940196302208491, 3.875001958837942517, 1.794683264946907304E-15 ) ) ;
#236 = COORDINATED_UNIVERSAL_TIME_OFFSET ( 1, 0, .AHEAD. ) ;
#237 = EDGE_LOOP ( 'NONE', ( #360, #284, #67 ) ) ;
#238 = CALENDAR_DATE ( 2024, 16, 7 ) ;
#239 = DIRECTION ( 'NONE',  ( -1.000000000000000000, 0.000000000000000000, 0.000000000000000000 ) ) ;
#240 = EDGE_LOOP ( 'NONE', ( #263, #48, #63 ) ) ;
#241 = AXIS2_PLACEMENT_3D ( 'NONE', #24, #277, #119 ) ;
#242 = ADVANCED_FACE ( 'NONE', ( #56 ), #335, .T. ) ;
#243 = CARTESIAN_POINT ( 'NONE',  ( 1.734723475976807094E-15, 3.055492940258884627, 0.000000000000000000 ) ) ;
#244 = CIRCLE ( 'NONE', #62, 22.96000000000000085 ) ;
#245 = CARTESIAN_POINT ( 'NONE',  ( -14.84999999999999432, 6.826519892422409673E-17, 0.000000000000000000 ) ) ;
#246 = CC_DESIGN_APPROVAL ( #261, ( #93 ) ) ;
#247 = DIRECTION ( 'NONE',  ( 1.000000000000000000, -4.596983092540344586E-18, 0.000000000000000000 ) ) ;
#248 = ADVANCED_FACE ( 'NONE', ( #90 ), #403, .F. ) ;
#249 = DIRECTION ( 'NONE',  ( -1.000000000000000000, 4.596983092540343816E-18, 0.000000000000000000 ) ) ;
#250 = CIRCLE ( 'NONE', #69, 16.85000000000000142 ) ;
#251 = DIRECTION ( 'NONE',  ( 4.596983092540343816E-18, 1.000000000000000000, -0.000000000000000000 ) ) ;
#252 = LINE ( 'NONE', #159, #155 ) ;
#253 = VERTEX_POINT ( 'NONE', #190 ) ;
#254 = DIRECTION ( 'NONE',  ( -1.000000000000000000, 0.000000000000000000, 0.000000000000000000 ) ) ;
#255 = EDGE_LOOP ( 'NONE', ( #297, #45, #223, #181 ) ) ;
#256 = DIRECTION ( 'NONE',  ( -0.000000000000000000, 0.000000000000000000, -1.000000000000000000 ) ) ;
#257 = EDGE_CURVE ( 'NONE', #40, #226, #210, .T. ) ;
#258 = ORIENTED_EDGE ( 'NONE', *, *, #28, .T. ) ;
#259 = ADVANCED_FACE ( 'NONE', ( #31 ), #260, .T. ) ;
#260 = TOROIDAL_SURFACE ( 'NONE', #80, 13.79499999999999993, 3.054999999999997495 ) ;
#261 = APPROVAL ( #327, 'UNSPECIFIED' ) ;
#262 =( NAMED_UNIT ( * ) PLANE_ANGLE_UNIT ( ) SI_UNIT ( $, .RADIAN. ) );
#263 = ORIENTED_EDGE ( 'NONE', *, *, #97, .F. ) ;
#264 = APPROVAL_STATUS ( 'not_yet_approved' ) ;
#265 = LOCAL_TIME ( 8, 16, 29.00000000000000000, #148 ) ;
#266 = DATE_AND_TIME ( #271, #354 ) ;
#267 = CARTESIAN_POINT ( 'NONE',  ( 16.85000000000001208, 2817.965330118411202, 2.063529856563289455E-15 ) ) ;
#268 = CIRCLE ( 'NONE', #89, 16.84999999999999787 ) ;
#269 = CALENDAR_DATE ( 2024, 16, 7 ) ;
#270 = CYLINDRICAL_SURFACE ( 'NONE', #21, 16.84999999999999787 ) ;
#271 = CALENDAR_DATE ( 2024, 16, 7 ) ;
#272 = FACE_OUTER_BOUND ( 'NONE', #195, .T. ) ;
#273 = EDGE_CURVE ( 'NONE', #64, #102, #12, .T. ) ;
#274 = CARTESIAN_POINT ( 'NONE',  ( 15.71893175074183446, 5.428573558039939684, 1.994271901009729351E-15 ) ) ;
#275 = AXIS2_PLACEMENT_3D ( 'NONE', #288, #39, #283 ) ;
#276 = CIRCLE ( 'NONE', #381, 22.96000000000000085 ) ;
#277 = DIRECTION ( 'NONE',  ( 4.596983092540343816E-18, 1.000000000000000000, -0.000000000000000000 ) ) ;
#278 = FACE_OUTER_BOUND ( 'NONE', #386, .T. ) ;
#279 = CARTESIAN_POINT ( 'NONE',  ( 1.734723475976807094E-15, 3.055492940258884627, 0.000000000000000000 ) ) ;
#280 = CARTESIAN_POINT ( 'NONE',  ( 1.153241183666763503E-15, 11.00000000000000000, 0.000000000000000000 ) ) ;
#281 = AXIS2_PLACEMENT_3D ( 'NONE', #300, #20, #82 ) ;
#282 = SPHERICAL_SURFACE ( 'NONE', #103, 22.96000000000000085 ) ;
#283 = DIRECTION ( 'NONE',  ( -1.000000000000000000, 0.000000000000000000, 0.000000000000000000 ) ) ;
#284 = ORIENTED_EDGE ( 'NONE', *, *, #37, .F. ) ;
#285 = CARTESIAN_POINT ( 'NONE',  ( -14.84999999999999432, 3.055492940258953904, 0.000000000000000000 ) ) ;
#286 = AXIS2_PLACEMENT_3D ( 'NONE', #77, #369, #299 ) ;
#287 = ORIENTED_EDGE ( 'NONE', *, *, #257, .T. ) ;
#288 = CARTESIAN_POINT ( 'NONE',  ( -13.79499999999999815, 3.055492940258884627, 0.000000000000000000 ) ) ;
#289 = VERTEX_POINT ( 'NONE', #245 ) ;
#290 = CC_DESIGN_DATE_AND_TIME_ASSIGNMENT ( #107, #168, ( #201 ) ) ;
#291 = DIRECTION ( 'NONE',  ( 4.596983092540343816E-18, 1.000000000000000000, -0.000000000000000000 ) ) ;
#292 = EDGE_LOOP ( 'NONE', ( #234, #200, #371, #228 ) ) ;
#293 = TOROIDAL_SURFACE ( 'NONE', #347, 13.79499999999999993, 1.054999999999997273 ) ;
#294 = COORDINATED_UNIVERSAL_TIME_OFFSET ( 1, 0, .AHEAD. ) ;
#295 = VERTEX_POINT ( 'NONE', #215 ) ;
#296 = CC_DESIGN_APPROVAL ( #305, ( #201 ) ) ;
#297 = ORIENTED_EDGE ( 'NONE', *, *, #145, .T. ) ;
#298 = PERSON_AND_ORGANIZATION ( #88, #373 ) ;
#299 = DIRECTION ( 'NONE',  ( -1.000000000000000000, 0.000000000000000000, 0.000000000000000000 ) ) ;
#300 = CARTESIAN_POINT ( 'NONE',  ( 2.648846893473055398E-15, 3.875001958837942517, 0.000000000000000000 ) ) ;
#301 = CIRCLE ( 'NONE', #357, 14.84999999999999609 ) ;
#302 = SHAPE_DEFINITION_REPRESENTATION ( #376, #184 ) ;
#303 = FACE_OUTER_BOUND ( 'NONE', #364, .T. ) ;
#304 = APPROVAL ( #105, 'UNSPECIFIED' ) ;
#305 = APPROVAL ( #264, 'UNSPECIFIED' ) ;
#306 = CARTESIAN_POINT ( 'NONE',  ( 9.376948792809994007E-16, 3.055492940259085799, 0.000000000000000000 ) ) ;
#307 = DIRECTION ( 'NONE',  ( -1.000000000000000000, 4.596983092540343816E-18, 0.000000000000000000 ) ) ;
#308 = DIRECTION ( 'NONE',  ( 4.596983092540343816E-18, 1.000000000000000000, -0.000000000000000000 ) ) ;
#309 = CARTESIAN_POINT ( 'NONE',  ( -1.780392361848825308E-34, -3.872958255465239834E-17, 0.000000000000000000 ) ) ;
#310 = AXIS2_PLACEMENT_3D ( 'NONE', #120, #251, #247 ) ;
#311 = FACE_BOUND ( 'NONE', #50, .T. ) ;
#312 = ADVANCED_FACE ( 'NONE', ( #127 ), #293, .F. ) ;
#313 = CIRCLE ( 'NONE', #339, 1.054999999999996829 ) ;
#314 = VERTEX_POINT ( 'NONE', #285 ) ;
#315 = LOCAL_TIME ( 8, 16, 29.00000000000000000, #236 ) ;
#316 = ORIENTED_EDGE ( 'NONE', *, *, #112, .F. ) ;
#317 = EDGE_CURVE ( 'NONE', #289, #314, #252, .T. ) ;
#318 = CARTESIAN_POINT ( 'NONE',  ( 1.734723475976807094E-15, 3.055492940258884627, 0.000000000000000000 ) ) ;
#319 = CIRCLE ( 'NONE', #281, 14.45940196302207958 ) ;
#320 = ORIENTED_EDGE ( 'NONE', *, *, #397, .F. ) ;
#321 = LINE ( 'NONE', #66, #169 ) ;
#322 = ORIENTED_EDGE ( 'NONE', *, *, #68, .F. ) ;
#323 =( NAMED_UNIT ( * ) SI_UNIT ( $, .STERADIAN. ) SOLID_ANGLE_UNIT ( ) );
#324 = ORIENTED_EDGE ( 'NONE', *, *, #332, .F. ) ;
#325 = AXIS2_PLACEMENT_3D ( 'NONE', #30, #156, #220 ) ;
#326 = CARTESIAN_POINT ( 'NONE',  ( 9.236488298952508525E-16, 0.000000000000000000, 0.000000000000000000 ) ) ;
#327 = APPROVAL_STATUS ( 'not_yet_approved' ) ;
#328 = CARTESIAN_POINT ( 'NONE',  ( 16.84999999999999787, 3.055492940259085799, 2.063529856563289455E-15 ) ) ;
#329 = DIRECTION ( 'NONE',  ( -1.000000000000000000, 0.000000000000000000, 0.000000000000000000 ) ) ;
#330 = DESIGN_CONTEXT ( 'detailed design', #334, 'design' ) ;
#331 = EDGE_CURVE ( 'NONE', #36, #193, #321, .T. ) ;
#332 = EDGE_CURVE ( 'NONE', #64, #253, #42, .T. ) ;
#333 = PERSON_AND_ORGANIZATION_ROLE ( 'creator' ) ;
#334 = APPLICATION_CONTEXT ( 'configuration controlled 3d designs of mechanical parts and assemblies' ) ;
#335 = TOROIDAL_SURFACE ( 'NONE', #151, 13.79499999999999993, 3.054999999999997495 ) ;
#336 = CARTESIAN_POINT ( 'NONE',  ( 9.486038907581729948E-16, 5.428573558039939684, 0.000000000000000000 ) ) ;
#337 = PERSON_AND_ORGANIZATION_ROLE ( 'classification_officer' ) ;
#338 = ORIENTED_EDGE ( 'NONE', *, *, #273, .T. ) ;
#339 = AXIS2_PLACEMENT_3D ( 'NONE', #194, #35, #133 ) ;
#340 = DIRECTION ( 'NONE',  ( 4.596983092540343816E-18, 1.000000000000000000, -0.000000000000000000 ) ) ;
#341 = APPROVAL_PERSON_ORGANIZATION ( #363, #261, #19 ) ;
#342 = DIRECTION ( 'NONE',  ( 0.000000000000000000, 0.000000000000000000, 1.000000000000000000 ) ) ;
#343 = CIRCLE ( 'NONE', #286, 14.45940196302207958 ) ;
#344 = DIRECTION ( 'NONE',  ( 4.596983092540343816E-18, 1.000000000000000000, -0.000000000000000000 ) ) ;
#345 = CARTESIAN_POINT ( 'NONE',  ( 1.387778780781445676E-14, 2817.965330118411202, 0.000000000000000000 ) ) ;
#346 = ADVANCED_FACE ( 'NONE', ( #4 ), #5, .T. ) ;
#347 = AXIS2_PLACEMENT_3D ( 'NONE', #318, #197, #359 ) ;
#348 = DIRECTION ( 'NONE',  ( -1.000000000000000000, 0.000000000000000000, 0.000000000000000000 ) ) ;
#349 = VERTEX_POINT ( 'NONE', #388 ) ;
#350 = CIRCLE ( 'NONE', #137, 1.054999999999996829 ) ;
#351 = CARTESIAN_POINT ( 'NONE',  ( 9.236488298952508525E-16, 0.000000000000000000, 0.000000000000000000 ) ) ;
#352 = ADVANCED_FACE ( 'NONE', ( #167 ), #282, .F. ) ;
#353 = ORIENTED_EDGE ( 'NONE', *, *, #397, .T. ) ;
#354 = LOCAL_TIME ( 8, 16, 29.00000000000000000, #294 ) ;
#355 = CARTESIAN_POINT ( 'NONE',  ( 2.566859691012853344E-15, -13.96000000000000441, 0.000000000000000000 ) ) ;
#356 = ORIENTED_EDGE ( 'NONE', *, *, #52, .F. ) ;
#357 = AXIS2_PLACEMENT_3D ( 'NONE', #87, #340, #123 ) ;
#358 = EDGE_LOOP ( 'NONE', ( #6, #173, #163, #95 ) ) ;
#359 = DIRECTION ( 'NONE',  ( -1.000000000000000000, 4.596983092540344586E-18, 0.000000000000000000 ) ) ;
#360 = ORIENTED_EDGE ( 'NONE', *, *, #379, .F. ) ;
#361 = COORDINATED_UNIVERSAL_TIME_OFFSET ( 1, 0, .AHEAD. ) ;
#362 = ORIENTED_EDGE ( 'NONE', *, *, #52, .T. ) ;
#363 = PERSON_AND_ORGANIZATION ( #88, #373 ) ;
#364 = EDGE_LOOP ( 'NONE', ( #192, #166, #33, #383 ) ) ;
#365 = DATE_TIME_ROLE ( 'classification_date' ) ;
#366 = CARTESIAN_POINT ( 'NONE',  ( 2.566859691012853344E-15, -13.96000000000000441, 0.000000000000000000 ) ) ;
#367 = EDGE_CURVE ( 'NONE', #193, #314, #406, .T. ) ;
#368 = APPROVAL_DATE_TIME ( #179, #304 ) ;
#369 = DIRECTION ( 'NONE',  ( 4.596983092540343816E-18, 1.000000000000000000, -0.000000000000000000 ) ) ;
#370 = AXIS2_PLACEMENT_3D ( 'NONE', #55, #405, #84 ) ;
#371 = ORIENTED_EDGE ( 'NONE', *, *, #367, .T. ) ;
#372 = CARTESIAN_POINT ( 'NONE',  ( 1.734723475976807094E-15, 3.055492940258884627, 0.000000000000000000 ) ) ;
#373 = ORGANIZATION ( 'UNSPECIFIED', 'UNSPECIFIED', '' ) ;
#374 = DIRECTION ( 'NONE',  ( 4.596983092540343816E-18, 1.000000000000000000, -0.000000000000000000 ) ) ;
#375 = FACE_OUTER_BOUND ( 'NONE', #237, .T. ) ;
#376 = PRODUCT_DEFINITION_SHAPE ( 'NONE', 'NONE',  #201 ) ;
#377 = AXIS2_PLACEMENT_3D ( 'NONE', #336, #374, #378 ) ;
#378 = DIRECTION ( 'NONE',  ( -1.000000000000000000, 0.000000000000000000, 0.000000000000000000 ) ) ;
#379 = EDGE_CURVE ( 'NONE', #8, #161, #244, .T. ) ;
#380 = DIRECTION ( 'NONE',  ( -1.000000000000000000, 0.000000000000000000, 0.000000000000000000 ) ) ;
#381 = AXIS2_PLACEMENT_3D ( 'NONE', #366, #180, #239 ) ;
#382 = CARTESIAN_POINT ( 'NONE',  ( 2.566859691012853344E-15, -13.96000000000000441, 0.000000000000000000 ) ) ;
#383 = ORIENTED_EDGE ( 'NONE', *, *, #171, .T. ) ;
#384 = CARTESIAN_POINT ( 'NONE',  ( 13.79500000000000171, 3.055492940258884627, 1.689400259423773743E-15 ) ) ;
#385 = EDGE_LOOP ( 'NONE', ( #393, #287, #98 ) ) ;
#386 = EDGE_LOOP ( 'NONE', ( #14, #136 ) ) ;
#387 = AXIS2_PLACEMENT_3D ( 'NONE', #345, #407, #183 ) ;
#388 = CARTESIAN_POINT ( 'NONE',  ( -16.85000000000000142, 7.745916510930479669E-17, 0.000000000000000000 ) ) ;
#389 = ORIENTED_EDGE ( 'NONE', *, *, #332, .T. ) ;
#390 = EDGE_CURVE ( 'NONE', #193, #8, #313, .T. ) ;
#391 = CIRCLE ( 'NONE', #174, 3.054999999999998828 ) ;
#392 = MECHANICAL_CONTEXT ( 'NONE', #26, 'mechanical' ) ;
#393 = ORIENTED_EDGE ( 'NONE', *, *, #112, .T. ) ;
#394 = CALENDAR_DATE ( 2024, 16, 7 ) ;
#395 = DIRECTION ( 'NONE',  ( 0.000000000000000000, 0.000000000000000000, 1.000000000000000000 ) ) ;
#396 = PERSON_AND_ORGANIZATION ( #88, #373 ) ;
#397 = EDGE_CURVE ( 'NONE', #102, #40, #391, .T. ) ;
#398 = DIRECTION ( 'NONE',  ( -1.000000000000000000, 0.000000000000000000, 0.000000000000000000 ) ) ;
#399 = AXIS2_PLACEMENT_3D ( 'NONE', #204, #150, #53 ) ;
#400 = APPROVAL_DATE_TIME ( #266, #261 ) ;
#401 = CARTESIAN_POINT ( 'NONE',  ( 1.387778780781445676E-14, 2817.965330118411202, 0.000000000000000000 ) ) ;
#402 = CARTESIAN_POINT ( 'NONE',  ( -16.84999999999998366, 2817.965330118411202, 0.000000000000000000 ) ) ;
#403 = TOROIDAL_SURFACE ( 'NONE', #134, 13.79499999999999993, 1.054999999999997273 ) ;
#404 = CYLINDRICAL_SURFACE ( 'NONE', #325, 16.84999999999999787 ) ;
#405 = DIRECTION ( 'NONE',  ( -0.000000000000000000, 0.000000000000000000, -1.000000000000000000 ) ) ;
#406 = CIRCLE ( 'NONE', #83, 14.84999999999999609 ) ;
#407 = DIRECTION ( 'NONE',  ( 4.596983092540343816E-18, 1.000000000000000000, -0.000000000000000000 ) ) ;
#408 = APPROVAL_PERSON_ORGANIZATION ( #13, #304, #206 ) ;
#409 = DIRECTION ( 'NONE',  ( -1.000000000000000000, 4.596983092540344586E-18, 0.000000000000000000 ) ) ;
#410 = EDGE_CURVE ( 'NONE', #314, #295, #350, .T. ) ;
#411 = EDGE_CURVE ( 'NONE', #36, #289, #213, .T. ) ;
ENDSEC;
END-ISO-10303-21;
