ISO-10303-21;
HEADER;
FILE_DESCRIPTION (( 'STEP AP203' ),
    '1' );
FILE_NAME ('3D-M2102P_33.7x2_174114025.STEP',
    '2024-09-05T09:18:49',
    ( '' ),
    ( '' ),
    'SwSTEP 2.0',
    'SolidWorks 2024',
    '' );
FILE_SCHEMA (( 'CONFIG_CONTROL_DESIGN' ));
ENDSEC;

DATA;
#1 = PERSON_AND_ORGANIZATION ( #292, #317 ) ;
#2 = CARTESIAN_POINT ( 'NONE',  ( 9.000000000000001776, 2.694222958124176809E-15, 22.00000000000000000 ) ) ;
#3 = DIRECTION ( 'NONE',  ( -1.000000000000000000, -0.000000000000000000, -0.000000000000000000 ) ) ;
#4 = EDGE_CURVE ( 'NONE', #228, #157, #348, .T. ) ;
#5 = COORDINATED_UNIVERSAL_TIME_OFFSET ( 1, 0, .AHEAD. ) ;
#6 = APPROVAL_ROLE ( '' ) ;
#7 = FACE_OUTER_BOUND ( 'NONE', #330, .T. ) ;
#8 = LINE ( 'NONE', #29, #49 ) ;
#9 = CYLINDRICAL_SURFACE ( 'NONE', #174, 13.00000000000000000 ) ;
#10 = DIRECTION ( 'NONE',  ( 0.9957491342352061681, 0.000000000000000000, -0.09210679491675662078 ) ) ;
#11 = EDGE_CURVE ( 'NONE', #162, #98, #294, .T. ) ;
#12 = DIRECTION ( 'NONE',  ( -1.000000000000000000, -0.000000000000000000, -0.000000000000000000 ) ) ;
#13 = AXIS2_PLACEMENT_3D ( 'NONE', #252, #376, #89 ) ;
#14 = CARTESIAN_POINT ( 'NONE',  ( 1.000000000000000888, 0.000000000000000000, 0.000000000000000000 ) ) ;
#15 =( GEOMETRIC_REPRESENTATION_CONTEXT ( 3 ) GLOBAL_UNCERTAINTY_ASSIGNED_CONTEXT ( ( #218 ) ) GLOBAL_UNIT_ASSIGNED_CONTEXT ( ( #296, #400, #386 ) ) REPRESENTATION_CONTEXT ( 'NONE', 'WORKASPACE' ) );
#16 = FACE_OUTER_BOUND ( 'NONE', #28, .T. ) ;
#17 = ADVANCED_FACE ( 'NONE', ( #401 ), #73, .F. ) ;
#18 = AXIS2_PLACEMENT_3D ( 'NONE', #312, #388, #266 ) ;
#19 = VERTEX_POINT ( 'NONE', #33 ) ;
#20 = ORIENTED_EDGE ( 'NONE', *, *, #316, .F. ) ;
#21 = APPROVAL ( #101, 'UNSPECIFIED' ) ;
#22 = ORIENTED_EDGE ( 'NONE', *, *, #194, .F. ) ;
#23 = LOCAL_TIME ( 11, 18, 49.00000000000000000, #66 ) ;
#24 = FACE_OUTER_BOUND ( 'NONE', #129, .T. ) ;
#25 = EDGE_LOOP ( 'NONE', ( #140, #90, #326, #254 ) ) ;
#26 = COORDINATED_UNIVERSAL_TIME_OFFSET ( 1, 0, .AHEAD. ) ;
#27 = DIRECTION ( 'NONE',  ( 1.000000000000000000, 0.000000000000000000, 0.000000000000000000 ) ) ;
#28 = EDGE_LOOP ( 'NONE', ( #56, #233, #424, #300 ) ) ;
#29 = CARTESIAN_POINT ( 'NONE',  ( -16.64708581120227038, 2.063529856563290244E-15, -16.85000000000000142 ) ) ;
#30 = DATE_AND_TIME ( #422, #64 ) ;
#31 = APPROVAL_STATUS ( 'not_yet_approved' ) ;
#32 = DIRECTION ( 'NONE',  ( 0.000000000000000000, 0.000000000000000000, 1.000000000000000000 ) ) ;
#33 = CARTESIAN_POINT ( 'NONE',  ( 9.000000000000001776, 0.000000000000000000, -22.00000000000000000 ) ) ;
#34 = EDGE_CURVE ( 'NONE', #278, #302, #224, .T. ) ;
#35 = DIRECTION ( 'NONE',  ( 0.9957491342352061681, 1.127982915745276976E-17, 0.09210679491675662078 ) ) ;
#36 = DIRECTION ( 'NONE',  ( 1.000000000000000000, 0.000000000000000000, 0.000000000000000000 ) ) ;
#37 = VECTOR ( 'NONE', #133, 1000.000000000000000 ) ;
#38 = CC_DESIGN_SECURITY_CLASSIFICATION ( #87, ( #84 ) ) ;
#39 = DIRECTION ( 'NONE',  ( -1.000000000000000000, -0.000000000000000000, -0.000000000000000000 ) ) ;
#40 = CARTESIAN_POINT ( 'NONE',  ( 0.000000000000000000, 0.000000000000000000, 13.00000000000000000 ) ) ;
#41 = DIRECTION ( 'NONE',  ( 0.000000000000000000, 0.000000000000000000, 1.000000000000000000 ) ) ;
#42 = CARTESIAN_POINT ( 'NONE',  ( 22.00000000000000000, 0.000000000000000000, 0.000000000000000000 ) ) ;
#43 = FACE_BOUND ( 'NONE', #323, .T. ) ;
#44 = EDGE_CURVE ( 'NONE', #147, #427, #381, .T. ) ;
#45 = VERTEX_POINT ( 'NONE', #202 ) ;
#46 = FACE_OUTER_BOUND ( 'NONE', #260, .T. ) ;
#47 = DESIGN_CONTEXT ( 'detailed design', #207, 'design' ) ;
#48 = CARTESIAN_POINT ( 'NONE',  ( 1.000000000000000888, 0.000000000000000000, 0.000000000000000000 ) ) ;
#49 = VECTOR ( 'NONE', #3, 1000.000000000000000 ) ;
#50 = EDGE_CURVE ( 'NONE', #91, #377, #183, .T. ) ;
#51 = VECTOR ( 'NONE', #249, 1000.000000000000000 ) ;
#52 = CC_DESIGN_APPROVAL ( #412, ( #319 ) ) ;
#53 = ADVANCED_FACE ( 'NONE', ( #7 ), #281, .F. ) ;
#54 = EDGE_LOOP ( 'NONE', ( #168, #127, #138, #325 ) ) ;
#55 = AXIS2_PLACEMENT_3D ( 'NONE', #244, #369, #258 ) ;
#56 = ORIENTED_EDGE ( 'NONE', *, *, #50, .F. ) ;
#57 = VERTEX_POINT ( 'NONE', #408 ) ;
#58 = COORDINATED_UNIVERSAL_TIME_OFFSET ( 1, 0, .AHEAD. ) ;
#59 = CARTESIAN_POINT ( 'NONE',  ( -16.64708581120227038, 0.000000000000000000, 0.000000000000000000 ) ) ;
#60 = ORIENTED_EDGE ( 'NONE', *, *, #4, .T. ) ;
#61 = FACE_OUTER_BOUND ( 'NONE', #418, .T. ) ;
#62 = CALENDAR_DATE ( 2024, 5, 9 ) ;
#63 = AXIS2_PLACEMENT_3D ( 'NONE', #395, #236, #428 ) ;
#64 = LOCAL_TIME ( 11, 18, 49.00000000000000000, #58 ) ;
#65 = ORIENTED_EDGE ( 'NONE', *, *, #135, .T. ) ;
#66 = COORDINATED_UNIVERSAL_TIME_OFFSET ( 1, 0, .AHEAD. ) ;
#67 = EDGE_CURVE ( 'NONE', #45, #167, #212, .T. ) ;
#68 = DIRECTION ( 'NONE',  ( 1.000000000000000000, 0.000000000000000000, 0.000000000000000000 ) ) ;
#69 = CARTESIAN_POINT ( 'NONE',  ( 1.000000000000000888, 1.592040838891559095E-15, 13.00000000000000000 ) ) ;
#70 = DIRECTION ( 'NONE',  ( -1.000000000000000000, -0.000000000000000000, -0.000000000000000000 ) ) ;
#71 = DIRECTION ( 'NONE',  ( -1.000000000000000000, -0.000000000000000000, -0.000000000000000000 ) ) ;
#72 = APPROVAL_ROLE ( '' ) ;
#73 = CONICAL_SURFACE ( 'NONE', #153, 13.00000000000000000, 0.09223752844312617383 ) ;
#74 = CARTESIAN_POINT ( 'NONE',  ( 20.99999999999999645, 0.000000000000000000, 0.000000000000000000 ) ) ;
#75 = AXIS2_PLACEMENT_3D ( 'NONE', #198, #232, #36 ) ;
#76 = DIRECTION ( 'NONE',  ( -1.000000000000000000, -0.000000000000000000, -0.000000000000000000 ) ) ;
#77 = LOCAL_TIME ( 11, 18, 49.00000000000000000, #396 ) ;
#78 = CARTESIAN_POINT ( 'NONE',  ( 22.00000000000000000, 2.063529856563290244E-15, -16.85000000000000142 ) ) ;
#79 = DIRECTION ( 'NONE',  ( -1.000000000000000000, -0.000000000000000000, -0.000000000000000000 ) ) ;
#80 = EDGE_LOOP ( 'NONE', ( #131, #378 ) ) ;
#81 = CARTESIAN_POINT ( 'NONE',  ( 22.00000000000000000, 1.818600496733819553E-15, -14.84999999999999964 ) ) ;
#82 = DIRECTION ( 'NONE',  ( -1.000000000000000000, -0.000000000000000000, -0.000000000000000000 ) ) ;
#83 = AXIS2_PLACEMENT_3D ( 'NONE', #117, #141, #331 ) ;
#84 = PRODUCT_DEFINITION_FORMATION_WITH_SPECIFIED_SOURCE ( 'ANY', '', #122, .NOT_KNOWN. ) ;
#85 = EDGE_CURVE ( 'NONE', #229, #45, #295, .T. ) ;
#86 = CARTESIAN_POINT ( 'NONE',  ( 9.000000000000001776, 0.000000000000000000, 0.000000000000000000 ) ) ;
#87 = SECURITY_CLASSIFICATION ( '', '', #268 ) ;
#88 = EDGE_CURVE ( 'NONE', #167, #384, #406, .T. ) ;
#89 = DIRECTION ( 'NONE',  ( 0.000000000000000000, 0.000000000000000000, 1.000000000000000000 ) ) ;
#90 = ORIENTED_EDGE ( 'NONE', *, *, #50, .T. ) ;
#91 = VERTEX_POINT ( 'NONE', #178 ) ;
#92 = ORIENTED_EDGE ( 'NONE', *, *, #277, .F. ) ;
#93 = AXIS2_PLACEMENT_3D ( 'NONE', #74, #361, #166 ) ;
#94 = EDGE_LOOP ( 'NONE', ( #223, #263 ) ) ;
#95 = PERSON_AND_ORGANIZATION_ROLE ( 'creator' ) ;
#96 = ORIENTED_EDGE ( 'NONE', *, *, #286, .T. ) ;
#97 = PERSON_AND_ORGANIZATION_ROLE ( 'design_owner' ) ;
#98 = VERTEX_POINT ( 'NONE', #78 ) ;
#99 = PLANE ( 'NONE',  #63 ) ;
#100 = ADVANCED_FACE ( 'NONE', ( #113 ), #102, .F. ) ;
#101 = APPROVAL_STATUS ( 'not_yet_approved' ) ;
#102 = CONICAL_SURFACE ( 'NONE', #230, 13.00000000000000000, 0.09223752844312617383 ) ;
#103 = CARTESIAN_POINT ( 'NONE',  ( 9.000000000000001776, 0.000000000000000000, 0.000000000000000000 ) ) ;
#104 = ORIENTED_EDGE ( 'NONE', *, *, #151, .F. ) ;
#105 = CYLINDRICAL_SURFACE ( 'NONE', #220, 16.85000000000000142 ) ;
#106 = DIRECTION ( 'NONE',  ( 0.000000000000000000, 0.000000000000000000, 1.000000000000000000 ) ) ;
#107 = CYLINDRICAL_SURFACE ( 'NONE', #187, 16.85000000000000142 ) ;
#108 = SHAPE_DEFINITION_REPRESENTATION ( #184, #152 ) ;
#109 = DIRECTION ( 'NONE',  ( -1.000000000000000000, -0.000000000000000000, -0.000000000000000000 ) ) ;
#110 = CARTESIAN_POINT ( 'NONE',  ( -16.64708581120227038, 1.592040838891559095E-15, -13.00000000000000000 ) ) ;
#111 = PERSON_AND_ORGANIZATION ( #292, #317 ) ;
#112 = CALENDAR_DATE ( 2024, 5, 9 ) ;
#113 = FACE_OUTER_BOUND ( 'NONE', #354, .T. ) ;
#114 = FACE_OUTER_BOUND ( 'NONE', #54, .T. ) ;
#115 = AXIS2_PLACEMENT_3D ( 'NONE', #144, #365, #343 ) ;
#116 = DIRECTION ( 'NONE',  ( -1.000000000000000000, -0.000000000000000000, -0.000000000000000000 ) ) ;
#117 = CARTESIAN_POINT ( 'NONE',  ( 22.00000000000000000, 16.85000000000000142, 0.000000000000000000 ) ) ;
#118 = LINE ( 'NONE', #110, #51 ) ;
#119 = EDGE_CURVE ( 'NONE', #302, #427, #118, .T. ) ;
#120 = AXIS2_PLACEMENT_3D ( 'NONE', #370, #82, #270 ) ;
#121 = AXIS2_PLACEMENT_3D ( 'NONE', #59, #195, #285 ) ;
#122 = PRODUCT ( '3D-M2102P_33.7x2_174114025', '3D-M2102P_33.7x2_174114025', '', ( #425 ) ) ;
#123 = CC_DESIGN_DATE_AND_TIME_ASSIGNMENT ( #261, #238, ( #87 ) ) ;
#124 = ADVANCED_FACE ( 'NONE', ( #143, #210 ), #311, .F. ) ;
#125 = AXIS2_PLACEMENT_3D ( 'NONE', #14, #70, #176 ) ;
#126 = ORIENTED_EDGE ( 'NONE', *, *, #246, .F. ) ;
#127 = ORIENTED_EDGE ( 'NONE', *, *, #151, .T. ) ;
#128 = ADVANCED_FACE ( 'NONE', ( #367 ), #9, .F. ) ;
#129 = EDGE_LOOP ( 'NONE', ( #159, #288, #96, #321 ) ) ;
#130 = AXIS2_PLACEMENT_3D ( 'NONE', #309, #394, #235 ) ;
#131 = ORIENTED_EDGE ( 'NONE', *, *, #357, .T. ) ;
#132 = PERSON_AND_ORGANIZATION ( #292, #317 ) ;
#133 = DIRECTION ( 'NONE',  ( -1.000000000000000000, -0.000000000000000000, -0.000000000000000000 ) ) ;
#134 = ORIENTED_EDGE ( 'NONE', *, *, #88, .T. ) ;
#135 = EDGE_CURVE ( 'NONE', #98, #157, #8, .T. ) ;
#136 = DIRECTION ( 'NONE',  ( 0.000000000000000000, 0.000000000000000000, 1.000000000000000000 ) ) ;
#137 = PERSON_AND_ORGANIZATION_ROLE ( 'design_supplier' ) ;
#138 = ORIENTED_EDGE ( 'NONE', *, *, #399, .T. ) ;
#139 = LINE ( 'NONE', #234, #280 ) ;
#140 = ORIENTED_EDGE ( 'NONE', *, *, #379, .F. ) ;
#141 = DIRECTION ( 'NONE',  ( -1.000000000000000000, 0.000000000000000000, -0.000000000000000000 ) ) ;
#142 = CARTESIAN_POINT ( 'NONE',  ( 0.000000000000000000, 1.592040838891559095E-15, -13.00000000000000000 ) ) ;
#143 = FACE_OUTER_BOUND ( 'NONE', #289, .T. ) ;
#144 = CARTESIAN_POINT ( 'NONE',  ( 22.00000000000000000, 0.000000000000000000, 0.000000000000000000 ) ) ;
#145 = DIRECTION ( 'NONE',  ( -1.000000000000000000, -0.000000000000000000, -0.000000000000000000 ) ) ;
#146 = FACE_BOUND ( 'NONE', #80, .T. ) ;
#147 = VERTEX_POINT ( 'NONE', #40 ) ;
#148 = CARTESIAN_POINT ( 'NONE',  ( 1.000000000000000888, 0.000000000000000000, -13.00000000000000000 ) ) ;
#149 = CIRCLE ( 'NONE', #13, 14.84999999999999964 ) ;
#150 = EDGE_LOOP ( 'NONE', ( #417, #199, #391, #22 ) ) ;
#151 = EDGE_CURVE ( 'NONE', #98, #162, #242, .T. ) ;
#152 = ADVANCED_BREP_SHAPE_REPRESENTATION ( '3D-M2102P_33.7x2_174114025', ( #156, #75 ), #15 ) ;
#153 = AXIS2_PLACEMENT_3D ( 'NONE', #48, #313, #371 ) ;
#154 = AXIS2_PLACEMENT_3D ( 'NONE', #366, #374, #248 ) ;
#155 = CC_DESIGN_PERSON_AND_ORGANIZATION_ASSIGNMENT ( #1, #95, ( #319 ) ) ;
#156 = MANIFOLD_SOLID_BREP ( 'Rotation1', #307 ) ;
#157 = VERTEX_POINT ( 'NONE', #368 ) ;
#158 = CIRCLE ( 'NONE', #18, 13.00000000000000000 ) ;
#159 = ORIENTED_EDGE ( 'NONE', *, *, #119, .F. ) ;
#160 = EDGE_CURVE ( 'NONE', #427, #147, #158, .T. ) ;
#161 = ORIENTED_EDGE ( 'NONE', *, *, #44, .F. ) ;
#162 = VERTEX_POINT ( 'NONE', #179 ) ;
#163 = AXIS2_PLACEMENT_3D ( 'NONE', #231, #169, #402 ) ;
#164 = AXIS2_PLACEMENT_3D ( 'NONE', #215, #240, #205 ) ;
#165 = CC_DESIGN_PERSON_AND_ORGANIZATION_ASSIGNMENT ( #269, #97, ( #122 ) ) ;
#166 = DIRECTION ( 'NONE',  ( 0.000000000000000000, 0.000000000000000000, 1.000000000000000000 ) ) ;
#167 = VERTEX_POINT ( 'NONE', #275 ) ;
#168 = ORIENTED_EDGE ( 'NONE', *, *, #135, .F. ) ;
#169 = DIRECTION ( 'NONE',  ( -1.000000000000000000, -0.000000000000000000, -0.000000000000000000 ) ) ;
#170 = APPROVAL_DATE_TIME ( #332, #21 ) ;
#171 = DATE_AND_TIME ( #112, #77 ) ;
#172 = DIRECTION ( 'NONE',  ( -1.000000000000000000, -0.000000000000000000, -0.000000000000000000 ) ) ;
#173 = DIRECTION ( 'NONE',  ( 0.9659258262890680902, 0.000000000000000000, -0.2588190451025217387 ) ) ;
#174 = AXIS2_PLACEMENT_3D ( 'NONE', #404, #116, #342 ) ;
#175 = DIRECTION ( 'NONE',  ( -1.000000000000000000, -0.000000000000000000, -0.000000000000000000 ) ) ;
#176 = DIRECTION ( 'NONE',  ( 0.000000000000000000, 0.000000000000000000, 1.000000000000000000 ) ) ;
#177 = DIRECTION ( 'NONE',  ( 0.000000000000000000, 0.000000000000000000, -1.000000000000000000 ) ) ;
#178 = CARTESIAN_POINT ( 'NONE',  ( 0.000000000000000000, 2.546558553743974456E-15, 19.58845726811988541 ) ) ;
#179 = CARTESIAN_POINT ( 'NONE',  ( 22.00000000000000000, 0.000000000000000000, 16.85000000000000142 ) ) ;
#180 = DIRECTION ( 'NONE',  ( -1.000000000000000000, -0.000000000000000000, -0.000000000000000000 ) ) ;
#181 = CARTESIAN_POINT ( 'NONE',  ( 9.000000000000001776, 0.000000000000000000, -22.00000000000000000 ) ) ;
#182 = EDGE_CURVE ( 'NONE', #57, #91, #265, .T. ) ;
#183 = LINE ( 'NONE', #2, #208 ) ;
#184 = PRODUCT_DEFINITION_SHAPE ( 'NONE', 'NONE',  #319 ) ;
#185 = APPLICATION_CONTEXT ( 'configuration controlled 3d designs of mechanical parts and assemblies' ) ;
#186 = CC_DESIGN_PERSON_AND_ORGANIZATION_ASSIGNMENT ( #385, #358, ( #87 ) ) ;
#187 = AXIS2_PLACEMENT_3D ( 'NONE', #241, #79, #211 ) ;
#188 = ORIENTED_EDGE ( 'NONE', *, *, #85, .F. ) ;
#189 = ORIENTED_EDGE ( 'NONE', *, *, #194, .T. ) ;
#190 = ADVANCED_FACE ( 'NONE', ( #46, #146 ), #341, .F. ) ;
#191 = VECTOR ( 'NONE', #10, 1000.000000000000000 ) ;
#192 = LOCAL_TIME ( 11, 18, 49.00000000000000000, #26 ) ;
#193 = CC_DESIGN_PERSON_AND_ORGANIZATION_ASSIGNMENT ( #132, #137, ( #84 ) ) ;
#194 = EDGE_CURVE ( 'NONE', #302, #384, #279, .T. ) ;
#195 = DIRECTION ( 'NONE',  ( -1.000000000000000000, -0.000000000000000000, -0.000000000000000000 ) ) ;
#196 = ORIENTED_EDGE ( 'NONE', *, *, #160, .F. ) ;
#197 = AXIS2_PLACEMENT_3D ( 'NONE', #272, #175, #41 ) ;
#198 = CARTESIAN_POINT ( 'NONE',  ( 0.000000000000000000, 0.000000000000000000, 0.000000000000000000 ) ) ;
#199 = ORIENTED_EDGE ( 'NONE', *, *, #246, .T. ) ;
#200 = CALENDAR_DATE ( 2024, 5, 9 ) ;
#201 = DIRECTION ( 'NONE',  ( 0.000000000000000000, 0.000000000000000000, -1.000000000000000000 ) ) ;
#202 = CARTESIAN_POINT ( 'NONE',  ( 22.00000000000000000, 0.000000000000000000, 14.84999999999999964 ) ) ;
#203 = FACE_OUTER_BOUND ( 'NONE', #94, .T. ) ;
#204 = APPROVAL_DATE_TIME ( #30, #337 ) ;
#205 = DIRECTION ( 'NONE',  ( -0.000000000000000000, 0.000000000000000000, 1.000000000000000000 ) ) ;
#206 = ADVANCED_FACE ( 'NONE', ( #114 ), #107, .T. ) ;
#207 = APPLICATION_CONTEXT ( 'configuration controlled 3d designs of mechanical parts and assemblies' ) ;
#208 = VECTOR ( 'NONE', #364, 1000.000000000000227 ) ;
#209 = LINE ( 'NONE', #423, #37 ) ;
#210 = FACE_BOUND ( 'NONE', #420, .T. ) ;
#211 = DIRECTION ( 'NONE',  ( 0.000000000000000000, 0.000000000000000000, 1.000000000000000000 ) ) ;
#212 = LINE ( 'NONE', #338, #413 ) ;
#213 = LINE ( 'NONE', #181, #251 ) ;
#214 = ADVANCED_FACE ( 'NONE', ( #43, #203 ), #99, .F. ) ;
#215 = CARTESIAN_POINT ( 'NONE',  ( 9.000000000000001776, 16.85000000000000142, 0.000000000000000000 ) ) ;
#216 = FACE_OUTER_BOUND ( 'NONE', #387, .T. ) ;
#217 = CIRCLE ( 'NONE', #125, 13.00000000000000000 ) ;
#218 = UNCERTAINTY_MEASURE_WITH_UNIT (LENGTH_MEASURE( 1.000000000000000082E-05 ), #296, 'distance_accuracy_value', 'NONE');
#219 = AXIS2_PLACEMENT_3D ( 'NONE', #306, #180, #245 ) ;
#220 = AXIS2_PLACEMENT_3D ( 'NONE', #349, #301, #32 ) ;
#221 = EDGE_CURVE ( 'NONE', #157, #228, #405, .T. ) ;
#222 = ORIENTED_EDGE ( 'NONE', *, *, #416, .T. ) ;
#223 = ORIENTED_EDGE ( 'NONE', *, *, #182, .T. ) ;
#224 = CIRCLE ( 'NONE', #403, 13.00000000000000000 ) ;
#225 = AXIS2_PLACEMENT_3D ( 'NONE', #103, #27, #201 ) ;
#226 = EDGE_LOOP ( 'NONE', ( #20, #290, #355, #353 ) ) ;
#227 = CALENDAR_DATE ( 2024, 5, 9 ) ;
#228 = VERTEX_POINT ( 'NONE', #407 ) ;
#229 = VERTEX_POINT ( 'NONE', #81 ) ;
#230 = AXIS2_PLACEMENT_3D ( 'NONE', #237, #68, #177 ) ;
#231 = CARTESIAN_POINT ( 'NONE',  ( 0.000000000000000000, 0.000000000000000000, 0.000000000000000000 ) ) ;
#232 = DIRECTION ( 'NONE',  ( 0.000000000000000000, 0.000000000000000000, 1.000000000000000000 ) ) ;
#233 = ORIENTED_EDGE ( 'NONE', *, *, #182, .F. ) ;
#234 = CARTESIAN_POINT ( 'NONE',  ( -16.64708581120227038, 0.000000000000000000, 13.00000000000000000 ) ) ;
#235 = DIRECTION ( 'NONE',  ( 0.000000000000000000, 0.000000000000000000, 1.000000000000000000 ) ) ;
#236 = DIRECTION ( 'NONE',  ( 1.000000000000000000, 0.000000000000000000, 0.000000000000000000 ) ) ;
#237 = CARTESIAN_POINT ( 'NONE',  ( 1.000000000000000888, 0.000000000000000000, 0.000000000000000000 ) ) ;
#238 = DATE_TIME_ROLE ( 'classification_date' ) ;
#239 = PERSON_AND_ORGANIZATION ( #292, #317 ) ;
#240 = DIRECTION ( 'NONE',  ( -1.000000000000000000, 0.000000000000000000, -0.000000000000000000 ) ) ;
#241 = CARTESIAN_POINT ( 'NONE',  ( -16.64708581120227038, 0.000000000000000000, 0.000000000000000000 ) ) ;
#242 = CIRCLE ( 'NONE', #115, 16.85000000000000142 ) ;
#243 = PRODUCT_RELATED_PRODUCT_CATEGORY ( 'detail', '', ( #122 ) ) ;
#244 = CARTESIAN_POINT ( 'NONE',  ( 9.000000000000001776, 0.000000000000000000, 0.000000000000000000 ) ) ;
#245 = DIRECTION ( 'NONE',  ( 0.000000000000000000, 0.000000000000000000, 1.000000000000000000 ) ) ;
#246 = EDGE_CURVE ( 'NONE', #278, #167, #335, .T. ) ;
#247 = DIRECTION ( 'NONE',  ( -1.000000000000000000, -0.000000000000000000, -0.000000000000000000 ) ) ;
#248 = DIRECTION ( 'NONE',  ( 0.000000000000000000, 0.000000000000000000, 1.000000000000000000 ) ) ;
#249 = DIRECTION ( 'NONE',  ( -1.000000000000000000, -0.000000000000000000, -0.000000000000000000 ) ) ;
#250 = AXIS2_PLACEMENT_3D ( 'NONE', #340, #12, #274 ) ;
#251 = VECTOR ( 'NONE', #173, 1000.000000000000227 ) ;
#252 = CARTESIAN_POINT ( 'NONE',  ( 22.00000000000000000, 0.000000000000000000, 0.000000000000000000 ) ) ;
#253 = APPROVAL_PERSON_ORGANIZATION ( #239, #412, #6 ) ;
#254 = ORIENTED_EDGE ( 'NONE', *, *, #267, .F. ) ;
#255 = ORIENTED_EDGE ( 'NONE', *, *, #4, .F. ) ;
#256 = CC_DESIGN_PERSON_AND_ORGANIZATION_ASSIGNMENT ( #111, #429, ( #84 ) ) ;
#257 = ORIENTED_EDGE ( 'NONE', *, *, #67, .T. ) ;
#258 = DIRECTION ( 'NONE',  ( 0.000000000000000000, 0.000000000000000000, -1.000000000000000000 ) ) ;
#259 = ORIENTED_EDGE ( 'NONE', *, *, #11, .F. ) ;
#260 = EDGE_LOOP ( 'NONE', ( #259, #104 ) ) ;
#261 = DATE_AND_TIME ( #62, #192 ) ;
#262 = CARTESIAN_POINT ( 'NONE',  ( 0.000000000000000000, 0.000000000000000000, 0.000000000000000000 ) ) ;
#263 = ORIENTED_EDGE ( 'NONE', *, *, #379, .T. ) ;
#264 = CARTESIAN_POINT ( 'NONE',  ( -16.64708581120227038, 0.000000000000000000, 0.000000000000000000 ) ) ;
#265 = CIRCLE ( 'NONE', #163, 19.58845726811988541 ) ;
#266 = DIRECTION ( 'NONE',  ( 0.000000000000000000, 0.000000000000000000, 1.000000000000000000 ) ) ;
#267 = EDGE_CURVE ( 'NONE', #57, #19, #213, .T. ) ;
#268 = SECURITY_CLASSIFICATION_LEVEL ( 'unclassified' ) ;
#269 = PERSON_AND_ORGANIZATION ( #292, #317 ) ;
#270 = DIRECTION ( 'NONE',  ( 0.000000000000000000, 0.000000000000000000, 1.000000000000000000 ) ) ;
#271 = APPROVAL_STATUS ( 'not_yet_approved' ) ;
#272 = CARTESIAN_POINT ( 'NONE',  ( 9.000000000000001776, 0.000000000000000000, 0.000000000000000000 ) ) ;
#273 = CARTESIAN_POINT ( 'NONE',  ( -16.64708581120227038, 1.818600496733819553E-15, -14.84999999999999964 ) ) ;
#274 = DIRECTION ( 'NONE',  ( 0.000000000000000000, 0.000000000000000000, 1.000000000000000000 ) ) ;
#275 = CARTESIAN_POINT ( 'NONE',  ( 20.99999999999999645, 0.000000000000000000, 14.84999999999999964 ) ) ;
#276 = FACE_OUTER_BOUND ( 'NONE', #25, .T. ) ;
#277 = EDGE_CURVE ( 'NONE', #19, #377, #314, .T. ) ;
#278 = VERTEX_POINT ( 'NONE', #315 ) ;
#279 = LINE ( 'NONE', #148, #191 ) ;
#280 = VECTOR ( 'NONE', #305, 1000.000000000000000 ) ;
#281 = CYLINDRICAL_SURFACE ( 'NONE', #359, 14.84999999999999964 ) ;
#282 = ADVANCED_FACE ( 'NONE', ( #216 ), #105, .T. ) ;
#283 = CIRCLE ( 'NONE', #197, 22.00000000000000000 ) ;
#284 = CC_DESIGN_APPROVAL ( #21, ( #87 ) ) ;
#285 = DIRECTION ( 'NONE',  ( 0.000000000000000000, 0.000000000000000000, 1.000000000000000000 ) ) ;
#286 = EDGE_CURVE ( 'NONE', #278, #147, #139, .T. ) ;
#287 = AXIS2_PLACEMENT_3D ( 'NONE', #363, #247, #136 ) ;
#288 = ORIENTED_EDGE ( 'NONE', *, *, #34, .F. ) ;
#289 = EDGE_LOOP ( 'NONE', ( #92, #415 ) ) ;
#290 = ORIENTED_EDGE ( 'NONE', *, *, #119, .T. ) ;
#291 = ORIENTED_EDGE ( 'NONE', *, *, #221, .T. ) ;
#292 = PERSON ( 'UNSPECIFIED', 'UNSPECIFIED', 'UNSPECIFIED', ('UNSPECIFIED'), ('UNSPECIFIED'), ('UNSPECIFIED') ) ;
#293 = ORIENTED_EDGE ( 'NONE', *, *, #320, .F. ) ;
#294 = CIRCLE ( 'NONE', #351, 16.85000000000000142 ) ;
#295 = CIRCLE ( 'NONE', #130, 14.84999999999999964 ) ;
#296 =( LENGTH_UNIT ( ) NAMED_UNIT ( * ) SI_UNIT ( .MILLI., .METRE. ) );
#297 = ORIENTED_EDGE ( 'NONE', *, *, #67, .F. ) ;
#298 = DATE_TIME_ROLE ( 'creation_date' ) ;
#299 = APPLICATION_PROTOCOL_DEFINITION ( 'international standard', 'config_control_design', 1994, #185 ) ;
#300 = ORIENTED_EDGE ( 'NONE', *, *, #277, .T. ) ;
#301 = DIRECTION ( 'NONE',  ( -1.000000000000000000, -0.000000000000000000, -0.000000000000000000 ) ) ;
#302 = VERTEX_POINT ( 'NONE', #356 ) ;
#303 = ADVANCED_FACE ( 'NONE', ( #61 ), #310, .F. ) ;
#304 = APPROVAL_DATE_TIME ( #171, #412 ) ;
#305 = DIRECTION ( 'NONE',  ( -1.000000000000000000, -0.000000000000000000, -0.000000000000000000 ) ) ;
#306 = CARTESIAN_POINT ( 'NONE',  ( 0.000000000000000000, 0.000000000000000000, 0.000000000000000000 ) ) ;
#307 = CLOSED_SHELL ( 'NONE', ( #282, #328, #128, #17, #53, #303, #100, #346, #214, #373, #124, #206, #190 ) ) ;
#308 = LINE ( 'NONE', #273, #322 ) ;
#309 = CARTESIAN_POINT ( 'NONE',  ( 22.00000000000000000, 0.000000000000000000, 0.000000000000000000 ) ) ;
#310 = CYLINDRICAL_SURFACE ( 'NONE', #154, 14.84999999999999964 ) ;
#311 = PLANE ( 'NONE',  #164 ) ;
#312 = CARTESIAN_POINT ( 'NONE',  ( 0.000000000000000000, 0.000000000000000000, 0.000000000000000000 ) ) ;
#313 = DIRECTION ( 'NONE',  ( 1.000000000000000000, 0.000000000000000000, 0.000000000000000000 ) ) ;
#314 = CIRCLE ( 'NONE', #392, 22.00000000000000000 ) ;
#315 = CARTESIAN_POINT ( 'NONE',  ( 1.000000000000000888, 1.705320667812689226E-15, 13.00000000000000000 ) ) ;
#316 = EDGE_CURVE ( 'NONE', #302, #278, #217, .T. ) ;
#317 = ORGANIZATION ( 'UNSPECIFIED', 'UNSPECIFIED', '' ) ;
#318 = APPROVAL_PERSON_ORGANIZATION ( #389, #21, #360 ) ;
#319 = PRODUCT_DEFINITION ( 'UNKNOWN', '', #84, #47 ) ;
#320 = EDGE_CURVE ( 'NONE', #229, #384, #308, .T. ) ;
#321 = ORIENTED_EDGE ( 'NONE', *, *, #44, .T. ) ;
#322 = VECTOR ( 'NONE', #76, 1000.000000000000000 ) ;
#323 = EDGE_LOOP ( 'NONE', ( #161, #196 ) ) ;
#324 = ORIENTED_EDGE ( 'NONE', *, *, #357, .F. ) ;
#325 = ORIENTED_EDGE ( 'NONE', *, *, #221, .F. ) ;
#326 = ORIENTED_EDGE ( 'NONE', *, *, #409, .T. ) ;
#327 = DATE_AND_TIME ( #227, #393 ) ;
#328 = ADVANCED_FACE ( 'NONE', ( #276 ), #419, .T. ) ;
#329 = CARTESIAN_POINT ( 'NONE',  ( 9.000000000000001776, 2.694222958124176809E-15, 22.00000000000000000 ) ) ;
#330 = EDGE_LOOP ( 'NONE', ( #188, #380, #222, #297 ) ) ;
#331 = DIRECTION ( 'NONE',  ( -0.000000000000000000, 0.000000000000000000, 1.000000000000000000 ) ) ;
#332 = DATE_AND_TIME ( #200, #23 ) ;
#333 = CARTESIAN_POINT ( 'NONE',  ( 20.99999999999999645, 1.818600496733819553E-15, -14.84999999999999964 ) ) ;
#334 = CARTESIAN_POINT ( 'NONE',  ( 1.000000000000000888, 0.000000000000000000, 0.000000000000000000 ) ) ;
#335 = LINE ( 'NONE', #69, #345 ) ;
#336 = DIRECTION ( 'NONE',  ( 0.000000000000000000, 0.000000000000000000, 1.000000000000000000 ) ) ;
#337 = APPROVAL ( #271, 'UNSPECIFIED' ) ;
#338 = CARTESIAN_POINT ( 'NONE',  ( -16.64708581120227038, 0.000000000000000000, 14.84999999999999964 ) ) ;
#339 = CIRCLE ( 'NONE', #93, 14.84999999999999964 ) ;
#340 = CARTESIAN_POINT ( 'NONE',  ( 20.99999999999999645, 0.000000000000000000, 0.000000000000000000 ) ) ;
#341 = PLANE ( 'NONE',  #83 ) ;
#342 = DIRECTION ( 'NONE',  ( 0.000000000000000000, 0.000000000000000000, 1.000000000000000000 ) ) ;
#343 = DIRECTION ( 'NONE',  ( 0.000000000000000000, 0.000000000000000000, 1.000000000000000000 ) ) ;
#344 = DIRECTION ( 'NONE',  ( 0.000000000000000000, 0.000000000000000000, 1.000000000000000000 ) ) ;
#345 = VECTOR ( 'NONE', #35, 1000.000000000000000 ) ;
#346 = ADVANCED_FACE ( 'NONE', ( #24 ), #383, .F. ) ;
#347 = CC_DESIGN_DATE_AND_TIME_ASSIGNMENT ( #327, #298, ( #319 ) ) ;
#348 = CIRCLE ( 'NONE', #120, 16.85000000000000142 ) ;
#349 = CARTESIAN_POINT ( 'NONE',  ( -16.64708581120227038, 0.000000000000000000, 0.000000000000000000 ) ) ;
#350 = ORIENTED_EDGE ( 'NONE', *, *, #34, .T. ) ;
#351 = AXIS2_PLACEMENT_3D ( 'NONE', #42, #39, #397 ) ;
#352 = CIRCLE ( 'NONE', #375, 19.58845726811988541 ) ;
#353 = ORIENTED_EDGE ( 'NONE', *, *, #286, .F. ) ;
#354 = EDGE_LOOP ( 'NONE', ( #126, #350, #189, #362 ) ) ;
#355 = ORIENTED_EDGE ( 'NONE', *, *, #160, .T. ) ;
#356 = CARTESIAN_POINT ( 'NONE',  ( 1.000000000000000888, 0.000000000000000000, -13.00000000000000000 ) ) ;
#357 = EDGE_CURVE ( 'NONE', #45, #229, #149, .T. ) ;
#358 = PERSON_AND_ORGANIZATION_ROLE ( 'classification_officer' ) ;
#359 = AXIS2_PLACEMENT_3D ( 'NONE', #264, #145, #106 ) ;
#360 = APPROVAL_ROLE ( '' ) ;
#361 = DIRECTION ( 'NONE',  ( -1.000000000000000000, -0.000000000000000000, -0.000000000000000000 ) ) ;
#362 = ORIENTED_EDGE ( 'NONE', *, *, #88, .F. ) ;
#363 = CARTESIAN_POINT ( 'NONE',  ( 9.000000000000001776, 0.000000000000000000, 0.000000000000000000 ) ) ;
#364 = DIRECTION ( 'NONE',  ( 0.9659258262890680902, 3.169619151431776035E-17, 0.2588190451025217387 ) ) ;
#365 = DIRECTION ( 'NONE',  ( -1.000000000000000000, -0.000000000000000000, -0.000000000000000000 ) ) ;
#366 = CARTESIAN_POINT ( 'NONE',  ( -16.64708581120227038, 0.000000000000000000, 0.000000000000000000 ) ) ;
#367 = FACE_OUTER_BOUND ( 'NONE', #226, .T. ) ;
#368 = CARTESIAN_POINT ( 'NONE',  ( 9.000000000000001776, 2.063529856563290244E-15, -16.85000000000000142 ) ) ;
#369 = DIRECTION ( 'NONE',  ( 1.000000000000000000, 0.000000000000000000, 0.000000000000000000 ) ) ;
#370 = CARTESIAN_POINT ( 'NONE',  ( 9.000000000000001776, 0.000000000000000000, 0.000000000000000000 ) ) ;
#371 = DIRECTION ( 'NONE',  ( 0.000000000000000000, 0.000000000000000000, -1.000000000000000000 ) ) ;
#372 = DIRECTION ( 'NONE',  ( -1.000000000000000000, -0.000000000000000000, -0.000000000000000000 ) ) ;
#373 = ADVANCED_FACE ( 'NONE', ( #16 ), #411, .T. ) ;
#374 = DIRECTION ( 'NONE',  ( -1.000000000000000000, -0.000000000000000000, -0.000000000000000000 ) ) ;
#375 = AXIS2_PLACEMENT_3D ( 'NONE', #262, #109, #336 ) ;
#376 = DIRECTION ( 'NONE',  ( -1.000000000000000000, -0.000000000000000000, -0.000000000000000000 ) ) ;
#377 = VERTEX_POINT ( 'NONE', #329 ) ;
#378 = ORIENTED_EDGE ( 'NONE', *, *, #85, .T. ) ;
#379 = EDGE_CURVE ( 'NONE', #91, #57, #352, .T. ) ;
#380 = ORIENTED_EDGE ( 'NONE', *, *, #320, .T. ) ;
#381 = CIRCLE ( 'NONE', #219, 13.00000000000000000 ) ;
#382 = ORIENTED_EDGE ( 'NONE', *, *, #399, .F. ) ;
#383 = CYLINDRICAL_SURFACE ( 'NONE', #121, 13.00000000000000000 ) ;
#384 = VERTEX_POINT ( 'NONE', #333 ) ;
#385 = PERSON_AND_ORGANIZATION ( #292, #317 ) ;
#386 =( NAMED_UNIT ( * ) SI_UNIT ( $, .STERADIAN. ) SOLID_ANGLE_UNIT ( ) );
#387 = EDGE_LOOP ( 'NONE', ( #426, #65, #255, #382 ) ) ;
#388 = DIRECTION ( 'NONE',  ( -1.000000000000000000, -0.000000000000000000, -0.000000000000000000 ) ) ;
#389 = PERSON_AND_ORGANIZATION ( #292, #317 ) ;
#390 = APPLICATION_PROTOCOL_DEFINITION ( 'international standard', 'config_control_design', 1994, #207 ) ;
#391 = ORIENTED_EDGE ( 'NONE', *, *, #416, .F. ) ;
#392 = AXIS2_PLACEMENT_3D ( 'NONE', #86, #372, #410 ) ;
#393 = LOCAL_TIME ( 11, 18, 49.00000000000000000, #5 ) ;
#394 = DIRECTION ( 'NONE',  ( -1.000000000000000000, -0.000000000000000000, -0.000000000000000000 ) ) ;
#395 = CARTESIAN_POINT ( 'NONE',  ( 2.795616320141674911E-16, 19.58845726811988541, 0.000000000000000000 ) ) ;
#396 = COORDINATED_UNIVERSAL_TIME_OFFSET ( 1, 0, .AHEAD. ) ;
#397 = DIRECTION ( 'NONE',  ( 0.000000000000000000, 0.000000000000000000, 1.000000000000000000 ) ) ;
#398 = PERSON_AND_ORGANIZATION ( #292, #317 ) ;
#399 = EDGE_CURVE ( 'NONE', #162, #228, #209, .T. ) ;
#400 =( NAMED_UNIT ( * ) PLANE_ANGLE_UNIT ( ) SI_UNIT ( $, .RADIAN. ) );
#401 = FACE_OUTER_BOUND ( 'NONE', #150, .T. ) ;
#402 = DIRECTION ( 'NONE',  ( 0.000000000000000000, 0.000000000000000000, 1.000000000000000000 ) ) ;
#403 = AXIS2_PLACEMENT_3D ( 'NONE', #334, #172, #344 ) ;
#404 = CARTESIAN_POINT ( 'NONE',  ( -16.64708581120227038, 0.000000000000000000, 0.000000000000000000 ) ) ;
#405 = CIRCLE ( 'NONE', #287, 16.85000000000000142 ) ;
#406 = CIRCLE ( 'NONE', #250, 14.84999999999999964 ) ;
#407 = CARTESIAN_POINT ( 'NONE',  ( 9.000000000000001776, 0.000000000000000000, 16.85000000000000142 ) ) ;
#408 = CARTESIAN_POINT ( 'NONE',  ( 0.000000000000000000, 0.000000000000000000, -19.58845726811988541 ) ) ;
#409 = EDGE_CURVE ( 'NONE', #377, #19, #283, .T. ) ;
#410 = DIRECTION ( 'NONE',  ( 0.000000000000000000, 0.000000000000000000, 1.000000000000000000 ) ) ;
#411 = CONICAL_SURFACE ( 'NONE', #225, 22.00000000000000000, 0.2617993877991504625 ) ;
#412 = APPROVAL ( #31, 'UNSPECIFIED' ) ;
#413 = VECTOR ( 'NONE', #71, 1000.000000000000000 ) ;
#414 = APPROVAL_PERSON_ORGANIZATION ( #398, #337, #72 ) ;
#415 = ORIENTED_EDGE ( 'NONE', *, *, #409, .F. ) ;
#416 = EDGE_CURVE ( 'NONE', #384, #167, #339, .T. ) ;
#417 = ORIENTED_EDGE ( 'NONE', *, *, #316, .T. ) ;
#418 = EDGE_LOOP ( 'NONE', ( #293, #324, #257, #134 ) ) ;
#419 = CONICAL_SURFACE ( 'NONE', #55, 22.00000000000000000, 0.2617993877991504625 ) ;
#420 = EDGE_LOOP ( 'NONE', ( #60, #291 ) ) ;
#421 = CC_DESIGN_APPROVAL ( #337, ( #84 ) ) ;
#422 = CALENDAR_DATE ( 2024, 5, 9 ) ;
#423 = CARTESIAN_POINT ( 'NONE',  ( -16.64708581120227038, 0.000000000000000000, 16.85000000000000142 ) ) ;
#424 = ORIENTED_EDGE ( 'NONE', *, *, #267, .T. ) ;
#425 = MECHANICAL_CONTEXT ( 'NONE', #185, 'mechanical' ) ;
#426 = ORIENTED_EDGE ( 'NONE', *, *, #11, .T. ) ;
#427 = VERTEX_POINT ( 'NONE', #142 ) ;
#428 = DIRECTION ( 'NONE',  ( 0.000000000000000000, 0.000000000000000000, -1.000000000000000000 ) ) ;
#429 = PERSON_AND_ORGANIZATION_ROLE ( 'creator' ) ;
ENDSEC;
END-ISO-10303-21;
