ISO-10303-21;
HEADER;
FILE_DESCRIPTION (( 'STEP AP203' ),
    '1' );
FILE_NAME ('3D_R6465_28x14x3_173482760.STEP',
    '2024-08-26T12:04:53',
    ( '' ),
    ( '' ),
    'SwSTEP 2.0',
    'SolidWorks 2024',
    '' );
FILE_SCHEMA (( 'CONFIG_CONTROL_DESIGN' ));
ENDSEC;

DATA;
#1 = AXIS2_PLACEMENT_3D ( 'NONE', #72, #216, #49 ) ;
#2 = CARTESIAN_POINT ( 'NONE',  ( 0.000000000000000000, -3.000000000000000000, 0.000000000000000000 ) ) ;
#3 = ORIENTED_EDGE ( 'NONE', *, *, #92, .T. ) ;
#4 = DIRECTION ( 'NONE',  ( 0.000000000000000000, 1.000000000000000000, 0.000000000000000000 ) ) ;
#5 = CARTESIAN_POINT ( 'NONE',  ( 0.000000000000000000, -3.000000000000000000, 0.000000000000000000 ) ) ;
#6 = DIRECTION ( 'NONE',  ( 0.000000000000000000, 1.000000000000000000, 0.000000000000000000 ) ) ;
#7 = CC_DESIGN_PERSON_AND_ORGANIZATION_ASSIGNMENT ( #243, #129, ( #43 ) ) ;
#8 = DIRECTION ( 'NONE',  ( 0.000000000000000000, 1.000000000000000000, 0.000000000000000000 ) ) ;
#9 = CARTESIAN_POINT ( 'NONE',  ( 1.714505518806294638E-15, -3.000000000000000000, -14.00000000000000000 ) ) ;
#10 = LOCAL_TIME ( 14, 4, 53.00000000000000000, #167 ) ;
#11 = APPLICATION_PROTOCOL_DEFINITION ( 'international standard', 'config_control_design', 1994, #124 ) ;
#12 = DIRECTION ( 'NONE',  ( 0.000000000000000000, 0.000000000000000000, 1.000000000000000000 ) ) ;
#13 = CIRCLE ( 'NONE', #183, 6.999999999999999112 ) ;
#14 = PERSON_AND_ORGANIZATION_ROLE ( 'design_supplier' ) ;
#15 = ADVANCED_FACE ( 'NONE', ( #18 ), #98, .F. ) ;
#16 = ORIENTED_EDGE ( 'NONE', *, *, #92, .F. ) ;
#17 = AXIS2_PLACEMENT_3D ( 'NONE', #2, #64, #139 ) ;
#18 = FACE_OUTER_BOUND ( 'NONE', #113, .T. ) ;
#19 = APPLICATION_CONTEXT ( 'configuration controlled 3d designs of mechanical parts and assemblies' ) ;
#20 = VECTOR ( 'NONE', #8, 1000.000000000000000 ) ;
#21 = EDGE_CURVE ( 'NONE', #116, #155, #241, .T. ) ;
#22 = CARTESIAN_POINT ( 'NONE',  ( 0.000000000000000000, -3.000000000000000000, 6.999999999999999112 ) ) ;
#23 = CARTESIAN_POINT ( 'NONE',  ( 0.000000000000000000, -3.000000000000000000, 6.999999999999999112 ) ) ;
#24 = DIRECTION ( 'NONE',  ( 0.000000000000000000, 1.000000000000000000, 0.000000000000000000 ) ) ;
#25 = EDGE_CURVE ( 'NONE', #34, #227, #30, .T. ) ;
#26 = ORGANIZATION ( 'UNSPECIFIED', 'UNSPECIFIED', '' ) ;
#27 = FACE_OUTER_BOUND ( 'NONE', #232, .T. ) ;
#28 = PLANE ( 'NONE',  #60 ) ;
#29 = CC_DESIGN_PERSON_AND_ORGANIZATION_ASSIGNMENT ( #148, #187, ( #236 ) ) ;
#30 = CIRCLE ( 'NONE', #17, 14.00000000000000000 ) ;
#31 = CALENDAR_DATE ( 2024, 26, 8 ) ;
#32 = DATE_AND_TIME ( #169, #10 ) ;
#33 = APPROVAL_ROLE ( '' ) ;
#34 = VERTEX_POINT ( 'NONE', #84 ) ;
#35 = CC_DESIGN_DATE_AND_TIME_ASSIGNMENT ( #76, #245, ( #94 ) ) ;
#36 = MECHANICAL_CONTEXT ( 'NONE', #19, 'mechanical' ) ;
#37 = ORIENTED_EDGE ( 'NONE', *, *, #202, .T. ) ;
#38 = ORIENTED_EDGE ( 'NONE', *, *, #247, .T. ) ;
#39 = CIRCLE ( 'NONE', #134, 14.00000000000000000 ) ;
#40 = ORIENTED_EDGE ( 'NONE', *, *, #202, .F. ) ;
#41 = EDGE_LOOP ( 'NONE', ( #40, #63 ) ) ;
#42 = ORIENTED_EDGE ( 'NONE', *, *, #219, .F. ) ;
#43 = PRODUCT_DEFINITION ( 'UNKNOWN', '', #236, #205 ) ;
#44 = LOCAL_TIME ( 14, 4, 53.00000000000000000, #150 ) ;
#45 = CARTESIAN_POINT ( 'NONE',  ( 0.000000000000000000, 0.000000000000000000, 14.00000000000000000 ) ) ;
#46 = DIRECTION ( 'NONE',  ( 0.000000000000000000, 1.000000000000000000, 0.000000000000000000 ) ) ;
#47 = EDGE_CURVE ( 'NONE', #34, #193, #211, .T. ) ;
#48 = PLANE ( 'NONE',  #179 ) ;
#49 = DIRECTION ( 'NONE',  ( 0.000000000000000000, 0.000000000000000000, 1.000000000000000000 ) ) ;
#50 = CIRCLE ( 'NONE', #121, 6.999999999999999112 ) ;
#51 = CYLINDRICAL_SURFACE ( 'NONE', #244, 14.00000000000000000 ) ;
#52 = COORDINATED_UNIVERSAL_TIME_OFFSET ( 1, 0, .AHEAD. ) ;
#53 =( GEOMETRIC_REPRESENTATION_CONTEXT ( 3 ) GLOBAL_UNCERTAINTY_ASSIGNED_CONTEXT ( ( #191 ) ) GLOBAL_UNIT_ASSIGNED_CONTEXT ( ( #78, #58, #126 ) ) REPRESENTATION_CONTEXT ( 'NONE', 'WORKASPACE' ) );
#54 = CALENDAR_DATE ( 2024, 26, 8 ) ;
#55 = ADVANCED_FACE ( 'NONE', ( #146 ), #51, .T. ) ;
#56 = APPROVAL_DATE_TIME ( #32, #186 ) ;
#57 = ORIENTED_EDGE ( 'NONE', *, *, #21, .F. ) ;
#58 =( NAMED_UNIT ( * ) PLANE_ANGLE_UNIT ( ) SI_UNIT ( $, .RADIAN. ) );
#59 = APPROVAL_PERSON_ORGANIZATION ( #184, #186, #33 ) ;
#60 = AXIS2_PLACEMENT_3D ( 'NONE', #161, #4, #88 ) ;
#61 = ORIENTED_EDGE ( 'NONE', *, *, #25, .F. ) ;
#62 = ADVANCED_FACE ( 'NONE', ( #218, #215 ), #28, .T. ) ;
#63 = ORIENTED_EDGE ( 'NONE', *, *, #133, .F. ) ;
#64 = DIRECTION ( 'NONE',  ( 0.000000000000000000, 1.000000000000000000, 0.000000000000000000 ) ) ;
#65 = APPROVAL_PERSON_ORGANIZATION ( #204, #157, #108 ) ;
#66 = ORIENTED_EDGE ( 'NONE', *, *, #133, .T. ) ;
#67 = CC_DESIGN_PERSON_AND_ORGANIZATION_ASSIGNMENT ( #93, #171, ( #94 ) ) ;
#68 = DIRECTION ( 'NONE',  ( 0.000000000000000000, 1.000000000000000000, 0.000000000000000000 ) ) ;
#69 = LINE ( 'NONE', #22, #230 ) ;
#70 = AXIS2_PLACEMENT_3D ( 'NONE', #173, #68, #137 ) ;
#71 = CARTESIAN_POINT ( 'NONE',  ( 8.572527594031472204E-16, -3.000000000000000000, -6.999999999999999112 ) ) ;
#72 = CARTESIAN_POINT ( 'NONE',  ( 0.000000000000000000, -3.000000000000000000, 0.000000000000000000 ) ) ;
#73 = DIRECTION ( 'NONE',  ( 0.000000000000000000, 1.000000000000000000, 0.000000000000000000 ) ) ;
#74 = LINE ( 'NONE', #159, #206 ) ;
#75 = CALENDAR_DATE ( 2024, 26, 8 ) ;
#76 = DATE_AND_TIME ( #75, #44 ) ;
#77 = CIRCLE ( 'NONE', #138, 14.00000000000000000 ) ;
#78 =( LENGTH_UNIT ( ) NAMED_UNIT ( * ) SI_UNIT ( .MILLI., .METRE. ) );
#79 = APPROVAL_DATE_TIME ( #246, #165 ) ;
#80 = CC_DESIGN_APPROVAL ( #157, ( #236 ) ) ;
#81 = ORIENTED_EDGE ( 'NONE', *, *, #142, .F. ) ;
#82 = CARTESIAN_POINT ( 'NONE',  ( 0.000000000000000000, -3.000000000000000000, 0.000000000000000000 ) ) ;
#83 = VERTEX_POINT ( 'NONE', #235 ) ;
#84 = CARTESIAN_POINT ( 'NONE',  ( 0.000000000000000000, -3.000000000000000000, 14.00000000000000000 ) ) ;
#85 = DIRECTION ( 'NONE',  ( 0.000000000000000000, 0.000000000000000000, 1.000000000000000000 ) ) ;
#86 = AXIS2_PLACEMENT_3D ( 'NONE', #5, #102, #199 ) ;
#87 = FACE_OUTER_BOUND ( 'NONE', #153, .T. ) ;
#88 = DIRECTION ( 'NONE',  ( 0.000000000000000000, -0.000000000000000000, 1.000000000000000000 ) ) ;
#89 = AXIS2_PLACEMENT_3D ( 'NONE', #221, #12, #207 ) ;
#90 = PRODUCT_DEFINITION_SHAPE ( 'NONE', 'NONE',  #43 ) ;
#91 = APPROVAL_STATUS ( 'not_yet_approved' ) ;
#92 = EDGE_CURVE ( 'NONE', #155, #116, #176, .T. ) ;
#93 = PERSON_AND_ORGANIZATION ( #233, #26 ) ;
#94 = SECURITY_CLASSIFICATION ( '', '', #107 ) ;
#95 = PERSON_AND_ORGANIZATION ( #233, #26 ) ;
#96 = ORIENTED_EDGE ( 'NONE', *, *, #142, .T. ) ;
#97 = CC_DESIGN_SECURITY_CLASSIFICATION ( #94, ( #236 ) ) ;
#98 = CYLINDRICAL_SURFACE ( 'NONE', #70, 6.999999999999999112 ) ;
#99 = ORIENTED_EDGE ( 'NONE', *, *, #248, .T. ) ;
#100 = DIRECTION ( 'NONE',  ( 0.000000000000000000, 0.000000000000000000, 1.000000000000000000 ) ) ;
#101 = CYLINDRICAL_SURFACE ( 'NONE', #1, 6.999999999999999112 ) ;
#102 = DIRECTION ( 'NONE',  ( 0.000000000000000000, 1.000000000000000000, 0.000000000000000000 ) ) ;
#103 = LINE ( 'NONE', #181, #20 ) ;
#104 = CARTESIAN_POINT ( 'NONE',  ( 0.000000000000000000, 0.000000000000000000, 6.999999999999999112 ) ) ;
#105 = PERSON_AND_ORGANIZATION_ROLE ( 'design_owner' ) ;
#106 = ADVANCED_FACE ( 'NONE', ( #27 ), #101, .F. ) ;
#107 = SECURITY_CLASSIFICATION_LEVEL ( 'unclassified' ) ;
#108 = APPROVAL_ROLE ( '' ) ;
#109 = EDGE_LOOP ( 'NONE', ( #192, #249, #117, #135 ) ) ;
#110 = AXIS2_PLACEMENT_3D ( 'NONE', #237, #195, #85 ) ;
#111 = PERSON_AND_ORGANIZATION ( #233, #26 ) ;
#112 = ORIENTED_EDGE ( 'NONE', *, *, #25, .T. ) ;
#113 = EDGE_LOOP ( 'NONE', ( #57, #99, #66, #174 ) ) ;
#114 = CC_DESIGN_PERSON_AND_ORGANIZATION_ASSIGNMENT ( #111, #105, ( #163 ) ) ;
#115 = ORIENTED_EDGE ( 'NONE', *, *, #47, .F. ) ;
#116 = VERTEX_POINT ( 'NONE', #71 ) ;
#117 = ORIENTED_EDGE ( 'NONE', *, *, #47, .T. ) ;
#118 = DIRECTION ( 'NONE',  ( 0.000000000000000000, 0.000000000000000000, 1.000000000000000000 ) ) ;
#119 = CARTESIAN_POINT ( 'NONE',  ( 0.000000000000000000, -3.000000000000000000, 14.00000000000000000 ) ) ;
#120 = CARTESIAN_POINT ( 'NONE',  ( 0.000000000000000000, 0.000000000000000000, 0.000000000000000000 ) ) ;
#121 = AXIS2_PLACEMENT_3D ( 'NONE', #120, #178, #100 ) ;
#122 = DIRECTION ( 'NONE',  ( 0.000000000000000000, -0.000000000000000000, 1.000000000000000000 ) ) ;
#123 = CC_DESIGN_PERSON_AND_ORGANIZATION_ASSIGNMENT ( #95, #14, ( #236 ) ) ;
#124 = APPLICATION_CONTEXT ( 'configuration controlled 3d designs of mechanical parts and assemblies' ) ;
#125 = DIRECTION ( 'NONE',  ( 0.000000000000000000, 0.000000000000000000, 1.000000000000000000 ) ) ;
#126 =( NAMED_UNIT ( * ) SI_UNIT ( $, .STERADIAN. ) SOLID_ANGLE_UNIT ( ) );
#127 = ADVANCED_FACE ( 'NONE', ( #145 ), #182, .T. ) ;
#128 = AXIS2_PLACEMENT_3D ( 'NONE', #82, #210, #228 ) ;
#129 = PERSON_AND_ORGANIZATION_ROLE ( 'creator' ) ;
#130 = APPROVAL_ROLE ( '' ) ;
#131 = ORIENTED_EDGE ( 'NONE', *, *, #136, .T. ) ;
#132 = APPLICATION_PROTOCOL_DEFINITION ( 'international standard', 'config_control_design', 1994, #19 ) ;
#133 = EDGE_CURVE ( 'NONE', #83, #208, #13, .T. ) ;
#134 = AXIS2_PLACEMENT_3D ( 'NONE', #147, #46, #125 ) ;
#135 = ORIENTED_EDGE ( 'NONE', *, *, #247, .F. ) ;
#136 = EDGE_CURVE ( 'NONE', #227, #190, #74, .T. ) ;
#137 = DIRECTION ( 'NONE',  ( 0.000000000000000000, 0.000000000000000000, 1.000000000000000000 ) ) ;
#138 = AXIS2_PLACEMENT_3D ( 'NONE', #162, #238, #198 ) ;
#139 = DIRECTION ( 'NONE',  ( 0.000000000000000000, 0.000000000000000000, 1.000000000000000000 ) ) ;
#140 = EDGE_LOOP ( 'NONE', ( #96, #38 ) ) ;
#141 = DIRECTION ( 'NONE',  ( 0.000000000000000000, 1.000000000000000000, 0.000000000000000000 ) ) ;
#142 = EDGE_CURVE ( 'NONE', #193, #190, #39, .T. ) ;
#143 = LOCAL_TIME ( 14, 4, 53.00000000000000000, #52 ) ;
#144 = CARTESIAN_POINT ( 'NONE',  ( 0.000000000000000000, -3.000000000000000000, 0.000000000000000000 ) ) ;
#145 = FACE_OUTER_BOUND ( 'NONE', #175, .T. ) ;
#146 = FACE_OUTER_BOUND ( 'NONE', #109, .T. ) ;
#147 = CARTESIAN_POINT ( 'NONE',  ( 0.000000000000000000, 0.000000000000000000, 0.000000000000000000 ) ) ;
#148 = PERSON_AND_ORGANIZATION ( #233, #26 ) ;
#149 = DATE_TIME_ROLE ( 'creation_date' ) ;
#150 = COORDINATED_UNIVERSAL_TIME_OFFSET ( 1, 0, .AHEAD. ) ;
#151 = LOCAL_TIME ( 14, 4, 53.00000000000000000, #188 ) ;
#152 = ADVANCED_BREP_SHAPE_REPRESENTATION ( '3D_R6465_28x14x3_173482760', ( #223, #89 ), #53 ) ;
#153 = EDGE_LOOP ( 'NONE', ( #61, #42 ) ) ;
#154 = ORIENTED_EDGE ( 'NONE', *, *, #21, .T. ) ;
#155 = VERTEX_POINT ( 'NONE', #23 ) ;
#156 = EDGE_LOOP ( 'NONE', ( #3, #154 ) ) ;
#157 = APPROVAL ( #91, 'UNSPECIFIED' ) ;
#158 = DIRECTION ( 'NONE',  ( 0.000000000000000000, 0.000000000000000000, 1.000000000000000000 ) ) ;
#159 = CARTESIAN_POINT ( 'NONE',  ( 1.714505518806294638E-15, -3.000000000000000000, -14.00000000000000000 ) ) ;
#160 = CIRCLE ( 'NONE', #86, 14.00000000000000000 ) ;
#161 = CARTESIAN_POINT ( 'NONE',  ( 0.000000000000000000, 0.000000000000000000, 0.000000000000000000 ) ) ;
#162 = CARTESIAN_POINT ( 'NONE',  ( 0.000000000000000000, 0.000000000000000000, 0.000000000000000000 ) ) ;
#163 = PRODUCT ( '3D_R6465_28x14x3_173482760', '3D_R6465_28x14x3_173482760', '', ( #36 ) ) ;
#164 = CARTESIAN_POINT ( 'NONE',  ( 0.000000000000000000, 0.000000000000000000, 0.000000000000000000 ) ) ;
#165 = APPROVAL ( #220, 'UNSPECIFIED' ) ;
#166 = DATE_AND_TIME ( #31, #197 ) ;
#167 = COORDINATED_UNIVERSAL_TIME_OFFSET ( 1, 0, .AHEAD. ) ;
#168 = CC_DESIGN_APPROVAL ( #186, ( #43 ) ) ;
#169 = CALENDAR_DATE ( 2024, 26, 8 ) ;
#170 = EDGE_CURVE ( 'NONE', #155, #208, #69, .T. ) ;
#171 = PERSON_AND_ORGANIZATION_ROLE ( 'classification_officer' ) ;
#172 = VECTOR ( 'NONE', #24, 1000.000000000000000 ) ;
#173 = CARTESIAN_POINT ( 'NONE',  ( 0.000000000000000000, -3.000000000000000000, 0.000000000000000000 ) ) ;
#174 = ORIENTED_EDGE ( 'NONE', *, *, #170, .F. ) ;
#175 = EDGE_LOOP ( 'NONE', ( #112, #131, #81, #115 ) ) ;
#176 = CIRCLE ( 'NONE', #110, 6.999999999999999112 ) ;
#177 = DIRECTION ( 'NONE',  ( 0.000000000000000000, 1.000000000000000000, 0.000000000000000000 ) ) ;
#178 = DIRECTION ( 'NONE',  ( 0.000000000000000000, 1.000000000000000000, 0.000000000000000000 ) ) ;
#179 = AXIS2_PLACEMENT_3D ( 'NONE', #180, #6, #122 ) ;
#180 = CARTESIAN_POINT ( 'NONE',  ( 0.000000000000000000, -3.000000000000000000, 0.000000000000000000 ) ) ;
#181 = CARTESIAN_POINT ( 'NONE',  ( 8.572527594031472204E-16, -3.000000000000000000, -6.999999999999999112 ) ) ;
#182 = CYLINDRICAL_SURFACE ( 'NONE', #189, 14.00000000000000000 ) ;
#183 = AXIS2_PLACEMENT_3D ( 'NONE', #164, #177, #158 ) ;
#184 = PERSON_AND_ORGANIZATION ( #233, #26 ) ;
#185 = APPROVAL_DATE_TIME ( #166, #157 ) ;
#186 = APPROVAL ( #242, 'UNSPECIFIED' ) ;
#187 = PERSON_AND_ORGANIZATION_ROLE ( 'creator' ) ;
#188 = COORDINATED_UNIVERSAL_TIME_OFFSET ( 1, 0, .AHEAD. ) ;
#189 = AXIS2_PLACEMENT_3D ( 'NONE', #144, #73, #196 ) ;
#190 = VERTEX_POINT ( 'NONE', #212 ) ;
#191 = UNCERTAINTY_MEASURE_WITH_UNIT (LENGTH_MEASURE( 1.000000000000000082E-05 ), #78, 'distance_accuracy_value', 'NONE');
#192 = ORIENTED_EDGE ( 'NONE', *, *, #136, .F. ) ;
#193 = VERTEX_POINT ( 'NONE', #45 ) ;
#194 = FACE_BOUND ( 'NONE', #156, .T. ) ;
#195 = DIRECTION ( 'NONE',  ( 0.000000000000000000, 1.000000000000000000, 0.000000000000000000 ) ) ;
#196 = DIRECTION ( 'NONE',  ( 0.000000000000000000, 0.000000000000000000, 1.000000000000000000 ) ) ;
#197 = LOCAL_TIME ( 14, 4, 53.00000000000000000, #201 ) ;
#198 = DIRECTION ( 'NONE',  ( 0.000000000000000000, 0.000000000000000000, 1.000000000000000000 ) ) ;
#199 = DIRECTION ( 'NONE',  ( 0.000000000000000000, 0.000000000000000000, 1.000000000000000000 ) ) ;
#200 = CC_DESIGN_DATE_AND_TIME_ASSIGNMENT ( #224, #149, ( #43 ) ) ;
#201 = COORDINATED_UNIVERSAL_TIME_OFFSET ( 1, 0, .AHEAD. ) ;
#202 = EDGE_CURVE ( 'NONE', #208, #83, #50, .T. ) ;
#203 = CALENDAR_DATE ( 2024, 26, 8 ) ;
#204 = PERSON_AND_ORGANIZATION ( #233, #26 ) ;
#205 = DESIGN_CONTEXT ( 'detailed design', #124, 'design' ) ;
#206 = VECTOR ( 'NONE', #214, 1000.000000000000000 ) ;
#207 = DIRECTION ( 'NONE',  ( 1.000000000000000000, 0.000000000000000000, 0.000000000000000000 ) ) ;
#208 = VERTEX_POINT ( 'NONE', #104 ) ;
#209 = ORIENTED_EDGE ( 'NONE', *, *, #248, .F. ) ;
#210 = DIRECTION ( 'NONE',  ( 0.000000000000000000, 1.000000000000000000, 0.000000000000000000 ) ) ;
#211 = LINE ( 'NONE', #119, #172 ) ;
#212 = CARTESIAN_POINT ( 'NONE',  ( 1.714505518806294638E-15, 0.000000000000000000, -14.00000000000000000 ) ) ;
#213 = APPROVAL_PERSON_ORGANIZATION ( #222, #165, #130 ) ;
#214 = DIRECTION ( 'NONE',  ( 0.000000000000000000, 1.000000000000000000, 0.000000000000000000 ) ) ;
#215 = FACE_OUTER_BOUND ( 'NONE', #140, .T. ) ;
#216 = DIRECTION ( 'NONE',  ( 0.000000000000000000, 1.000000000000000000, 0.000000000000000000 ) ) ;
#217 = CC_DESIGN_APPROVAL ( #165, ( #94 ) ) ;
#218 = FACE_BOUND ( 'NONE', #41, .T. ) ;
#219 = EDGE_CURVE ( 'NONE', #227, #34, #160, .T. ) ;
#220 = APPROVAL_STATUS ( 'not_yet_approved' ) ;
#221 = CARTESIAN_POINT ( 'NONE',  ( 0.000000000000000000, 0.000000000000000000, 0.000000000000000000 ) ) ;
#222 = PERSON_AND_ORGANIZATION ( #233, #26 ) ;
#223 = MANIFOLD_SOLID_BREP ( 'Aufsatz-Linear austragen1', #226 ) ;
#224 = DATE_AND_TIME ( #54, #151 ) ;
#225 = SHAPE_DEFINITION_REPRESENTATION ( #90, #152 ) ;
#226 = CLOSED_SHELL ( 'NONE', ( #15, #127, #55, #229, #62, #106 ) ) ;
#227 = VERTEX_POINT ( 'NONE', #9 ) ;
#228 = DIRECTION ( 'NONE',  ( 0.000000000000000000, 0.000000000000000000, 1.000000000000000000 ) ) ;
#229 = ADVANCED_FACE ( 'NONE', ( #194, #87 ), #48, .F. ) ;
#230 = VECTOR ( 'NONE', #141, 1000.000000000000000 ) ;
#231 = ORIENTED_EDGE ( 'NONE', *, *, #170, .T. ) ;
#232 = EDGE_LOOP ( 'NONE', ( #209, #16, #231, #37 ) ) ;
#233 = PERSON ( 'UNSPECIFIED', 'UNSPECIFIED', 'UNSPECIFIED', ('UNSPECIFIED'), ('UNSPECIFIED'), ('UNSPECIFIED') ) ;
#234 = DIRECTION ( 'NONE',  ( 0.000000000000000000, 1.000000000000000000, 0.000000000000000000 ) ) ;
#235 = CARTESIAN_POINT ( 'NONE',  ( 8.572527594031472204E-16, 0.000000000000000000, -6.999999999999999112 ) ) ;
#236 = PRODUCT_DEFINITION_FORMATION_WITH_SPECIFIED_SOURCE ( 'ANY', '', #163, .NOT_KNOWN. ) ;
#237 = CARTESIAN_POINT ( 'NONE',  ( 0.000000000000000000, -3.000000000000000000, 0.000000000000000000 ) ) ;
#238 = DIRECTION ( 'NONE',  ( 0.000000000000000000, 1.000000000000000000, 0.000000000000000000 ) ) ;
#239 = PRODUCT_RELATED_PRODUCT_CATEGORY ( 'detail', '', ( #163 ) ) ;
#240 = CARTESIAN_POINT ( 'NONE',  ( 0.000000000000000000, -3.000000000000000000, 0.000000000000000000 ) ) ;
#241 = CIRCLE ( 'NONE', #128, 6.999999999999999112 ) ;
#242 = APPROVAL_STATUS ( 'not_yet_approved' ) ;
#243 = PERSON_AND_ORGANIZATION ( #233, #26 ) ;
#244 = AXIS2_PLACEMENT_3D ( 'NONE', #240, #234, #118 ) ;
#245 = DATE_TIME_ROLE ( 'classification_date' ) ;
#246 = DATE_AND_TIME ( #203, #143 ) ;
#247 = EDGE_CURVE ( 'NONE', #190, #193, #77, .T. ) ;
#248 = EDGE_CURVE ( 'NONE', #116, #83, #103, .T. ) ;
#249 = ORIENTED_EDGE ( 'NONE', *, *, #219, .T. ) ;
ENDSEC;
END-ISO-10303-21;
