ISO-10303-21;
HEADER;
/* Generated by software containing ST-Developer
 * from STEP Tools, Inc. (www.steptools.com) 
 */

FILE_DESCRIPTION(
/* description */ (''),
/* implementation_level */ '2;1');

FILE_NAME(
/* name */ 
'C:\\Users\\cad\\Desktop\\Zeichnungen neu von Ralph\\3D_Kupplung_R134-
SE\\3D_R134-SE-33.7-33.7_171011220.stp',
/* time_stamp */ '2021-06-16T10:46:08+02:00',
/* author */ ('cad'),
/* organization */ (''),
/* preprocessor_version */ 'ST-DEVELOPER v18.1',
/* originating_system */ 'Autodesk Inventor 2022',
/* authorisation */ '');

FILE_SCHEMA (('AUTOMOTIVE_DESIGN { 1 0 10303 214 3 1 1 }'));
ENDSEC;

DATA;
#10=MECHANICAL_DESIGN_GEOMETRIC_PRESENTATION_REPRESENTATION('',(#13),#610);
#11=SHAPE_REPRESENTATION_RELATIONSHIP('SRR','None',#617,#12);
#12=ADVANCED_BREP_SHAPE_REPRESENTATION('',(#14),#609);
#13=STYLED_ITEM('',(#626),#14);
#14=MANIFOLD_SOLID_BREP('Volumenk\X\F6rper1',#321);
#15=TOROIDAL_SURFACE('',#376,17.85,1.);
#16=TOROIDAL_SURFACE('',#382,19.9,0.4);
#17=TOROIDAL_SURFACE('',#384,20.2090093457251,0.4);
#18=TOROIDAL_SURFACE('',#391,18.7806875021114,0.2);
#19=FACE_BOUND('',#56,.T.);
#20=FACE_BOUND('',#60,.T.);
#21=FACE_BOUND('',#63,.T.);
#22=FACE_BOUND('',#66,.T.);
#23=FACE_BOUND('',#70,.T.);
#24=PLANE('',#348);
#25=PLANE('',#357);
#26=PLANE('',#361);
#27=PLANE('',#367);
#28=PLANE('',#374);
#29=CYLINDRICAL_SURFACE('',#345,14.25);
#30=CYLINDRICAL_SURFACE('',#354,21.5);
#31=CYLINDRICAL_SURFACE('',#369,19.5);
#32=CYLINDRICAL_SURFACE('',#380,16.85);
#33=FACE_OUTER_BOUND('',#53,.T.);
#34=FACE_OUTER_BOUND('',#54,.T.);
#35=FACE_OUTER_BOUND('',#55,.T.);
#36=FACE_OUTER_BOUND('',#57,.T.);
#37=FACE_OUTER_BOUND('',#58,.T.);
#38=FACE_OUTER_BOUND('',#59,.T.);
#39=FACE_OUTER_BOUND('',#61,.T.);
#40=FACE_OUTER_BOUND('',#62,.T.);
#41=FACE_OUTER_BOUND('',#64,.T.);
#42=FACE_OUTER_BOUND('',#65,.T.);
#43=FACE_OUTER_BOUND('',#67,.T.);
#44=FACE_OUTER_BOUND('',#68,.T.);
#45=FACE_OUTER_BOUND('',#69,.T.);
#46=FACE_OUTER_BOUND('',#71,.T.);
#47=FACE_OUTER_BOUND('',#72,.T.);
#48=FACE_OUTER_BOUND('',#73,.T.);
#49=FACE_OUTER_BOUND('',#74,.T.);
#50=FACE_OUTER_BOUND('',#75,.T.);
#51=FACE_OUTER_BOUND('',#76,.T.);
#52=FACE_OUTER_BOUND('',#77,.T.);
#53=EDGE_LOOP('',(#206,#207,#208,#209,#210));
#54=EDGE_LOOP('',(#211,#212,#213,#214,#215,#216));
#55=EDGE_LOOP('',(#217));
#56=EDGE_LOOP('',(#218));
#57=EDGE_LOOP('',(#219,#220,#221,#222,#223));
#58=EDGE_LOOP('',(#224,#225,#226,#227,#228,#229));
#59=EDGE_LOOP('',(#230));
#60=EDGE_LOOP('',(#231));
#61=EDGE_LOOP('',(#232,#233,#234,#235,#236));
#62=EDGE_LOOP('',(#237));
#63=EDGE_LOOP('',(#238));
#64=EDGE_LOOP('',(#239,#240,#241,#242,#243));
#65=EDGE_LOOP('',(#244));
#66=EDGE_LOOP('',(#245));
#67=EDGE_LOOP('',(#246,#247,#248,#249,#250,#251));
#68=EDGE_LOOP('',(#252,#253,#254,#255,#256));
#69=EDGE_LOOP('',(#257));
#70=EDGE_LOOP('',(#258));
#71=EDGE_LOOP('',(#259,#260,#261,#262,#263));
#72=EDGE_LOOP('',(#264,#265,#266,#267,#268));
#73=EDGE_LOOP('',(#269,#270,#271,#272,#273));
#74=EDGE_LOOP('',(#274,#275,#276,#277,#278));
#75=EDGE_LOOP('',(#279,#280,#281,#282,#283,#284));
#76=EDGE_LOOP('',(#285,#286,#287,#288,#289));
#77=EDGE_LOOP('',(#290,#291,#292,#293));
#78=LINE('',#520,#89);
#79=LINE('',#524,#90);
#80=LINE('',#535,#91);
#81=LINE('',#541,#92);
#82=LINE('',#550,#93);
#83=LINE('',#561,#94);
#84=LINE('',#570,#95);
#85=LINE('',#575,#96);
#86=LINE('',#587,#97);
#87=LINE('',#601,#98);
#88=LINE('',#606,#99);
#89=VECTOR('',#402,14.5);
#90=VECTOR('',#407,14.25);
#91=VECTOR('',#420,21.25);
#92=VECTOR('',#427,21.5);
#93=VECTOR('',#438,21.25);
#94=VECTOR('',#451,19.25);
#95=VECTOR('',#462,19.5);
#96=VECTOR('',#469,14.5);
#97=VECTOR('',#484,16.85);
#98=VECTOR('',#503,19.4101921749739);
#99=VECTOR('',#512,15.95);
#100=CIRCLE('',#342,14.25);
#101=CIRCLE('',#343,14.25);
#102=CIRCLE('',#344,14.75);
#103=CIRCLE('',#346,14.25);
#104=CIRCLE('',#347,14.25);
#105=CIRCLE('',#349,18.7806875021114);
#106=CIRCLE('',#351,21.);
#107=CIRCLE('',#352,21.5);
#108=CIRCLE('',#353,21.5);
#109=CIRCLE('',#355,21.5);
#110=CIRCLE('',#356,21.5);
#111=CIRCLE('',#358,20.2090093457251);
#112=CIRCLE('',#360,21.);
#113=CIRCLE('',#362,19.9);
#114=CIRCLE('',#364,19.5);
#115=CIRCLE('',#365,19.5);
#116=CIRCLE('',#366,19.);
#117=CIRCLE('',#368,17.85);
#118=CIRCLE('',#370,19.5);
#119=CIRCLE('',#371,19.5);
#120=CIRCLE('',#373,14.75);
#121=CIRCLE('',#375,15.05);
#122=CIRCLE('',#377,16.85);
#123=CIRCLE('',#378,1.);
#124=CIRCLE('',#379,16.85);
#125=CIRCLE('',#381,16.85);
#126=CIRCLE('',#383,0.4);
#127=CIRCLE('',#385,0.4);
#128=CIRCLE('',#386,19.8144951051102);
#129=CIRCLE('',#387,19.8144951051102);
#130=CIRCLE('',#389,18.9779446224188);
#131=CIRCLE('',#390,18.9779446224188);
#132=CIRCLE('',#392,0.2);
#133=VERTEX_POINT('',#515);
#134=VERTEX_POINT('',#516);
#135=VERTEX_POINT('',#519);
#136=VERTEX_POINT('',#523);
#137=VERTEX_POINT('',#525);
#138=VERTEX_POINT('',#529);
#139=VERTEX_POINT('',#532);
#140=VERTEX_POINT('',#534);
#141=VERTEX_POINT('',#536);
#142=VERTEX_POINT('',#540);
#143=VERTEX_POINT('',#542);
#144=VERTEX_POINT('',#546);
#145=VERTEX_POINT('',#549);
#146=VERTEX_POINT('',#553);
#147=VERTEX_POINT('',#556);
#148=VERTEX_POINT('',#557);
#149=VERTEX_POINT('',#560);
#150=VERTEX_POINT('',#564);
#151=VERTEX_POINT('',#567);
#152=VERTEX_POINT('',#568);
#153=VERTEX_POINT('',#573);
#154=VERTEX_POINT('',#577);
#155=VERTEX_POINT('',#580);
#156=VERTEX_POINT('',#581);
#157=VERTEX_POINT('',#586);
#158=VERTEX_POINT('',#592);
#159=VERTEX_POINT('',#594);
#160=VERTEX_POINT('',#598);
#161=VERTEX_POINT('',#599);
#162=EDGE_CURVE('',#133,#134,#100,.T.);
#163=EDGE_CURVE('',#134,#133,#101,.T.);
#164=EDGE_CURVE('',#133,#135,#78,.T.);
#165=EDGE_CURVE('',#135,#135,#102,.T.);
#166=EDGE_CURVE('',#134,#136,#79,.T.);
#167=EDGE_CURVE('',#137,#136,#103,.T.);
#168=EDGE_CURVE('',#136,#137,#104,.T.);
#169=EDGE_CURVE('',#138,#138,#105,.T.);
#170=EDGE_CURVE('',#139,#139,#106,.T.);
#171=EDGE_CURVE('',#139,#140,#80,.T.);
#172=EDGE_CURVE('',#140,#141,#107,.T.);
#173=EDGE_CURVE('',#141,#140,#108,.T.);
#174=EDGE_CURVE('',#141,#142,#81,.T.);
#175=EDGE_CURVE('',#143,#142,#109,.T.);
#176=EDGE_CURVE('',#142,#143,#110,.T.);
#177=EDGE_CURVE('',#144,#144,#111,.T.);
#178=EDGE_CURVE('',#143,#145,#82,.T.);
#179=EDGE_CURVE('',#145,#145,#112,.T.);
#180=EDGE_CURVE('',#146,#146,#113,.T.);
#181=EDGE_CURVE('',#147,#148,#114,.T.);
#182=EDGE_CURVE('',#148,#147,#115,.T.);
#183=EDGE_CURVE('',#147,#149,#83,.T.);
#184=EDGE_CURVE('',#149,#149,#116,.T.);
#185=EDGE_CURVE('',#150,#150,#117,.T.);
#186=EDGE_CURVE('',#151,#152,#118,.T.);
#187=EDGE_CURVE('',#151,#148,#84,.T.);
#188=EDGE_CURVE('',#152,#151,#119,.T.);
#189=EDGE_CURVE('',#153,#153,#120,.T.);
#190=EDGE_CURVE('',#153,#137,#85,.T.);
#191=EDGE_CURVE('',#154,#154,#121,.T.);
#192=EDGE_CURVE('',#155,#156,#122,.T.);
#193=EDGE_CURVE('',#156,#150,#123,.T.);
#194=EDGE_CURVE('',#156,#155,#124,.T.);
#195=EDGE_CURVE('',#155,#157,#86,.T.);
#196=EDGE_CURVE('',#157,#157,#125,.T.);
#197=EDGE_CURVE('',#152,#146,#126,.T.);
#198=EDGE_CURVE('',#144,#158,#127,.T.);
#199=EDGE_CURVE('',#158,#159,#128,.T.);
#200=EDGE_CURVE('',#159,#158,#129,.T.);
#201=EDGE_CURVE('',#160,#161,#130,.T.);
#202=EDGE_CURVE('',#160,#159,#87,.T.);
#203=EDGE_CURVE('',#161,#160,#131,.T.);
#204=EDGE_CURVE('',#138,#161,#132,.T.);
#205=EDGE_CURVE('',#157,#154,#88,.T.);
#206=ORIENTED_EDGE('',*,*,#162,.T.);
#207=ORIENTED_EDGE('',*,*,#163,.T.);
#208=ORIENTED_EDGE('',*,*,#164,.T.);
#209=ORIENTED_EDGE('',*,*,#165,.T.);
#210=ORIENTED_EDGE('',*,*,#164,.F.);
#211=ORIENTED_EDGE('',*,*,#162,.F.);
#212=ORIENTED_EDGE('',*,*,#163,.F.);
#213=ORIENTED_EDGE('',*,*,#166,.T.);
#214=ORIENTED_EDGE('',*,*,#167,.F.);
#215=ORIENTED_EDGE('',*,*,#168,.F.);
#216=ORIENTED_EDGE('',*,*,#166,.F.);
#217=ORIENTED_EDGE('',*,*,#169,.F.);
#218=ORIENTED_EDGE('',*,*,#165,.F.);
#219=ORIENTED_EDGE('',*,*,#170,.T.);
#220=ORIENTED_EDGE('',*,*,#171,.T.);
#221=ORIENTED_EDGE('',*,*,#172,.T.);
#222=ORIENTED_EDGE('',*,*,#173,.T.);
#223=ORIENTED_EDGE('',*,*,#171,.F.);
#224=ORIENTED_EDGE('',*,*,#172,.F.);
#225=ORIENTED_EDGE('',*,*,#173,.F.);
#226=ORIENTED_EDGE('',*,*,#174,.T.);
#227=ORIENTED_EDGE('',*,*,#175,.F.);
#228=ORIENTED_EDGE('',*,*,#176,.F.);
#229=ORIENTED_EDGE('',*,*,#174,.F.);
#230=ORIENTED_EDGE('',*,*,#170,.F.);
#231=ORIENTED_EDGE('',*,*,#177,.F.);
#232=ORIENTED_EDGE('',*,*,#175,.T.);
#233=ORIENTED_EDGE('',*,*,#176,.T.);
#234=ORIENTED_EDGE('',*,*,#178,.T.);
#235=ORIENTED_EDGE('',*,*,#179,.T.);
#236=ORIENTED_EDGE('',*,*,#178,.F.);
#237=ORIENTED_EDGE('',*,*,#179,.F.);
#238=ORIENTED_EDGE('',*,*,#180,.F.);
#239=ORIENTED_EDGE('',*,*,#181,.T.);
#240=ORIENTED_EDGE('',*,*,#182,.T.);
#241=ORIENTED_EDGE('',*,*,#183,.T.);
#242=ORIENTED_EDGE('',*,*,#184,.T.);
#243=ORIENTED_EDGE('',*,*,#183,.F.);
#244=ORIENTED_EDGE('',*,*,#184,.F.);
#245=ORIENTED_EDGE('',*,*,#185,.F.);
#246=ORIENTED_EDGE('',*,*,#186,.F.);
#247=ORIENTED_EDGE('',*,*,#187,.T.);
#248=ORIENTED_EDGE('',*,*,#181,.F.);
#249=ORIENTED_EDGE('',*,*,#182,.F.);
#250=ORIENTED_EDGE('',*,*,#187,.F.);
#251=ORIENTED_EDGE('',*,*,#188,.F.);
#252=ORIENTED_EDGE('',*,*,#189,.T.);
#253=ORIENTED_EDGE('',*,*,#190,.T.);
#254=ORIENTED_EDGE('',*,*,#167,.T.);
#255=ORIENTED_EDGE('',*,*,#168,.T.);
#256=ORIENTED_EDGE('',*,*,#190,.F.);
#257=ORIENTED_EDGE('',*,*,#191,.F.);
#258=ORIENTED_EDGE('',*,*,#189,.F.);
#259=ORIENTED_EDGE('',*,*,#192,.T.);
#260=ORIENTED_EDGE('',*,*,#193,.T.);
#261=ORIENTED_EDGE('',*,*,#185,.T.);
#262=ORIENTED_EDGE('',*,*,#193,.F.);
#263=ORIENTED_EDGE('',*,*,#194,.T.);
#264=ORIENTED_EDGE('',*,*,#192,.F.);
#265=ORIENTED_EDGE('',*,*,#195,.T.);
#266=ORIENTED_EDGE('',*,*,#196,.T.);
#267=ORIENTED_EDGE('',*,*,#195,.F.);
#268=ORIENTED_EDGE('',*,*,#194,.F.);
#269=ORIENTED_EDGE('',*,*,#186,.T.);
#270=ORIENTED_EDGE('',*,*,#197,.T.);
#271=ORIENTED_EDGE('',*,*,#180,.T.);
#272=ORIENTED_EDGE('',*,*,#197,.F.);
#273=ORIENTED_EDGE('',*,*,#188,.T.);
#274=ORIENTED_EDGE('',*,*,#177,.T.);
#275=ORIENTED_EDGE('',*,*,#198,.T.);
#276=ORIENTED_EDGE('',*,*,#199,.T.);
#277=ORIENTED_EDGE('',*,*,#200,.T.);
#278=ORIENTED_EDGE('',*,*,#198,.F.);
#279=ORIENTED_EDGE('',*,*,#201,.F.);
#280=ORIENTED_EDGE('',*,*,#202,.T.);
#281=ORIENTED_EDGE('',*,*,#199,.F.);
#282=ORIENTED_EDGE('',*,*,#200,.F.);
#283=ORIENTED_EDGE('',*,*,#202,.F.);
#284=ORIENTED_EDGE('',*,*,#203,.F.);
#285=ORIENTED_EDGE('',*,*,#169,.T.);
#286=ORIENTED_EDGE('',*,*,#204,.T.);
#287=ORIENTED_EDGE('',*,*,#203,.T.);
#288=ORIENTED_EDGE('',*,*,#201,.T.);
#289=ORIENTED_EDGE('',*,*,#204,.F.);
#290=ORIENTED_EDGE('',*,*,#196,.F.);
#291=ORIENTED_EDGE('',*,*,#205,.T.);
#292=ORIENTED_EDGE('',*,*,#191,.T.);
#293=ORIENTED_EDGE('',*,*,#205,.F.);
#294=CONICAL_SURFACE('',#341,14.5,0.785398163397448);
#295=CONICAL_SURFACE('',#350,21.25,0.785398163397446);
#296=CONICAL_SURFACE('',#359,21.25,0.785398163397446);
#297=CONICAL_SURFACE('',#363,19.25,0.785398163397451);
#298=CONICAL_SURFACE('',#372,14.5,0.785398163397451);
#299=CONICAL_SURFACE('',#388,19.4101921749739,0.165806278939461);
#300=CONICAL_SURFACE('',#393,15.95,1.0471975511966);
#301=ADVANCED_FACE('',(#33),#294,.F.);
#302=ADVANCED_FACE('',(#34),#29,.F.);
#303=ADVANCED_FACE('',(#35,#19),#24,.T.);
#304=ADVANCED_FACE('',(#36),#295,.T.);
#305=ADVANCED_FACE('',(#37),#30,.T.);
#306=ADVANCED_FACE('',(#38,#20),#25,.T.);
#307=ADVANCED_FACE('',(#39),#296,.T.);
#308=ADVANCED_FACE('',(#40,#21),#26,.T.);
#309=ADVANCED_FACE('',(#41),#297,.T.);
#310=ADVANCED_FACE('',(#42,#22),#27,.T.);
#311=ADVANCED_FACE('',(#43),#31,.T.);
#312=ADVANCED_FACE('',(#44),#298,.F.);
#313=ADVANCED_FACE('',(#45,#23),#28,.T.);
#314=ADVANCED_FACE('',(#46),#15,.F.);
#315=ADVANCED_FACE('',(#47),#32,.T.);
#316=ADVANCED_FACE('',(#48),#16,.F.);
#317=ADVANCED_FACE('',(#49),#17,.F.);
#318=ADVANCED_FACE('',(#50),#299,.T.);
#319=ADVANCED_FACE('',(#51),#18,.T.);
#320=ADVANCED_FACE('',(#52),#300,.T.);
#321=CLOSED_SHELL('',(#301,#302,#303,#304,#305,#306,#307,#308,#309,#310,
#311,#312,#313,#314,#315,#316,#317,#318,#319,#320));
#322=DERIVED_UNIT_ELEMENT(#324,1.);
#323=DERIVED_UNIT_ELEMENT(#612,-3.);
#324=(
MASS_UNIT()
NAMED_UNIT(*)
SI_UNIT($,.GRAM.)
);
#325=DERIVED_UNIT((#322,#323));
#326=MEASURE_REPRESENTATION_ITEM('density measure',
POSITIVE_RATIO_MEASURE(1.),#325);
#327=PROPERTY_DEFINITION_REPRESENTATION(#332,#329);
#328=PROPERTY_DEFINITION_REPRESENTATION(#333,#330);
#329=REPRESENTATION('material name',(#331),#609);
#330=REPRESENTATION('density',(#326),#609);
#331=DESCRIPTIVE_REPRESENTATION_ITEM('Generisch','Generisch');
#332=PROPERTY_DEFINITION('material property','material name',#619);
#333=PROPERTY_DEFINITION('material property','density of part',#619);
#334=DATE_TIME_ROLE('creation_date');
#335=APPLIED_DATE_AND_TIME_ASSIGNMENT(#336,#334,(#619));
#336=DATE_AND_TIME(#337,#338);
#337=CALENDAR_DATE(2021,16,6);
#338=LOCAL_TIME(0,0,0.,#339);
#339=COORDINATED_UNIVERSAL_TIME_OFFSET(0,0,.BEHIND.);
#340=AXIS2_PLACEMENT_3D('placement',#513,#394,#395);
#341=AXIS2_PLACEMENT_3D('',#514,#396,#397);
#342=AXIS2_PLACEMENT_3D('',#517,#398,#399);
#343=AXIS2_PLACEMENT_3D('',#518,#400,#401);
#344=AXIS2_PLACEMENT_3D('',#521,#403,#404);
#345=AXIS2_PLACEMENT_3D('',#522,#405,#406);
#346=AXIS2_PLACEMENT_3D('',#526,#408,#409);
#347=AXIS2_PLACEMENT_3D('',#527,#410,#411);
#348=AXIS2_PLACEMENT_3D('',#528,#412,#413);
#349=AXIS2_PLACEMENT_3D('',#530,#414,#415);
#350=AXIS2_PLACEMENT_3D('',#531,#416,#417);
#351=AXIS2_PLACEMENT_3D('',#533,#418,#419);
#352=AXIS2_PLACEMENT_3D('',#537,#421,#422);
#353=AXIS2_PLACEMENT_3D('',#538,#423,#424);
#354=AXIS2_PLACEMENT_3D('',#539,#425,#426);
#355=AXIS2_PLACEMENT_3D('',#543,#428,#429);
#356=AXIS2_PLACEMENT_3D('',#544,#430,#431);
#357=AXIS2_PLACEMENT_3D('',#545,#432,#433);
#358=AXIS2_PLACEMENT_3D('',#547,#434,#435);
#359=AXIS2_PLACEMENT_3D('',#548,#436,#437);
#360=AXIS2_PLACEMENT_3D('',#551,#439,#440);
#361=AXIS2_PLACEMENT_3D('',#552,#441,#442);
#362=AXIS2_PLACEMENT_3D('',#554,#443,#444);
#363=AXIS2_PLACEMENT_3D('',#555,#445,#446);
#364=AXIS2_PLACEMENT_3D('',#558,#447,#448);
#365=AXIS2_PLACEMENT_3D('',#559,#449,#450);
#366=AXIS2_PLACEMENT_3D('',#562,#452,#453);
#367=AXIS2_PLACEMENT_3D('',#563,#454,#455);
#368=AXIS2_PLACEMENT_3D('',#565,#456,#457);
#369=AXIS2_PLACEMENT_3D('',#566,#458,#459);
#370=AXIS2_PLACEMENT_3D('',#569,#460,#461);
#371=AXIS2_PLACEMENT_3D('',#571,#463,#464);
#372=AXIS2_PLACEMENT_3D('',#572,#465,#466);
#373=AXIS2_PLACEMENT_3D('',#574,#467,#468);
#374=AXIS2_PLACEMENT_3D('',#576,#470,#471);
#375=AXIS2_PLACEMENT_3D('',#578,#472,#473);
#376=AXIS2_PLACEMENT_3D('',#579,#474,#475);
#377=AXIS2_PLACEMENT_3D('',#582,#476,#477);
#378=AXIS2_PLACEMENT_3D('',#583,#478,#479);
#379=AXIS2_PLACEMENT_3D('',#584,#480,#481);
#380=AXIS2_PLACEMENT_3D('',#585,#482,#483);
#381=AXIS2_PLACEMENT_3D('',#588,#485,#486);
#382=AXIS2_PLACEMENT_3D('',#589,#487,#488);
#383=AXIS2_PLACEMENT_3D('',#590,#489,#490);
#384=AXIS2_PLACEMENT_3D('',#591,#491,#492);
#385=AXIS2_PLACEMENT_3D('',#593,#493,#494);
#386=AXIS2_PLACEMENT_3D('',#595,#495,#496);
#387=AXIS2_PLACEMENT_3D('',#596,#497,#498);
#388=AXIS2_PLACEMENT_3D('',#597,#499,#500);
#389=AXIS2_PLACEMENT_3D('',#600,#501,#502);
#390=AXIS2_PLACEMENT_3D('',#602,#504,#505);
#391=AXIS2_PLACEMENT_3D('',#603,#506,#507);
#392=AXIS2_PLACEMENT_3D('',#604,#508,#509);
#393=AXIS2_PLACEMENT_3D('',#605,#510,#511);
#394=DIRECTION('axis',(0.,0.,1.));
#395=DIRECTION('refdir',(1.,0.,0.));
#396=DIRECTION('center_axis',(1.,0.,0.));
#397=DIRECTION('ref_axis',(0.,-1.,0.));
#398=DIRECTION('center_axis',(-1.,0.,0.));
#399=DIRECTION('ref_axis',(0.,-1.,0.));
#400=DIRECTION('center_axis',(-1.,0.,0.));
#401=DIRECTION('ref_axis',(0.,-1.,0.));
#402=DIRECTION('',(0.707106781186548,0.707106781186548,-8.65956056235493E-17));
#403=DIRECTION('center_axis',(1.,0.,0.));
#404=DIRECTION('ref_axis',(0.,-1.,0.));
#405=DIRECTION('center_axis',(1.,0.,0.));
#406=DIRECTION('ref_axis',(0.,1.,0.));
#407=DIRECTION('',(-1.,0.,0.));
#408=DIRECTION('center_axis',(1.,0.,0.));
#409=DIRECTION('ref_axis',(0.,-1.,0.));
#410=DIRECTION('center_axis',(1.,0.,0.));
#411=DIRECTION('ref_axis',(0.,-1.,0.));
#412=DIRECTION('center_axis',(1.,0.,0.));
#413=DIRECTION('ref_axis',(0.,0.,-1.));
#414=DIRECTION('center_axis',(-1.,0.,0.));
#415=DIRECTION('ref_axis',(0.,-1.,1.83697019872103E-16));
#416=DIRECTION('center_axis',(-1.,0.,0.));
#417=DIRECTION('ref_axis',(0.,-1.,0.));
#418=DIRECTION('center_axis',(-1.,0.,0.));
#419=DIRECTION('ref_axis',(0.,-1.,0.));
#420=DIRECTION('',(-0.707106781186549,0.707106781186546,8.65956056235491E-17));
#421=DIRECTION('center_axis',(1.,0.,0.));
#422=DIRECTION('ref_axis',(0.,-1.,0.));
#423=DIRECTION('center_axis',(1.,0.,0.));
#424=DIRECTION('ref_axis',(0.,-1.,0.));
#425=DIRECTION('center_axis',(1.,0.,0.));
#426=DIRECTION('ref_axis',(0.,1.,0.));
#427=DIRECTION('',(-1.,0.,0.));
#428=DIRECTION('center_axis',(-1.,0.,0.));
#429=DIRECTION('ref_axis',(0.,-1.,0.));
#430=DIRECTION('center_axis',(-1.,0.,0.));
#431=DIRECTION('ref_axis',(0.,-1.,0.));
#432=DIRECTION('center_axis',(1.,0.,0.));
#433=DIRECTION('ref_axis',(0.,0.,-1.));
#434=DIRECTION('center_axis',(1.,0.,0.));
#435=DIRECTION('ref_axis',(0.,-1.,1.83697019872103E-16));
#436=DIRECTION('center_axis',(1.,0.,0.));
#437=DIRECTION('ref_axis',(0.,-1.,0.));
#438=DIRECTION('',(-0.707106781186549,-0.707106781186546,-8.65956056235491E-17));
#439=DIRECTION('center_axis',(1.,0.,0.));
#440=DIRECTION('ref_axis',(0.,-1.,0.));
#441=DIRECTION('center_axis',(-1.,0.,0.));
#442=DIRECTION('ref_axis',(0.,0.,1.));
#443=DIRECTION('center_axis',(-1.,0.,0.));
#444=DIRECTION('ref_axis',(0.,-1.,1.83697019872103E-16));
#445=DIRECTION('center_axis',(1.,0.,0.));
#446=DIRECTION('ref_axis',(0.,-1.,0.));
#447=DIRECTION('center_axis',(-1.,0.,0.));
#448=DIRECTION('ref_axis',(0.,-1.,0.));
#449=DIRECTION('center_axis',(-1.,0.,0.));
#450=DIRECTION('ref_axis',(0.,-1.,0.));
#451=DIRECTION('',(-0.707106781186546,-0.707106781186549,-8.65956056235496E-17));
#452=DIRECTION('center_axis',(1.,0.,0.));
#453=DIRECTION('ref_axis',(0.,-1.,0.));
#454=DIRECTION('center_axis',(-1.,0.,0.));
#455=DIRECTION('ref_axis',(0.,0.,1.));
#456=DIRECTION('center_axis',(-1.,0.,0.));
#457=DIRECTION('ref_axis',(0.,-1.,1.83697019872103E-16));
#458=DIRECTION('center_axis',(1.,0.,0.));
#459=DIRECTION('ref_axis',(0.,1.,0.));
#460=DIRECTION('center_axis',(1.,0.,0.));
#461=DIRECTION('ref_axis',(0.,-1.,1.83697019872103E-16));
#462=DIRECTION('',(-1.,0.,0.));
#463=DIRECTION('center_axis',(1.,0.,0.));
#464=DIRECTION('ref_axis',(0.,-1.,1.83697019872103E-16));
#465=DIRECTION('center_axis',(-1.,0.,0.));
#466=DIRECTION('ref_axis',(0.,-1.,0.));
#467=DIRECTION('center_axis',(-1.,0.,0.));
#468=DIRECTION('ref_axis',(0.,-1.,0.));
#469=DIRECTION('',(0.707106781186546,-0.707106781186549,8.65956056235495E-17));
#470=DIRECTION('center_axis',(-1.,0.,0.));
#471=DIRECTION('ref_axis',(0.,0.,1.));
#472=DIRECTION('center_axis',(1.,0.,0.));
#473=DIRECTION('ref_axis',(0.,0.,-1.));
#474=DIRECTION('center_axis',(1.,0.,0.));
#475=DIRECTION('ref_axis',(0.,0.,-1.));
#476=DIRECTION('center_axis',(1.,0.,0.));
#477=DIRECTION('ref_axis',(0.,-1.,1.83697019872103E-16));
#478=DIRECTION('center_axis',(0.,-1.,-1.22464679914735E-16));
#479=DIRECTION('ref_axis',(0.,-1.22464679914735E-16,1.));
#480=DIRECTION('center_axis',(1.,0.,0.));
#481=DIRECTION('ref_axis',(0.,-1.,1.83697019872103E-16));
#482=DIRECTION('center_axis',(1.,0.,0.));
#483=DIRECTION('ref_axis',(0.,1.,0.));
#484=DIRECTION('',(-1.,0.,0.));
#485=DIRECTION('center_axis',(1.,0.,0.));
#486=DIRECTION('ref_axis',(0.,0.,-1.));
#487=DIRECTION('center_axis',(1.,0.,0.));
#488=DIRECTION('ref_axis',(0.,0.,-1.));
#489=DIRECTION('center_axis',(0.,-1.,-1.22464679914735E-16));
#490=DIRECTION('ref_axis',(0.,-1.22464679914735E-16,1.));
#491=DIRECTION('center_axis',(1.,0.,0.));
#492=DIRECTION('ref_axis',(0.,0.,-1.));
#493=DIRECTION('center_axis',(0.,-1.,-1.22464679914735E-16));
#494=DIRECTION('ref_axis',(0.,-1.22464679914735E-16,1.));
#495=DIRECTION('center_axis',(-1.,0.,0.));
#496=DIRECTION('ref_axis',(0.,-1.,3.06161699786838E-17));
#497=DIRECTION('center_axis',(-1.,0.,0.));
#498=DIRECTION('ref_axis',(0.,-1.,3.06161699786838E-17));
#499=DIRECTION('center_axis',(-1.,0.,0.));
#500=DIRECTION('ref_axis',(0.,1.,0.));
#501=DIRECTION('center_axis',(1.,0.,0.));
#502=DIRECTION('ref_axis',(0.,-1.,3.06161699786838E-17));
#503=DIRECTION('',(-0.986285601537231,-0.165047605860678,-2.02125022224213E-17));
#504=DIRECTION('center_axis',(1.,0.,0.));
#505=DIRECTION('ref_axis',(0.,-1.,3.06161699786838E-17));
#506=DIRECTION('center_axis',(1.,0.,0.));
#507=DIRECTION('ref_axis',(0.,0.,-1.));
#508=DIRECTION('center_axis',(0.,-1.,-1.22464679914735E-16));
#509=DIRECTION('ref_axis',(0.,-1.22464679914735E-16,1.));
#510=DIRECTION('center_axis',(1.,0.,0.));
#511=DIRECTION('ref_axis',(0.,1.,0.));
#512=DIRECTION('',(-0.499999999999998,0.86602540378444,1.06057523872491E-16));
#513=CARTESIAN_POINT('',(0.,0.,0.));
#514=CARTESIAN_POINT('Origin',(-0.25,0.,0.));
#515=CARTESIAN_POINT('',(-0.5,14.25,-1.74512168878498E-15));
#516=CARTESIAN_POINT('',(-0.5,-14.25,-1.74512168878498E-15));
#517=CARTESIAN_POINT('Origin',(-0.5,0.,0.));
#518=CARTESIAN_POINT('Origin',(-0.5,0.,0.));
#519=CARTESIAN_POINT('',(0.,14.75,1.80635402874235E-15));
#520=CARTESIAN_POINT('',(-0.25,14.5,-1.77573785876366E-15));
#521=CARTESIAN_POINT('Origin',(0.,0.,0.));
#522=CARTESIAN_POINT('Origin',(-13.25,0.,0.));
#523=CARTESIAN_POINT('',(-26.,-14.25,-1.74512168878498E-15));
#524=CARTESIAN_POINT('',(-13.25,-14.25,-1.74512168878498E-15));
#525=CARTESIAN_POINT('',(-26.,14.25,1.74512168878498E-15));
#526=CARTESIAN_POINT('Origin',(-26.,0.,0.));
#527=CARTESIAN_POINT('Origin',(-26.,0.,0.));
#528=CARTESIAN_POINT('Origin',(6.16297582203915E-32,14.25,0.));
#529=CARTESIAN_POINT('',(0.,-2.29997088352474E-15,18.7806875021114));
#530=CARTESIAN_POINT('Origin',(0.,0.,0.));
#531=CARTESIAN_POINT('Origin',(-5.75,0.,0.));
#532=CARTESIAN_POINT('',(-5.5,21.,-2.57175827820944E-15));
#533=CARTESIAN_POINT('Origin',(-5.5,0.,0.));
#534=CARTESIAN_POINT('',(-6.,21.5,2.63299061816681E-15));
#535=CARTESIAN_POINT('',(-5.75,21.25,2.60237444818813E-15));
#536=CARTESIAN_POINT('',(-6.,-21.5,-2.63299061816681E-15));
#537=CARTESIAN_POINT('Origin',(-6.,0.,0.));
#538=CARTESIAN_POINT('Origin',(-6.,0.,0.));
#539=CARTESIAN_POINT('Origin',(-6.75,0.,0.));
#540=CARTESIAN_POINT('',(-7.5,-21.5,-2.63299061816681E-15));
#541=CARTESIAN_POINT('',(-6.75,-21.5,-2.63299061816681E-15));
#542=CARTESIAN_POINT('',(-7.5,21.5,-2.63299061816681E-15));
#543=CARTESIAN_POINT('Origin',(-7.5,0.,0.));
#544=CARTESIAN_POINT('Origin',(-7.5,0.,0.));
#545=CARTESIAN_POINT('Origin',(-5.5,19.8703843499478,0.));
#546=CARTESIAN_POINT('',(-5.5,-2.47488986091812E-15,20.2090093457251));
#547=CARTESIAN_POINT('Origin',(-5.5,0.,0.));
#548=CARTESIAN_POINT('Origin',(-7.75,0.,0.));
#549=CARTESIAN_POINT('',(-8.00000000000001,21.,2.57175827820944E-15));
#550=CARTESIAN_POINT('',(-7.75,21.25,2.60237444818813E-15));
#551=CARTESIAN_POINT('Origin',(-8.00000000000001,0.,0.));
#552=CARTESIAN_POINT('Origin',(-8.00000000000001,21.5,0.));
#553=CARTESIAN_POINT('',(-8.00000000000001,-2.43704713030323E-15,19.9));
#554=CARTESIAN_POINT('Origin',(-8.00000000000001,0.,0.));
#555=CARTESIAN_POINT('Origin',(-20.25,0.,0.));
#556=CARTESIAN_POINT('',(-20.,19.5,-2.38806125833734E-15));
#557=CARTESIAN_POINT('',(-20.,-19.5,-2.38806125833734E-15));
#558=CARTESIAN_POINT('Origin',(-20.,0.,0.));
#559=CARTESIAN_POINT('Origin',(-20.,0.,0.));
#560=CARTESIAN_POINT('',(-20.5,19.,2.32682891837997E-15));
#561=CARTESIAN_POINT('',(-20.25,19.25,2.35744508835865E-15));
#562=CARTESIAN_POINT('Origin',(-20.5,0.,0.));
#563=CARTESIAN_POINT('Origin',(-20.5,19.5,0.));
#564=CARTESIAN_POINT('',(-20.5,-2.18599453647803E-15,17.85));
#565=CARTESIAN_POINT('Origin',(-20.5,0.,0.));
#566=CARTESIAN_POINT('Origin',(-14.25,0.,0.));
#567=CARTESIAN_POINT('',(-8.40000000000001,-19.5,-2.38806125833734E-15));
#568=CARTESIAN_POINT('',(-8.40000000000001,-2.38806125833734E-15,19.5));
#569=CARTESIAN_POINT('Origin',(-8.40000000000001,0.,0.));
#570=CARTESIAN_POINT('',(-14.25,-19.5,-2.38806125833734E-15));
#571=CARTESIAN_POINT('Origin',(-8.40000000000001,0.,0.));
#572=CARTESIAN_POINT('Origin',(-26.25,0.,0.));
#573=CARTESIAN_POINT('',(-26.5,14.75,-1.80635402874235E-15));
#574=CARTESIAN_POINT('Origin',(-26.5,0.,0.));
#575=CARTESIAN_POINT('',(-26.25,14.5,-1.77573785876366E-15));
#576=CARTESIAN_POINT('Origin',(-26.5,15.05,0.));
#577=CARTESIAN_POINT('',(-26.5,-15.05,-1.84309343271677E-15));
#578=CARTESIAN_POINT('Origin',(-26.5,0.,0.));
#579=CARTESIAN_POINT('Origin',(-21.5,0.,0.));
#580=CARTESIAN_POINT('',(-21.5,-16.85,-2.06352985656329E-15));
#581=CARTESIAN_POINT('',(-21.5,-2.06352985656329E-15,16.85));
#582=CARTESIAN_POINT('Origin',(-21.5,0.,0.));
#583=CARTESIAN_POINT('Origin',(-21.5,-2.18599453647803E-15,17.85));
#584=CARTESIAN_POINT('Origin',(-21.5,0.,0.));
#585=CARTESIAN_POINT('Origin',(-22.9803847577293,0.,0.));
#586=CARTESIAN_POINT('',(-25.4607695154587,-16.85,-2.06352985656329E-15));
#587=CARTESIAN_POINT('',(-22.9803847577293,-16.85,-2.06352985656329E-15));
#588=CARTESIAN_POINT('Origin',(-25.4607695154587,0.,0.));
#589=CARTESIAN_POINT('Origin',(-8.40000000000001,0.,0.));
#590=CARTESIAN_POINT('Origin',(-8.40000000000001,-2.43704713030323E-15,
19.9));
#591=CARTESIAN_POINT('Origin',(-5.1,0.,0.));
#592=CARTESIAN_POINT('',(-5.16601904234427,-2.42657580071941E-15,19.8144951051102));
#593=CARTESIAN_POINT('Origin',(-5.1,-2.47488986091812E-15,20.2090093457251));
#594=CARTESIAN_POINT('',(-5.16601904234427,-19.8144951051102,-2.42657580071941E-15));
#595=CARTESIAN_POINT('Origin',(-5.16601904234427,0.,-3.03321975089926E-15));
#596=CARTESIAN_POINT('Origin',(-5.16601904234427,0.,-3.03321975089926E-15));
#597=CARTESIAN_POINT('Origin',(-2.75,0.,0.));
#598=CARTESIAN_POINT('',(-0.166990478827864,-18.9779446224188,-2.32412791362409E-15));
#599=CARTESIAN_POINT('',(-0.166990478827865,-2.32412791362409E-15,18.9779446224188));
#600=CARTESIAN_POINT('Origin',(-0.166990478827865,0.,-2.90515989203012E-15));
#601=CARTESIAN_POINT('',(-2.75,-19.4101921749739,-2.37706297179168E-15));
#602=CARTESIAN_POINT('Origin',(-0.166990478827865,0.,-2.90515989203012E-15));
#603=CARTESIAN_POINT('Origin',(-0.2,0.,0.));
#604=CARTESIAN_POINT('Origin',(-0.2,-2.29997088352474E-15,18.7806875021114));
#605=CARTESIAN_POINT('Origin',(-25.9803847577293,0.,0.));
#606=CARTESIAN_POINT('',(-25.9803847577293,-15.95,-1.95331164464003E-15));
#607=UNCERTAINTY_MEASURE_WITH_UNIT(LENGTH_MEASURE(0.01),#611,
'DISTANCE_ACCURACY_VALUE',
'Maximum model space distance between geometric entities at asserted c
onnectivities');
#608=UNCERTAINTY_MEASURE_WITH_UNIT(LENGTH_MEASURE(0.01),#611,
'DISTANCE_ACCURACY_VALUE',
'Maximum model space distance between geometric entities at asserted c
onnectivities');
#609=(
GEOMETRIC_REPRESENTATION_CONTEXT(3)
GLOBAL_UNCERTAINTY_ASSIGNED_CONTEXT((#607))
GLOBAL_UNIT_ASSIGNED_CONTEXT((#611,#613,#614))
REPRESENTATION_CONTEXT('','3D')
);
#610=(
GEOMETRIC_REPRESENTATION_CONTEXT(3)
GLOBAL_UNCERTAINTY_ASSIGNED_CONTEXT((#608))
GLOBAL_UNIT_ASSIGNED_CONTEXT((#611,#613,#614))
REPRESENTATION_CONTEXT('','3D')
);
#611=(
LENGTH_UNIT()
NAMED_UNIT(*)
SI_UNIT(.MILLI.,.METRE.)
);
#612=(
LENGTH_UNIT()
NAMED_UNIT(*)
SI_UNIT(.CENTI.,.METRE.)
);
#613=(
NAMED_UNIT(*)
PLANE_ANGLE_UNIT()
SI_UNIT($,.RADIAN.)
);
#614=(
NAMED_UNIT(*)
SI_UNIT($,.STERADIAN.)
SOLID_ANGLE_UNIT()
);
#615=SHAPE_DEFINITION_REPRESENTATION(#616,#617);
#616=PRODUCT_DEFINITION_SHAPE('',$,#619);
#617=SHAPE_REPRESENTATION('',(#340),#609);
#618=PRODUCT_DEFINITION_CONTEXT('part definition',#623,'design');
#619=PRODUCT_DEFINITION('3D_R134-SE-33.7-33.7_171011220',
'3D_R134-SE-33.7-33.7_171011220',#620,#618);
#620=PRODUCT_DEFINITION_FORMATION('',$,#625);
#621=PRODUCT_RELATED_PRODUCT_CATEGORY('3D_R134-SE-33.7-33.7_171011220',
'3D_R134-SE-33.7-33.7_171011220',(#625));
#622=APPLICATION_PROTOCOL_DEFINITION('international standard',
'automotive_design',2009,#623);
#623=APPLICATION_CONTEXT(
'Core Data for Automotive Mechanical Design Process');
#624=PRODUCT_CONTEXT('part definition',#623,'mechanical');
#625=PRODUCT('3D_R134-SE-33.7-33.7_171011220',
'3D_R134-SE-33.7-33.7_171011220',$,(#624));
#626=PRESENTATION_STYLE_ASSIGNMENT((#627));
#627=SURFACE_STYLE_USAGE(.BOTH.,#630);
#628=SURFACE_STYLE_RENDERING_WITH_PROPERTIES($,#634,(#629));
#629=SURFACE_STYLE_TRANSPARENT(0.);
#630=SURFACE_SIDE_STYLE('',(#631,#628));
#631=SURFACE_STYLE_FILL_AREA(#632);
#632=FILL_AREA_STYLE('',(#633));
#633=FILL_AREA_STYLE_COLOUR('',#634);
#634=COLOUR_RGB('',0.749019607843137,0.749019607843137,0.749019607843137);
ENDSEC;
END-ISO-10303-21;
