ISO-10303-21;
HEADER;
FILE_DESCRIPTION (( 'STEP AP203' ),
    '1' );
FILE_NAME ('OT214-400-406x3_OSTP.step',
    '2021-02-10T12:55:09',
    ( '' ),
    ( '' ),
    'SwSTEP 2.0',
    'SolidWorks 2014',
    '' );
FILE_SCHEMA (( 'CONFIG_CONTROL_DESIGN' ));
ENDSEC;

DATA;
#1 = LOCAL_TIME ( 13, 55, 9.000000000000000000, #226 ) ;
#2 = DIRECTION ( 'NONE',  ( 0.0000000000000000000, 0.0000000000000000000, 1.000000000000000000 ) ) ;
#3 = DIRECTION ( 'NONE',  ( 0.0000000000000000000, -0.0000000000000000000, 1.000000000000000000 ) ) ;
#4 = AXIS2_PLACEMENT_3D ( 'NONE', #129, #100, #12 ) ;
#5 = DIRECTION ( 'NONE',  ( 1.000000000000000000, 0.0000000000000000000, 0.0000000000000000000 ) ) ;
#6 = CARTESIAN_POINT ( 'NONE',  ( 499.9999999999997700, 703.0000000000001100, 0.0000000000000000000 ) ) ;
#7 = AXIS2_PLACEMENT_3D ( 'NONE', #124, #61, #2 ) ;
#8 = DIRECTION ( 'NONE',  ( 1.000000000000000000, 0.0000000000000000000, 0.0000000000000000000 ) ) ;
#9 = FACE_OUTER_BOUND ( 'NONE', #96, .T. ) ;
#10 = AXIS2_PLACEMENT_3D ( 'NONE', #86, #44, #125 ) ;
#11 = CARTESIAN_POINT ( 'NONE',  ( 500.0000000000000000, 0.0000000000000000000, 0.0000000000000000000 ) ) ;
#12 = DIRECTION ( 'NONE',  ( 1.000000000000000000, 0.0000000000000000000, 0.0000000000000000000 ) ) ;
#13 = LOCAL_TIME ( 13, 55, 9.000000000000000000, #233 ) ;
#14 = EDGE_CURVE ( 'NONE', #169, #161, #245, .T. ) ;
#15 = APPLICATION_PROTOCOL_DEFINITION ( 'international standard', 'config_control_design', 1994, #178 ) ;
#16 = VERTEX_POINT ( 'NONE', #229 ) ;
#17 = ORIENTED_EDGE ( 'NONE', *, *, #90, .T. ) ;
#18 = PRODUCT_DEFINITION ( 'UNKNOWN', '', #241, #242 ) ;
#19 = PERSON_AND_ORGANIZATION ( #98, #179 ) ;
#20 = FACE_OUTER_BOUND ( 'NONE', #151, .T. ) ;
#21 = ORIENTED_EDGE ( 'NONE', *, *, #225, .T. ) ;
#22 = CARTESIAN_POINT ( 'NONE',  ( 200.0000000000000000, 0.0000000000000000000, -2.449293598294706400E-014 ) ) ;
#23 = AXIS2_PLACEMENT_3D ( 'NONE', #11, #236, #8 ) ;
#24 = CARTESIAN_POINT ( 'NONE',  ( 500.0000000000000000, 0.0000000000000000000, -2.486033002269127000E-014 ) ) ;
#25 = ADVANCED_FACE ( 'NONE', ( #160, #127 ), #253, .F. ) ;
#26 = DIRECTION ( 'NONE',  ( 1.000000000000000000, 0.0000000000000000000, 0.0000000000000000000 ) ) ;
#27 = CARTESIAN_POINT ( 'NONE',  ( 0.0000000000000000000, 0.0000000000000000000, 0.0000000000000000000 ) ) ;
#28 = VERTEX_POINT ( 'NONE', #22 ) ;
#29 = CC_DESIGN_APPROVAL ( #114, ( #241 ) ) ;
#30 = APPLICATION_CONTEXT ( 'configuration controlled 3d designs of mechanical parts and assemblies' ) ;
#31 = APPROVAL_PERSON_ORGANIZATION ( #191, #114, #165 ) ;
#32 = FACE_OUTER_BOUND ( 'NONE', #207, .T. ) ;
#33 = ORIENTED_EDGE ( 'NONE', *, *, #14, .T. ) ;
#34 = EDGE_CURVE ( 'NONE', #161, #169, #37, .T. ) ;
#35 = CALENDAR_DATE ( 2021, 10, 2 ) ;
#36 = EDGE_CURVE ( 'NONE', #84, #64, #112, .T. ) ;
#37 = CIRCLE ( 'NONE', #7, 203.0000000000000000 ) ;
#38 = PLANE ( 'NONE',  #182 ) ;
#39 = ORIENTED_EDGE ( 'NONE', *, *, #36, .F. ) ;
#40 = CARTESIAN_POINT ( 'NONE',  ( 499.9999999999998900, 300.0000000000000000, -2.449293598294706400E-014 ) ) ;
#41 = AXIS2_PLACEMENT_3D ( 'NONE', #156, #235, #26 ) ;
#42 = DIRECTION ( 'NONE',  ( 1.000000000000000000, 2.832769448823989800E-016, 0.0000000000000000000 ) ) ;
#43 = DIRECTION ( 'NONE',  ( 0.0000000000000000000, 1.000000000000000000, 0.0000000000000000000 ) ) ;
#44 = DIRECTION ( 'NONE',  ( 1.000000000000000000, 2.832769448823989800E-016, 0.0000000000000000000 ) ) ;
#45 = CARTESIAN_POINT ( 'NONE',  ( 203.0000000000000000, 0.0000000000000000000, -2.486033002269127000E-014 ) ) ;
#46 = DIRECTION ( 'NONE',  ( 0.0000000000000000000, 1.000000000000000000, 0.0000000000000000000 ) ) ;
#47 = EDGE_LOOP ( 'NONE', ( #123, #154 ) ) ;
#48 = AXIS2_PLACEMENT_3D ( 'NONE', #80, #139, #171 ) ;
#49 = APPROVAL_STATUS ( 'not_yet_approved' ) ;
#50 = ADVANCED_FACE ( 'NONE', ( #142, #9 ), #38, .T. ) ;
#51 = APPROVAL_STATUS ( 'not_yet_approved' ) ;
#52 = COORDINATED_UNIVERSAL_TIME_OFFSET ( 1, 0, .AHEAD. ) ;
#53 = ORIENTED_EDGE ( 'NONE', *, *, #247, .F. ) ;
#54 = DATE_AND_TIME ( #70, #57 ) ;
#55 = ORIENTED_EDGE ( 'NONE', *, *, #34, .T. ) ;
#56 = CC_DESIGN_PERSON_AND_ORGANIZATION_ASSIGNMENT ( #121, #91, ( #241 ) ) ;
#57 = LOCAL_TIME ( 13, 55, 9.000000000000000000, #52 ) ;
#58 = CARTESIAN_POINT ( 'NONE',  ( 0.0000000000000000000, 0.0000000000000000000, 0.0000000000000000000 ) ) ;
#59 = CIRCLE ( 'NONE', #4, 300.0000000000000600 ) ;
#60 = AXIS2_PLACEMENT_3D ( 'NONE', #24, #174, #144 ) ;
#61 = DIRECTION ( 'NONE',  ( 1.000000000000000000, 2.832769448823989800E-016, 0.0000000000000000000 ) ) ;
#62 = APPROVAL_DATE_TIME ( #54, #108 ) ;
#63 = ORIENTED_EDGE ( 'NONE', *, *, #166, .T. ) ;
#64 = VERTEX_POINT ( 'NONE', #40 ) ;
#65 = DIRECTION ( 'NONE',  ( 0.0000000000000000000, 0.0000000000000000000, 1.000000000000000000 ) ) ;
#66 = DIRECTION ( 'NONE',  ( 0.0000000000000000000, 0.0000000000000000000, 1.000000000000000000 ) ) ;
#67 = ORIENTED_EDGE ( 'NONE', *, *, #190, .T. ) ;
#68 =( NAMED_UNIT ( * ) SI_UNIT ( $, .STERADIAN. ) SOLID_ANGLE_UNIT ( ) );
#69 = DATE_TIME_ROLE ( 'creation_date' ) ;
#70 = CALENDAR_DATE ( 2021, 10, 2 ) ;
#71 = SECURITY_CLASSIFICATION ( '', '', #180 ) ;
#72 = APPROVAL_STATUS ( 'not_yet_approved' ) ;
#73 = PERSON_AND_ORGANIZATION ( #98, #179 ) ;
#74 = FACE_OUTER_BOUND ( 'NONE', #78, .T. ) ;
#75 = AXIS2_PLACEMENT_3D ( 'NONE', #27, #195, #221 ) ;
#76 = CIRCLE ( 'NONE', #101, 203.0000000000000000 ) ;
#77 = CIRCLE ( 'NONE', #41, 700.0000000000000000 ) ;
#78 = EDGE_LOOP ( 'NONE', ( #223, #189, #215, #201 ) ) ;
#79 = AXIS2_PLACEMENT_3D ( 'NONE', #82, #238, #212 ) ;
#80 = CARTESIAN_POINT ( 'NONE',  ( 499.9999999999998300, 500.0000000000000000, 0.0000000000000000000 ) ) ;
#81 = DIRECTION ( 'NONE',  ( 0.0000000000000000000, 0.0000000000000000000, 1.000000000000000000 ) ) ;
#82 = CARTESIAN_POINT ( 'NONE',  ( 0.0000000000000000000, 0.0000000000000000000, 0.0000000000000000000 ) ) ;
#83 = ORIENTED_EDGE ( 'NONE', *, *, #166, .F. ) ;
#84 = VERTEX_POINT ( 'NONE', #193 ) ;
#85 = CARTESIAN_POINT ( 'NONE',  ( 500.0000000000000000, 0.0000000000000000000, 0.0000000000000000000 ) ) ;
#86 = CARTESIAN_POINT ( 'NONE',  ( 499.9999999999998300, 500.0000000000000000, 0.0000000000000000000 ) ) ;
#87 = CC_DESIGN_DATE_AND_TIME_ASSIGNMENT ( #206, #69, ( #18 ) ) ;
#88 = CIRCLE ( 'NONE', #194, 203.0000000000000000 ) ;
#89 = APPROVAL_ROLE ( '' ) ;
#90 = EDGE_CURVE ( 'NONE', #132, #172, #88, .T. ) ;
#91 = PERSON_AND_ORGANIZATION_ROLE ( 'creator' ) ;
#92 = ORIENTED_EDGE ( 'NONE', *, *, #209, .F. ) ;
#93 = CC_DESIGN_DATE_AND_TIME_ASSIGNMENT ( #196, #181, ( #71 ) ) ;
#94 = COORDINATED_UNIVERSAL_TIME_OFFSET ( 1, 0, .AHEAD. ) ;
#95 = EDGE_LOOP ( 'NONE', ( #204, #39 ) ) ;
#96 = EDGE_LOOP ( 'NONE', ( #55, #33 ) ) ;
#97 = EDGE_CURVE ( 'NONE', #169, #132, #188, .T. ) ;
#98 = PERSON ( 'UNSPECIFIED', 'UNSPECIFIED', 'UNSPECIFIED', ('UNSPECIFIED'), ('UNSPECIFIED'), ('UNSPECIFIED') ) ;
#99 = DATE_AND_TIME ( #222, #164 ) ;
#100 = DIRECTION ( 'NONE',  ( 0.0000000000000000000, 0.0000000000000000000, 1.000000000000000000 ) ) ;
#101 = AXIS2_PLACEMENT_3D ( 'NONE', #128, #46, #237 ) ;
#102 = DIRECTION ( 'NONE',  ( 0.0000000000000000000, 0.0000000000000000000, 1.000000000000000000 ) ) ;
#103 = DIRECTION ( 'NONE',  ( 1.000000000000000000, 0.0000000000000000000, 0.0000000000000000000 ) ) ;
#104 = CARTESIAN_POINT ( 'NONE',  ( 0.0000000000000000000, 0.0000000000000000000, 0.0000000000000000000 ) ) ;
#105 = ORIENTED_EDGE ( 'NONE', *, *, #209, .T. ) ;
#106 = DIRECTION ( 'NONE',  ( 1.000000000000000000, 0.0000000000000000000, 0.0000000000000000000 ) ) ;
#107 = PERSON_AND_ORGANIZATION_ROLE ( 'design_owner' ) ;
#108 = APPROVAL ( #72, 'UNSPECIFIED' ) ;
#109 =( LENGTH_UNIT ( ) NAMED_UNIT ( * ) SI_UNIT ( .MILLI., .METRE. ) );
#110 = ADVANCED_BREP_SHAPE_REPRESENTATION ( 'OT214-400-406x3_OSTP', ( #217, #75 ), #135 ) ;
#111 = APPROVAL_PERSON_ORGANIZATION ( #73, #108, #89 ) ;
#112 = CIRCLE ( 'NONE', #48, 199.9999999999999400 ) ;
#113 = ORIENTED_EDGE ( 'NONE', *, *, #140, .T. ) ;
#114 = APPROVAL ( #51, 'UNSPECIFIED' ) ;
#115 = CALENDAR_DATE ( 2021, 10, 2 ) ;
#116 = AXIS2_PLACEMENT_3D ( 'NONE', #208, #42, #173 ) ;
#117 = DIRECTION ( 'NONE',  ( 0.0000000000000000000, 1.000000000000000000, 0.0000000000000000000 ) ) ;
#118 = ORIENTED_EDGE ( 'NONE', *, *, #97, .T. ) ;
#119 = PRODUCT ( 'OT214-400-406x3_OSTP', 'OT214-400-406x3_OSTP', '', ( #147 ) ) ;
#120 = CARTESIAN_POINT ( 'NONE',  ( 499.9999999999998900, 297.0000000000000000, -2.486033002269127000E-014 ) ) ;
#121 = PERSON_AND_ORGANIZATION ( #98, #179 ) ;
#122 = CC_DESIGN_SECURITY_CLASSIFICATION ( #71, ( #241 ) ) ;
#123 = ORIENTED_EDGE ( 'NONE', *, *, #202, .F. ) ;
#124 = CARTESIAN_POINT ( 'NONE',  ( 499.9999999999998300, 500.0000000000000000, 0.0000000000000000000 ) ) ;
#125 = DIRECTION ( 'NONE',  ( -2.775557561562892300E-016, 1.000000000000000000, 0.0000000000000000000 ) ) ;
#126 = COORDINATED_UNIVERSAL_TIME_OFFSET ( 1, 0, .AHEAD. ) ;
#127 = FACE_OUTER_BOUND ( 'NONE', #47, .T. ) ;
#128 = CARTESIAN_POINT ( 'NONE',  ( 0.0000000000000000000, 0.0000000000000000000, 0.0000000000000000000 ) ) ;
#129 = CARTESIAN_POINT ( 'NONE',  ( 500.0000000000000000, 0.0000000000000000000, -2.449293598294706400E-014 ) ) ;
#130 = PRODUCT_DEFINITION_SHAPE ( 'NONE', 'NONE',  #18 ) ;
#131 = APPROVAL_ROLE ( '' ) ;
#132 = VERTEX_POINT ( 'NONE', #197 ) ;
#133 = ADVANCED_FACE ( 'NONE', ( #234 ), #138, .T. ) ;
#134 = UNCERTAINTY_MEASURE_WITH_UNIT (LENGTH_MEASURE( 1.000000000000000100E-005 ), #109, 'distance_accuracy_value', 'NONE');
#135 =( GEOMETRIC_REPRESENTATION_CONTEXT ( 3 ) GLOBAL_UNCERTAINTY_ASSIGNED_CONTEXT ( ( #134 ) ) GLOBAL_UNIT_ASSIGNED_CONTEXT ( ( #109, #200, #68 ) ) REPRESENTATION_CONTEXT ( 'NONE', 'WORKASPACE' ) );
#136 = PERSON_AND_ORGANIZATION ( #98, #179 ) ;
#137 = LOCAL_TIME ( 13, 55, 9.000000000000000000, #94 ) ;
#138 = TOROIDAL_SURFACE ( 'NONE', #227, 500.0000000000000000, 203.0000000000000000 ) ;
#139 = DIRECTION ( 'NONE',  ( 1.000000000000000000, 2.832769448823989800E-016, 0.0000000000000000000 ) ) ;
#140 = EDGE_CURVE ( 'NONE', #64, #84, #168, .T. ) ;
#141 = EDGE_LOOP ( 'NONE', ( #250, #118, #17, #83 ) ) ;
#142 = FACE_BOUND ( 'NONE', #95, .T. ) ;
#143 = CC_DESIGN_PERSON_AND_ORGANIZATION_ASSIGNMENT ( #184, #240, ( #18 ) ) ;
#144 = DIRECTION ( 'NONE',  ( 1.000000000000000000, 0.0000000000000000000, 0.0000000000000000000 ) ) ;
#145 = DIRECTION ( 'NONE',  ( 0.0000000000000000000, 0.0000000000000000000, 1.000000000000000000 ) ) ;
#146 = CIRCLE ( 'NONE', #163, 200.0000000000000000 ) ;
#147 = MECHANICAL_CONTEXT ( 'NONE', #30, 'mechanical' ) ;
#148 = TOROIDAL_SURFACE ( 'NONE', #23, 500.0000000000000000, 203.0000000000000000 ) ;
#149 = PERSON_AND_ORGANIZATION_ROLE ( 'design_supplier' ) ;
#150 = DATE_AND_TIME ( #35, #1 ) ;
#151 = EDGE_LOOP ( 'NONE', ( #153, #167, #63, #203 ) ) ;
#152 = AXIS2_PLACEMENT_3D ( 'NONE', #58, #117, #3 ) ;
#153 = ORIENTED_EDGE ( 'NONE', *, *, #97, .F. ) ;
#154 = ORIENTED_EDGE ( 'NONE', *, *, #90, .F. ) ;
#155 = CC_DESIGN_PERSON_AND_ORGANIZATION_ASSIGNMENT ( #19, #149, ( #241 ) ) ;
#156 = CARTESIAN_POINT ( 'NONE',  ( 500.0000000000000000, 0.0000000000000000000, 0.0000000000000000000 ) ) ;
#157 = DIRECTION ( 'NONE',  ( 1.000000000000000000, 0.0000000000000000000, 0.0000000000000000000 ) ) ;
#158 = CARTESIAN_POINT ( 'NONE',  ( 500.0000000000000000, 0.0000000000000000000, 0.0000000000000000000 ) ) ;
#159 = PERSON_AND_ORGANIZATION ( #98, #179 ) ;
#160 = FACE_BOUND ( 'NONE', #186, .T. ) ;
#161 = VERTEX_POINT ( 'NONE', #120 ) ;
#162 = CARTESIAN_POINT ( 'NONE',  ( 0.0000000000000000000, 0.0000000000000000000, 0.0000000000000000000 ) ) ;
#163 = AXIS2_PLACEMENT_3D ( 'NONE', #162, #43, #102 ) ;
#164 = LOCAL_TIME ( 13, 55, 9.000000000000000000, #126 ) ;
#165 = APPROVAL_ROLE ( '' ) ;
#166 = EDGE_CURVE ( 'NONE', #161, #172, #214, .T. ) ;
#167 = ORIENTED_EDGE ( 'NONE', *, *, #34, .F. ) ;
#168 = CIRCLE ( 'NONE', #10, 199.9999999999999400 ) ;
#169 = VERTEX_POINT ( 'NONE', #6 ) ;
#170 = DIRECTION ( 'NONE',  ( 1.000000000000000000, 2.832769448823989800E-016, -0.0000000000000000000 ) ) ;
#171 = DIRECTION ( 'NONE',  ( -2.775557561562892300E-016, 1.000000000000000000, 0.0000000000000000000 ) ) ;
#172 = VERTEX_POINT ( 'NONE', #45 ) ;
#173 = DIRECTION ( 'NONE',  ( 0.0000000000000000000, 0.0000000000000000000, 1.000000000000000000 ) ) ;
#174 = DIRECTION ( 'NONE',  ( 0.0000000000000000000, 0.0000000000000000000, 1.000000000000000000 ) ) ;
#175 = CC_DESIGN_PERSON_AND_ORGANIZATION_ASSIGNMENT ( #159, #220, ( #71 ) ) ;
#176 = TOROIDAL_SURFACE ( 'NONE', #205, 500.0000000000000000, 200.0000000000000000 ) ;
#177 = CARTESIAN_POINT ( 'NONE',  ( 500.0000000000000000, 0.0000000000000000000, 0.0000000000000000000 ) ) ;
#178 = APPLICATION_CONTEXT ( 'configuration controlled 3d designs of mechanical parts and assemblies' ) ;
#179 = ORGANIZATION ( 'UNSPECIFIED', 'UNSPECIFIED', '' ) ;
#180 = SECURITY_CLASSIFICATION_LEVEL ( 'unclassified' ) ;
#181 = DATE_TIME_ROLE ( 'classification_date' ) ;
#182 = AXIS2_PLACEMENT_3D ( 'NONE', #192, #170, #211 ) ;
#183 = ADVANCED_FACE ( 'NONE', ( #74 ), #224, .F. ) ;
#184 = PERSON_AND_ORGANIZATION ( #98, #179 ) ;
#185 = APPROVAL_PERSON_ORGANIZATION ( #219, #187, #131 ) ;
#186 = EDGE_LOOP ( 'NONE', ( #105, #21 ) ) ;
#187 = APPROVAL ( #49, 'UNSPECIFIED' ) ;
#188 = CIRCLE ( 'NONE', #216, 703.0000000000001100 ) ;
#189 = ORIENTED_EDGE ( 'NONE', *, *, #36, .T. ) ;
#190 = EDGE_CURVE ( 'NONE', #84, #16, #77, .T. ) ;
#191 = PERSON_AND_ORGANIZATION ( #98, #179 ) ;
#192 = CARTESIAN_POINT ( 'NONE',  ( 499.9999999999998300, 500.0000000000000000, 0.0000000000000000000 ) ) ;
#193 = CARTESIAN_POINT ( 'NONE',  ( 499.9999999999997700, 700.0000000000000000, 0.0000000000000000000 ) ) ;
#194 = AXIS2_PLACEMENT_3D ( 'NONE', #104, #213, #65 ) ;
#195 = DIRECTION ( 'NONE',  ( 0.0000000000000000000, 0.0000000000000000000, 1.000000000000000000 ) ) ;
#196 = DATE_AND_TIME ( #115, #137 ) ;
#197 = CARTESIAN_POINT ( 'NONE',  ( -203.0000000000000300, 0.0000000000000000000, 0.0000000000000000000 ) ) ;
#198 = CC_DESIGN_APPROVAL ( #187, ( #18 ) ) ;
#199 = ADVANCED_FACE ( 'NONE', ( #32 ), #176, .F. ) ;
#200 =( NAMED_UNIT ( * ) PLANE_ANGLE_UNIT ( ) SI_UNIT ( $, .RADIAN. ) );
#201 = ORIENTED_EDGE ( 'NONE', *, *, #225, .F. ) ;
#202 = EDGE_CURVE ( 'NONE', #172, #132, #76, .T. ) ;
#203 = ORIENTED_EDGE ( 'NONE', *, *, #202, .T. ) ;
#204 = ORIENTED_EDGE ( 'NONE', *, *, #140, .F. ) ;
#205 = AXIS2_PLACEMENT_3D ( 'NONE', #158, #81, #106 ) ;
#206 = DATE_AND_TIME ( #251, #13 ) ;
#207 = EDGE_LOOP ( 'NONE', ( #113, #67, #92, #53 ) ) ;
#208 = CARTESIAN_POINT ( 'NONE',  ( 499.9999999999998300, 500.0000000000000000, 0.0000000000000000000 ) ) ;
#209 = EDGE_CURVE ( 'NONE', #28, #16, #239, .T. ) ;
#210 = APPROVAL_DATE_TIME ( #150, #187 ) ;
#211 = DIRECTION ( 'NONE',  ( 0.0000000000000000000, 0.0000000000000000000, 1.000000000000000000 ) ) ;
#212 = DIRECTION ( 'NONE',  ( 0.0000000000000000000, 0.0000000000000000000, 1.000000000000000000 ) ) ;
#213 = DIRECTION ( 'NONE',  ( 0.0000000000000000000, 1.000000000000000000, 0.0000000000000000000 ) ) ;
#214 = CIRCLE ( 'NONE', #60, 296.9999999999999400 ) ;
#215 = ORIENTED_EDGE ( 'NONE', *, *, #247, .T. ) ;
#216 = AXIS2_PLACEMENT_3D ( 'NONE', #177, #145, #157 ) ;
#217 = MANIFOLD_SOLID_BREP ( 'cut-body', #246 ) ;
#218 = CARTESIAN_POINT ( 'NONE',  ( 500.0000000000000000, 0.0000000000000000000, 0.0000000000000000000 ) ) ;
#219 = PERSON_AND_ORGANIZATION ( #98, #179 ) ;
#220 = PERSON_AND_ORGANIZATION_ROLE ( 'classification_officer' ) ;
#221 = DIRECTION ( 'NONE',  ( 1.000000000000000000, 0.0000000000000000000, 0.0000000000000000000 ) ) ;
#222 = CALENDAR_DATE ( 2021, 10, 2 ) ;
#223 = ORIENTED_EDGE ( 'NONE', *, *, #190, .F. ) ;
#224 = TOROIDAL_SURFACE ( 'NONE', #228, 500.0000000000000000, 200.0000000000000000 ) ;
#225 = EDGE_CURVE ( 'NONE', #16, #28, #146, .T. ) ;
#226 = COORDINATED_UNIVERSAL_TIME_OFFSET ( 1, 0, .AHEAD. ) ;
#227 = AXIS2_PLACEMENT_3D ( 'NONE', #218, #66, #5 ) ;
#228 = AXIS2_PLACEMENT_3D ( 'NONE', #85, #232, #103 ) ;
#229 = CARTESIAN_POINT ( 'NONE',  ( -199.9999999999999700, 0.0000000000000000000, 0.0000000000000000000 ) ) ;
#230 = SHAPE_DEFINITION_REPRESENTATION ( #130, #110 ) ;
#231 = CC_DESIGN_APPROVAL ( #108, ( #71 ) ) ;
#232 = DIRECTION ( 'NONE',  ( 0.0000000000000000000, 0.0000000000000000000, 1.000000000000000000 ) ) ;
#233 = COORDINATED_UNIVERSAL_TIME_OFFSET ( 1, 0, .AHEAD. ) ;
#234 = FACE_OUTER_BOUND ( 'NONE', #141, .T. ) ;
#235 = DIRECTION ( 'NONE',  ( 0.0000000000000000000, 0.0000000000000000000, 1.000000000000000000 ) ) ;
#236 = DIRECTION ( 'NONE',  ( 0.0000000000000000000, 0.0000000000000000000, 1.000000000000000000 ) ) ;
#237 = DIRECTION ( 'NONE',  ( 0.0000000000000000000, 0.0000000000000000000, 1.000000000000000000 ) ) ;
#238 = DIRECTION ( 'NONE',  ( 0.0000000000000000000, 1.000000000000000000, 0.0000000000000000000 ) ) ;
#239 = CIRCLE ( 'NONE', #79, 200.0000000000000000 ) ;
#240 = PERSON_AND_ORGANIZATION_ROLE ( 'creator' ) ;
#241 = PRODUCT_DEFINITION_FORMATION_WITH_SPECIFIED_SOURCE ( 'ANY', '', #119, .NOT_KNOWN. ) ;
#242 = DESIGN_CONTEXT ( 'detailed design', #178, 'design' ) ;
#243 = ADVANCED_FACE ( 'NONE', ( #20 ), #148, .T. ) ;
#244 = APPLICATION_PROTOCOL_DEFINITION ( 'international standard', 'config_control_design', 1994, #30 ) ;
#245 = CIRCLE ( 'NONE', #116, 203.0000000000000000 ) ;
#246 = CLOSED_SHELL ( 'NONE', ( #199, #133, #243, #50, #25, #183 ) ) ;
#247 = EDGE_CURVE ( 'NONE', #64, #28, #59, .T. ) ;
#248 = CC_DESIGN_PERSON_AND_ORGANIZATION_ASSIGNMENT ( #136, #107, ( #119 ) ) ;
#249 = APPROVAL_DATE_TIME ( #99, #114 ) ;
#250 = ORIENTED_EDGE ( 'NONE', *, *, #14, .F. ) ;
#251 = CALENDAR_DATE ( 2021, 10, 2 ) ;
#252 = PRODUCT_RELATED_PRODUCT_CATEGORY ( 'detail', '', ( #119 ) ) ;
#253 = PLANE ( 'NONE',  #152 ) ;
ENDSEC;
END-ISO-10303-21;
