ISO-10303-21;
HEADER;
FILE_DESCRIPTION (( 'STEP AP203' ),
    '1' );
FILE_NAME ('3D_R169-K_21-17_17325120.STEP',
    '2024-07-11T10:15:42',
    ( '' ),
    ( '' ),
    'SwSTEP 2.0',
    'SolidWorks 2024',
    '' );
FILE_SCHEMA (( 'CONFIG_CONTROL_DESIGN' ));
ENDSEC;

DATA;
#1 = ORIENTED_EDGE ( 'NONE', *, *, #194, .T. ) ;
#2 = PERSON_AND_ORGANIZATION ( #202, #136 ) ;
#3 = CARTESIAN_POINT ( 'NONE',  ( 0.000000000000000000, 0.000000000000000000, 0.000000000000000000 ) ) ;
#4 = LINE ( 'NONE', #98, #199 ) ;
#5 = DIRECTION ( 'NONE',  ( 0.000000000000000000, 0.000000000000000000, 1.000000000000000000 ) ) ;
#6 = PRODUCT_RELATED_PRODUCT_CATEGORY ( 'detail', '', ( #161 ) ) ;
#7 = CARTESIAN_POINT ( 'NONE',  ( 20.00000000000000000, 5.265981236333618470E-16, 8.599999999999999645 ) ) ;
#8 = CIRCLE ( 'NONE', #75, 6.589521201305519327 ) ;
#9 = ORIENTED_EDGE ( 'NONE', *, *, #231, .F. ) ;
#10 = APPLICATION_PROTOCOL_DEFINITION ( 'international standard', 'config_control_design', 1994, #207 ) ;
#11 = CC_DESIGN_PERSON_AND_ORGANIZATION_ASSIGNMENT ( #17, #171, ( #23 ) ) ;
#12 = CARTESIAN_POINT ( 'NONE',  ( 20.00000000000000000, 0.000000000000000000, 0.000000000000000000 ) ) ;
#13 =( GEOMETRIC_REPRESENTATION_CONTEXT ( 3 ) GLOBAL_UNCERTAINTY_ASSIGNED_CONTEXT ( ( #155 ) ) GLOBAL_UNIT_ASSIGNED_CONTEXT ( ( #87, #88, #51 ) ) REPRESENTATION_CONTEXT ( 'NONE', 'WORKASPACE' ) );
#14 = DIRECTION ( 'NONE',  ( 1.000000000000000000, 0.000000000000000000, 0.000000000000000000 ) ) ;
#15 = APPLICATION_CONTEXT ( 'configuration controlled 3d designs of mechanical parts and assemblies' ) ;
#16 = DATE_AND_TIME ( #141, #198 ) ;
#17 = PERSON_AND_ORGANIZATION ( #202, #136 ) ;
#18 = VERTEX_POINT ( 'NONE', #81 ) ;
#19 = PERSON_AND_ORGANIZATION ( #202, #136 ) ;
#20 = SHAPE_DEFINITION_REPRESENTATION ( #119, #130 ) ;
#21 = EDGE_CURVE ( 'NONE', #18, #37, #8, .T. ) ;
#22 = FACE_BOUND ( 'NONE', #77, .T. ) ;
#23 = PRODUCT_DEFINITION_FORMATION_WITH_SPECIFIED_SOURCE ( 'ANY', '', #161, .NOT_KNOWN. ) ;
#24 = EDGE_LOOP ( 'NONE', ( #227, #170, #67, #185 ) ) ;
#25 = DIRECTION ( 'NONE',  ( -0.9947879088795740232, 1.248720424150855401E-17, -0.1019657606601563210 ) ) ;
#26 = ADVANCED_FACE ( 'NONE', ( #156, #109 ), #178, .T. ) ;
#27 = CARTESIAN_POINT ( 'NONE',  ( 0.000000000000000000, 1.956373261637896595E-15, -10.65000000000000036 ) ) ;
#28 = FACE_OUTER_BOUND ( 'NONE', #65, .T. ) ;
#29 = CARTESIAN_POINT ( 'NONE',  ( 20.00000000000000000, 0.000000000000000000, 0.000000000000000000 ) ) ;
#30 = CARTESIAN_POINT ( 'NONE',  ( 0.000000000000000000, 0.000000000000000000, 8.639521201305520037 ) ) ;
#31 = DIRECTION ( 'NONE',  ( 0.000000000000000000, 0.000000000000000000, 1.000000000000000000 ) ) ;
#32 = AXIS2_PLACEMENT_3D ( 'NONE', #192, #139, #42 ) ;
#33 = APPROVAL_PERSON_ORGANIZATION ( #243, #204, #143 ) ;
#34 = CARTESIAN_POINT ( 'NONE',  ( 0.000000000000000000, 0.000000000000000000, 0.000000000000000000 ) ) ;
#35 = DATE_TIME_ROLE ( 'classification_date' ) ;
#36 = CC_DESIGN_PERSON_AND_ORGANIZATION_ASSIGNMENT ( #221, #50, ( #92 ) ) ;
#37 = VERTEX_POINT ( 'NONE', #212 ) ;
#38 = ORIENTED_EDGE ( 'NONE', *, *, #79, .T. ) ;
#39 = EDGE_LOOP ( 'NONE', ( #115, #97, #172, #158 ) ) ;
#40 = ADVANCED_FACE ( 'NONE', ( #22, #96 ), #215, .F. ) ;
#41 = CARTESIAN_POINT ( 'NONE',  ( 20.00000000000000000, 0.000000000000000000, 0.000000000000000000 ) ) ;
#42 = DIRECTION ( 'NONE',  ( 0.000000000000000000, 0.000000000000000000, -1.000000000000000000 ) ) ;
#43 = DIRECTION ( 'NONE',  ( 0.000000000000000000, 0.000000000000000000, -1.000000000000000000 ) ) ;
#44 = AXIS2_PLACEMENT_3D ( 'NONE', #3, #78, #113 ) ;
#45 = AXIS2_PLACEMENT_3D ( 'NONE', #29, #159, #242 ) ;
#46 = LINE ( 'NONE', #153, #180 ) ;
#47 = CARTESIAN_POINT ( 'NONE',  ( 19.79606847867968611, 0.000000000000000000, 0.000000000000000000 ) ) ;
#48 = CARTESIAN_POINT ( 'NONE',  ( 0.000000000000000000, 0.000000000000000000, 0.000000000000000000 ) ) ;
#49 = CC_DESIGN_DATE_AND_TIME_ASSIGNMENT ( #56, #163, ( #92 ) ) ;
#50 = PERSON_AND_ORGANIZATION_ROLE ( 'creator' ) ;
#51 =( NAMED_UNIT ( * ) SI_UNIT ( $, .STERADIAN. ) SOLID_ANGLE_UNIT ( ) );
#52 = SECURITY_CLASSIFICATION ( '', '', #166 ) ;
#53 = CALENDAR_DATE ( 2024, 11, 7 ) ;
#54 = CC_DESIGN_DATE_AND_TIME_ASSIGNMENT ( #58, #35, ( #52 ) ) ;
#55 = AXIS2_PLACEMENT_3D ( 'NONE', #120, #197, #31 ) ;
#56 = DATE_AND_TIME ( #53, #124 ) ;
#57 = EDGE_CURVE ( 'NONE', #18, #187, #46, .T. ) ;
#58 = DATE_AND_TIME ( #71, #144 ) ;
#59 = AXIS2_PLACEMENT_3D ( 'NONE', #64, #133, #5 ) ;
#60 = PERSON_AND_ORGANIZATION_ROLE ( 'classification_officer' ) ;
#61 = APPROVAL_ROLE ( '' ) ;
#62 = ORIENTED_EDGE ( 'NONE', *, *, #79, .F. ) ;
#63 = CC_DESIGN_PERSON_AND_ORGANIZATION_ASSIGNMENT ( #85, #162, ( #161 ) ) ;
#64 = CARTESIAN_POINT ( 'NONE',  ( 19.79606847867968611, 0.000000000000000000, 0.000000000000000000 ) ) ;
#65 = EDGE_LOOP ( 'NONE', ( #140, #128, #114, #72 ) ) ;
#66 = DIRECTION ( 'NONE',  ( 0.000000000000000000, 0.000000000000000000, -1.000000000000000000 ) ) ;
#67 = ORIENTED_EDGE ( 'NONE', *, *, #231, .T. ) ;
#68 = DIRECTION ( 'NONE',  ( -0.9947879088795740232, 0.000000000000000000, 0.1019657606601563210 ) ) ;
#69 = DIRECTION ( 'NONE',  ( 1.000000000000000000, 0.000000000000000000, 0.000000000000000000 ) ) ;
#70 = FACE_OUTER_BOUND ( 'NONE', #39, .T. ) ;
#71 = CALENDAR_DATE ( 2024, 11, 7 ) ;
#72 = ORIENTED_EDGE ( 'NONE', *, *, #57, .F. ) ;
#73 = EDGE_CURVE ( 'NONE', #37, #206, #233, .T. ) ;
#74 = APPROVAL_STATUS ( 'not_yet_approved' ) ;
#75 = AXIS2_PLACEMENT_3D ( 'NONE', #41, #132, #173 ) ;
#76 = ORIENTED_EDGE ( 'NONE', *, *, #21, .F. ) ;
#77 = EDGE_LOOP ( 'NONE', ( #167, #247 ) ) ;
#78 = DIRECTION ( 'NONE',  ( 1.000000000000000000, 0.000000000000000000, 0.000000000000000000 ) ) ;
#79 = EDGE_CURVE ( 'NONE', #37, #18, #135, .T. ) ;
#80 = DIRECTION ( 'NONE',  ( -1.000000000000000000, -0.000000000000000000, -0.000000000000000000 ) ) ;
#81 = CARTESIAN_POINT ( 'NONE',  ( 20.00000000000000000, 0.000000000000000000, 6.589521201305519327 ) ) ;
#82 = CARTESIAN_POINT ( 'NONE',  ( 0.000000000000000000, 0.000000000000000000, 0.000000000000000000 ) ) ;
#83 = EDGE_CURVE ( 'NONE', #151, #84, #4, .T. ) ;
#84 = VERTEX_POINT ( 'NONE', #27 ) ;
#85 = PERSON_AND_ORGANIZATION ( #202, #136 ) ;
#86 = MECHANICAL_CONTEXT ( 'NONE', #207, 'mechanical' ) ;
#87 =( LENGTH_UNIT ( ) NAMED_UNIT ( * ) SI_UNIT ( .MILLI., .METRE. ) );
#88 =( NAMED_UNIT ( * ) PLANE_ANGLE_UNIT ( ) SI_UNIT ( $, .RADIAN. ) );
#89 = EDGE_CURVE ( 'NONE', #187, #206, #93, .T. ) ;
#90 = ORIENTED_EDGE ( 'NONE', *, *, #241, .F. ) ;
#91 = EDGE_LOOP ( 'NONE', ( #106, #38, #209, #126 ) ) ;
#92 = PRODUCT_DEFINITION ( 'UNKNOWN', '', #23, #220 ) ;
#93 = CIRCLE ( 'NONE', #121, 8.639521201305520037 ) ;
#94 = CIRCLE ( 'NONE', #210, 10.65000000000000036 ) ;
#95 = CC_DESIGN_PERSON_AND_ORGANIZATION_ASSIGNMENT ( #2, #60, ( #52 ) ) ;
#96 = FACE_OUTER_BOUND ( 'NONE', #99, .T. ) ;
#97 = ORIENTED_EDGE ( 'NONE', *, *, #148, .F. ) ;
#98 = CARTESIAN_POINT ( 'NONE',  ( 20.00000000000000000, 1.053196247266723694E-15, -8.599999999999999645 ) ) ;
#99 = EDGE_LOOP ( 'NONE', ( #90, #9 ) ) ;
#100 = APPROVAL ( #74, 'UNSPECIFIED' ) ;
#101 = VERTEX_POINT ( 'NONE', #7 ) ;
#102 = DIRECTION ( 'NONE',  ( 0.000000000000000000, 0.000000000000000000, -1.000000000000000000 ) ) ;
#103 = CIRCLE ( 'NONE', #201, 8.599999999999999645 ) ;
#104 = DIRECTION ( 'NONE',  ( 1.000000000000000000, 0.000000000000000000, 0.000000000000000000 ) ) ;
#105 = EDGE_CURVE ( 'NONE', #206, #187, #223, .T. ) ;
#106 = ORIENTED_EDGE ( 'NONE', *, *, #73, .F. ) ;
#107 = AXIS2_PLACEMENT_3D ( 'NONE', #48, #104, #244 ) ;
#108 = VERTEX_POINT ( 'NONE', #189 ) ;
#109 = FACE_OUTER_BOUND ( 'NONE', #234, .T. ) ;
#110 = ADVANCED_FACE ( 'NONE', ( #216 ), #245, .F. ) ;
#111 = DIRECTION ( 'NONE',  ( 0.000000000000000000, 0.000000000000000000, -1.000000000000000000 ) ) ;
#112 = LOCAL_TIME ( 12, 15, 42.00000000000000000, #125 ) ;
#113 = DIRECTION ( 'NONE',  ( 0.000000000000000000, 0.000000000000000000, -1.000000000000000000 ) ) ;
#114 = ORIENTED_EDGE ( 'NONE', *, *, #89, .F. ) ;
#115 = ORIENTED_EDGE ( 'NONE', *, *, #83, .F. ) ;
#116 = ADVANCED_FACE ( 'NONE', ( #28 ), #131, .F. ) ;
#117 = COORDINATED_UNIVERSAL_TIME_OFFSET ( 1, 0, .AHEAD. ) ;
#118 = CARTESIAN_POINT ( 'NONE',  ( 20.00000000000000000, 0.000000000000000000, 8.599999999999999645 ) ) ;
#119 = PRODUCT_DEFINITION_SHAPE ( 'NONE', 'NONE',  #92 ) ;
#120 = CARTESIAN_POINT ( 'NONE',  ( 20.00000000000000000, 0.000000000000000000, 0.000000000000000000 ) ) ;
#121 = AXIS2_PLACEMENT_3D ( 'NONE', #235, #237, #111 ) ;
#122 = CIRCLE ( 'NONE', #107, 10.65000000000000036 ) ;
#123 = FACE_OUTER_BOUND ( 'NONE', #24, .T. ) ;
#124 = LOCAL_TIME ( 12, 15, 42.00000000000000000, #117 ) ;
#125 = COORDINATED_UNIVERSAL_TIME_OFFSET ( 1, 0, .AHEAD. ) ;
#126 = ORIENTED_EDGE ( 'NONE', *, *, #105, .F. ) ;
#127 = COORDINATED_UNIVERSAL_TIME_OFFSET ( 1, 0, .AHEAD. ) ;
#128 = ORIENTED_EDGE ( 'NONE', *, *, #73, .T. ) ;
#129 = APPROVAL_DATE_TIME ( #229, #174 ) ;
#130 = ADVANCED_BREP_SHAPE_REPRESENTATION ( '3D_R169-K_21-17_17325120', ( #232, #249 ), #13 ) ;
#131 = CONICAL_SURFACE ( 'NONE', #59, 6.610424182240851820, 0.1021432824311142989 ) ;
#132 = DIRECTION ( 'NONE',  ( 1.000000000000000000, 0.000000000000000000, 0.000000000000000000 ) ) ;
#133 = DIRECTION ( 'NONE',  ( -1.000000000000000000, -0.000000000000000000, -0.000000000000000000 ) ) ;
#134 = LOCAL_TIME ( 12, 15, 42.00000000000000000, #127 ) ;
#135 = CIRCLE ( 'NONE', #32, 6.589521201305519327 ) ;
#136 = ORGANIZATION ( 'UNSPECIFIED', 'UNSPECIFIED', '' ) ;
#137 = EDGE_CURVE ( 'NONE', #101, #108, #214, .T. ) ;
#138 = DIRECTION ( 'NONE',  ( -0.9947879088795740232, 0.000000000000000000, 0.1019657606601563210 ) ) ;
#139 = DIRECTION ( 'NONE',  ( 1.000000000000000000, 0.000000000000000000, 0.000000000000000000 ) ) ;
#140 = ORIENTED_EDGE ( 'NONE', *, *, #21, .T. ) ;
#141 = CALENDAR_DATE ( 2024, 11, 7 ) ;
#142 = CARTESIAN_POINT ( 'NONE',  ( 0.000000000000000000, 1.058036198534450093E-15, -8.639521201305520037 ) ) ;
#143 = APPROVAL_ROLE ( '' ) ;
#144 = LOCAL_TIME ( 12, 15, 42.00000000000000000, #164 ) ;
#145 = CC_DESIGN_SECURITY_CLASSIFICATION ( #52, ( #23 ) ) ;
#146 = AXIS2_PLACEMENT_3D ( 'NONE', #82, #193, #66 ) ;
#147 = APPROVAL_STATUS ( 'not_yet_approved' ) ;
#148 = EDGE_CURVE ( 'NONE', #101, #151, #181, .T. ) ;
#149 = CC_DESIGN_APPROVAL ( #174, ( #23 ) ) ;
#150 = AXIS2_PLACEMENT_3D ( 'NONE', #176, #188, #43 ) ;
#151 = VERTEX_POINT ( 'NONE', #240 ) ;
#152 = CALENDAR_DATE ( 2024, 11, 7 ) ;
#153 = CARTESIAN_POINT ( 'NONE',  ( 19.79606847867968611, 0.000000000000000000, 6.610424182240851820 ) ) ;
#154 = DIRECTION ( 'NONE',  ( 0.000000000000000000, 0.000000000000000000, 1.000000000000000000 ) ) ;
#155 = UNCERTAINTY_MEASURE_WITH_UNIT (LENGTH_MEASURE( 1.000000000000000082E-05 ), #87, 'distance_accuracy_value', 'NONE');
#156 = FACE_BOUND ( 'NONE', #238, .T. ) ;
#157 = ORIENTED_EDGE ( 'NONE', *, *, #148, .T. ) ;
#158 = ORIENTED_EDGE ( 'NONE', *, *, #241, .T. ) ;
#159 = DIRECTION ( 'NONE',  ( 1.000000000000000000, 0.000000000000000000, 0.000000000000000000 ) ) ;
#160 = DIRECTION ( 'NONE',  ( -1.000000000000000000, -0.000000000000000000, -0.000000000000000000 ) ) ;
#161 = PRODUCT ( '3D_R169-K_21-17_17325120', '3D_R169-K_21-17_17325120', '', ( #86 ) ) ;
#162 = PERSON_AND_ORGANIZATION_ROLE ( 'design_owner' ) ;
#163 = DATE_TIME_ROLE ( 'creation_date' ) ;
#164 = COORDINATED_UNIVERSAL_TIME_OFFSET ( 1, 0, .AHEAD. ) ;
#165 = ADVANCED_FACE ( 'NONE', ( #70 ), #225, .T. ) ;
#166 = SECURITY_CLASSIFICATION_LEVEL ( 'unclassified' ) ;
#167 = ORIENTED_EDGE ( 'NONE', *, *, #89, .T. ) ;
#168 = CC_DESIGN_APPROVAL ( #100, ( #52 ) ) ;
#169 = APPROVAL_DATE_TIME ( #208, #100 ) ;
#170 = ORIENTED_EDGE ( 'NONE', *, *, #83, .T. ) ;
#171 = PERSON_AND_ORGANIZATION_ROLE ( 'creator' ) ;
#172 = ORIENTED_EDGE ( 'NONE', *, *, #137, .T. ) ;
#173 = DIRECTION ( 'NONE',  ( 0.000000000000000000, 0.000000000000000000, -1.000000000000000000 ) ) ;
#174 = APPROVAL ( #147, 'UNSPECIFIED' ) ;
#175 = DIRECTION ( 'NONE',  ( -0.9947879088795740232, 1.248720424150855401E-17, -0.1019657606601563210 ) ) ;
#176 = CARTESIAN_POINT ( 'NONE',  ( 20.00000000000000000, 0.000000000000000000, 0.000000000000000000 ) ) ;
#177 = AXIS2_PLACEMENT_3D ( 'NONE', #222, #160, #196 ) ;
#178 = PLANE ( 'NONE',  #150 ) ;
#179 = COORDINATED_UNIVERSAL_TIME_OFFSET ( 1, 0, .AHEAD. ) ;
#180 = VECTOR ( 'NONE', #138, 1000.000000000000000 ) ;
#181 = CIRCLE ( 'NONE', #45, 8.599999999999999645 ) ;
#182 = ADVANCED_FACE ( 'NONE', ( #123 ), #230, .T. ) ;
#183 = DIRECTION ( 'NONE',  ( 0.000000000000000000, 0.000000000000000000, 1.000000000000000000 ) ) ;
#184 = PERSON_AND_ORGANIZATION_ROLE ( 'design_supplier' ) ;
#185 = ORIENTED_EDGE ( 'NONE', *, *, #137, .F. ) ;
#186 = CALENDAR_DATE ( 2024, 11, 7 ) ;
#187 = VERTEX_POINT ( 'NONE', #30 ) ;
#188 = DIRECTION ( 'NONE',  ( 1.000000000000000000, 0.000000000000000000, 0.000000000000000000 ) ) ;
#189 = CARTESIAN_POINT ( 'NONE',  ( 0.000000000000000000, -6.521244205459656303E-16, 10.65000000000000036 ) ) ;
#190 = AXIS2_PLACEMENT_3D ( 'NONE', #47, #80, #154 ) ;
#191 = CARTESIAN_POINT ( 'NONE',  ( 19.79606847867968611, 8.095434815787518664E-16, -6.610424182240851820 ) ) ;
#192 = CARTESIAN_POINT ( 'NONE',  ( 20.00000000000000000, 0.000000000000000000, 0.000000000000000000 ) ) ;
#193 = DIRECTION ( 'NONE',  ( 1.000000000000000000, 0.000000000000000000, 0.000000000000000000 ) ) ;
#194 = EDGE_CURVE ( 'NONE', #151, #101, #103, .T. ) ;
#195 = CARTESIAN_POINT ( 'NONE',  ( 0.000000000000000000, 0.000000000000000000, 0.000000000000000000 ) ) ;
#196 = DIRECTION ( 'NONE',  ( 0.000000000000000000, 0.000000000000000000, 1.000000000000000000 ) ) ;
#197 = DIRECTION ( 'NONE',  ( -1.000000000000000000, -0.000000000000000000, -0.000000000000000000 ) ) ;
#198 = LOCAL_TIME ( 12, 15, 42.00000000000000000, #179 ) ;
#199 = VECTOR ( 'NONE', #175, 1000.000000000000000 ) ;
#200 = DIRECTION ( 'NONE',  ( 1.000000000000000000, 0.000000000000000000, 0.000000000000000000 ) ) ;
#201 = AXIS2_PLACEMENT_3D ( 'NONE', #12, #200, #217 ) ;
#202 = PERSON ( 'UNSPECIFIED', 'UNSPECIFIED', 'UNSPECIFIED', ('UNSPECIFIED'), ('UNSPECIFIED'), ('UNSPECIFIED') ) ;
#203 = APPLICATION_PROTOCOL_DEFINITION ( 'international standard', 'config_control_design', 1994, #15 ) ;
#204 = APPROVAL ( #224, 'UNSPECIFIED' ) ;
#205 = PERSON_AND_ORGANIZATION ( #202, #136 ) ;
#206 = VERTEX_POINT ( 'NONE', #142 ) ;
#207 = APPLICATION_CONTEXT ( 'configuration controlled 3d designs of mechanical parts and assemblies' ) ;
#208 = DATE_AND_TIME ( #152, #134 ) ;
#209 = ORIENTED_EDGE ( 'NONE', *, *, #57, .T. ) ;
#210 = AXIS2_PLACEMENT_3D ( 'NONE', #34, #14, #102 ) ;
#211 = CC_DESIGN_PERSON_AND_ORGANIZATION_ASSIGNMENT ( #246, #184, ( #23 ) ) ;
#212 = CARTESIAN_POINT ( 'NONE',  ( 20.00000000000000000, 9.325099016218462116E-16, -6.589521201305519327 ) ) ;
#213 = APPROVAL_PERSON_ORGANIZATION ( #19, #100, #226 ) ;
#214 = LINE ( 'NONE', #118, #236 ) ;
#215 = PLANE ( 'NONE',  #44 ) ;
#216 = FACE_OUTER_BOUND ( 'NONE', #91, .T. ) ;
#217 = DIRECTION ( 'NONE',  ( 0.000000000000000000, 0.000000000000000000, -1.000000000000000000 ) ) ;
#218 = CLOSED_SHELL ( 'NONE', ( #116, #182, #26, #40, #165, #110 ) ) ;
#219 = APPROVAL_DATE_TIME ( #16, #204 ) ;
#220 = DESIGN_CONTEXT ( 'detailed design', #15, 'design' ) ;
#221 = PERSON_AND_ORGANIZATION ( #202, #136 ) ;
#222 = CARTESIAN_POINT ( 'NONE',  ( 20.00000000000000000, 0.000000000000000000, 0.000000000000000000 ) ) ;
#223 = CIRCLE ( 'NONE', #146, 8.639521201305520037 ) ;
#224 = APPROVAL_STATUS ( 'not_yet_approved' ) ;
#225 = CONICAL_SURFACE ( 'NONE', #177, 8.599999999999999645, 0.1021432824311142989 ) ;
#226 = APPROVAL_ROLE ( '' ) ;
#227 = ORIENTED_EDGE ( 'NONE', *, *, #194, .F. ) ;
#228 = APPROVAL_PERSON_ORGANIZATION ( #205, #174, #61 ) ;
#229 = DATE_AND_TIME ( #186, #112 ) ;
#230 = CONICAL_SURFACE ( 'NONE', #55, 8.599999999999999645, 0.1021432824311142989 ) ;
#231 = EDGE_CURVE ( 'NONE', #84, #108, #94, .T. ) ;
#232 = MANIFOLD_SOLID_BREP ( 'Wandung2', #218 ) ;
#233 = LINE ( 'NONE', #191, #248 ) ;
#234 = EDGE_LOOP ( 'NONE', ( #157, #1 ) ) ;
#235 = CARTESIAN_POINT ( 'NONE',  ( 0.000000000000000000, 0.000000000000000000, 0.000000000000000000 ) ) ;
#236 = VECTOR ( 'NONE', #68, 1000.000000000000000 ) ;
#237 = DIRECTION ( 'NONE',  ( 1.000000000000000000, 0.000000000000000000, 0.000000000000000000 ) ) ;
#238 = EDGE_LOOP ( 'NONE', ( #76, #62 ) ) ;
#239 = CC_DESIGN_APPROVAL ( #204, ( #92 ) ) ;
#240 = CARTESIAN_POINT ( 'NONE',  ( 20.00000000000000000, 5.265981236333618470E-16, -8.599999999999999645 ) ) ;
#241 = EDGE_CURVE ( 'NONE', #108, #84, #122, .T. ) ;
#242 = DIRECTION ( 'NONE',  ( 0.000000000000000000, 0.000000000000000000, -1.000000000000000000 ) ) ;
#243 = PERSON_AND_ORGANIZATION ( #202, #136 ) ;
#244 = DIRECTION ( 'NONE',  ( 0.000000000000000000, 0.000000000000000000, -1.000000000000000000 ) ) ;
#245 = CONICAL_SURFACE ( 'NONE', #190, 6.610424182240851820, 0.1021432824311142989 ) ;
#246 = PERSON_AND_ORGANIZATION ( #202, #136 ) ;
#247 = ORIENTED_EDGE ( 'NONE', *, *, #105, .T. ) ;
#248 = VECTOR ( 'NONE', #25, 1000.000000000000000 ) ;
#249 = AXIS2_PLACEMENT_3D ( 'NONE', #195, #183, #69 ) ;
ENDSEC;
END-ISO-10303-21;
