ISO-10303-21;
HEADER;
FILE_DESCRIPTION (( 'STEP AP203' ),
    '1' );
FILE_NAME ('3D_M-2030P_50_174774045.STEP',
    '2024-09-10T06:58:19',
    ( '' ),
    ( '' ),
    'SwSTEP 2.0',
    'SolidWorks 2024',
    '' );
FILE_SCHEMA (( 'CONFIG_CONTROL_DESIGN' ));
ENDSEC;

DATA;
#1 = CALENDAR_DATE ( 2024, 10, 9 ) ;
#2 = MANIFOLD_SOLID_BREP ( 'Rotation1', #225 ) ;
#3 = PRODUCT_DEFINITION_SHAPE ( 'NONE', 'NONE',  #82 ) ;
#4 = PLANE ( 'NONE',  #84 ) ;
#5 = CIRCLE ( 'NONE', #26, 34.49999999999997158 ) ;
#6 = PERSON_AND_ORGANIZATION ( #202, #100 ) ;
#7 = CIRCLE ( 'NONE', #48, 34.49999999999997158 ) ;
#8 = DIRECTION ( 'NONE',  ( 0.000000000000000000, 0.000000000000000000, 1.000000000000000000 ) ) ;
#9 = EDGE_LOOP ( 'NONE', ( #76, #230, #121, #185 ) ) ;
#10 = PERSON_AND_ORGANIZATION ( #202, #100 ) ;
#11 = ORIENTED_EDGE ( 'NONE', *, *, #67, .T. ) ;
#12 = CARTESIAN_POINT ( 'NONE',  ( -2.999999999999988898, 0.000000000000000000, 0.000000000000000000 ) ) ;
#13 = PERSON_AND_ORGANIZATION ( #202, #100 ) ;
#14 = DIRECTION ( 'NONE',  ( -1.000000000000000000, -0.000000000000000000, -0.000000000000000000 ) ) ;
#15 = DATE_AND_TIME ( #1, #196 ) ;
#16 = DIRECTION ( 'NONE',  ( 0.000000000000000000, 0.000000000000000000, -1.000000000000000000 ) ) ;
#17 = VERTEX_POINT ( 'NONE', #35 ) ;
#18 = VECTOR ( 'NONE', #172, 1000.000000000000000 ) ;
#19 = EDGE_CURVE ( 'NONE', #71, #190, #134, .T. ) ;
#20 = DIRECTION ( 'NONE',  ( 0.000000000000000000, 0.000000000000000000, -1.000000000000000000 ) ) ;
#21 = EDGE_CURVE ( 'NONE', #190, #71, #55, .T. ) ;
#22 = DIRECTION ( 'NONE',  ( 0.9396926207859092051, 0.000000000000000000, -0.3420201433256662704 ) ) ;
#23 = CC_DESIGN_SECURITY_CLASSIFICATION ( #47, ( #119 ) ) ;
#24 = EDGE_CURVE ( 'NONE', #206, #244, #62, .T. ) ;
#25 = DIRECTION ( 'NONE',  ( 0.000000000000000000, 0.000000000000000000, 1.000000000000000000 ) ) ;
#26 = AXIS2_PLACEMENT_3D ( 'NONE', #12, #92, #129 ) ;
#27 = PLANE ( 'NONE',  #170 ) ;
#28 = CARTESIAN_POINT ( 'NONE',  ( 2.602085213965210642E-15, 30.49999999999996447, 0.000000000000000000 ) ) ;
#29 = LOCAL_TIME ( 8, 58, 19.00000000000000000, #73 ) ;
#30 = COORDINATED_UNIVERSAL_TIME_OFFSET ( 1, 0, .AHEAD. ) ;
#31 = FACE_OUTER_BOUND ( 'NONE', #226, .T. ) ;
#32 = CALENDAR_DATE ( 2024, 10, 9 ) ;
#33 = CC_DESIGN_PERSON_AND_ORGANIZATION_ASSIGNMENT ( #247, #36, ( #47 ) ) ;
#34 = EDGE_LOOP ( 'NONE', ( #194, #162, #37, #89 ) ) ;
#35 = CARTESIAN_POINT ( 'NONE',  ( -2.999999999999988898, 0.000000000000000000, -34.49999999999997158 ) ) ;
#36 = PERSON_AND_ORGANIZATION_ROLE ( 'classification_officer' ) ;
#37 = ORIENTED_EDGE ( 'NONE', *, *, #248, .T. ) ;
#38 = DIRECTION ( 'NONE',  ( -1.000000000000000000, -0.000000000000000000, -0.000000000000000000 ) ) ;
#39 = AXIS2_PLACEMENT_3D ( 'NONE', #151, #144, #91 ) ;
#40 = EDGE_CURVE ( 'NONE', #252, #246, #254, .T. ) ;
#41 = LOCAL_TIME ( 8, 58, 19.00000000000000000, #240 ) ;
#42 = ORIENTED_EDGE ( 'NONE', *, *, #122, .T. ) ;
#43 = CARTESIAN_POINT ( 'NONE',  ( -108.2865231617622612, 0.000000000000000000, 30.49999999999996447 ) ) ;
#44 = MECHANICAL_CONTEXT ( 'NONE', #149, 'mechanical' ) ;
#45 = APPROVAL_DATE_TIME ( #66, #175 ) ;
#46 = FACE_OUTER_BOUND ( 'NONE', #9, .T. ) ;
#47 = SECURITY_CLASSIFICATION ( '', '', #189 ) ;
#48 = AXIS2_PLACEMENT_3D ( 'NONE', #117, #81, #155 ) ;
#49 = APPLICATION_PROTOCOL_DEFINITION ( 'international standard', 'config_control_design', 1994, #233 ) ;
#50 = CARTESIAN_POINT ( 'NONE',  ( -2.999999999999988898, 0.000000000000000000, 0.000000000000000000 ) ) ;
#51 = COORDINATED_UNIVERSAL_TIME_OFFSET ( 1, 0, .AHEAD. ) ;
#52 = CARTESIAN_POINT ( 'NONE',  ( -13.99999999999998401, 0.000000000000000000, 0.000000000000000000 ) ) ;
#53 = ORIENTED_EDGE ( 'NONE', *, *, #21, .T. ) ;
#54 = CARTESIAN_POINT ( 'NONE',  ( -13.99999999999998401, 0.000000000000000000, 0.000000000000000000 ) ) ;
#55 = CIRCLE ( 'NONE', #39, 30.49999999999996447 ) ;
#56 = DIRECTION ( 'NONE',  ( 0.000000000000000000, 0.000000000000000000, 1.000000000000000000 ) ) ;
#57 = CARTESIAN_POINT ( 'NONE',  ( -108.2865231617622612, 0.000000000000000000, 0.000000000000000000 ) ) ;
#58 = CC_DESIGN_PERSON_AND_ORGANIZATION_ASSIGNMENT ( #93, #228, ( #119 ) ) ;
#59 = APPROVAL_STATUS ( 'not_yet_approved' ) ;
#60 = APPROVAL_PERSON_ORGANIZATION ( #83, #193, #156 ) ;
#61 = EDGE_CURVE ( 'NONE', #206, #209, #166, .T. ) ;
#62 = CIRCLE ( 'NONE', #139, 30.49632742307177580 ) ;
#63 = DIRECTION ( 'NONE',  ( -1.000000000000000000, 0.000000000000000000, -0.000000000000000000 ) ) ;
#64 = DIRECTION ( 'NONE',  ( -1.000000000000000000, -0.000000000000000000, -0.000000000000000000 ) ) ;
#65 = DESIGN_CONTEXT ( 'detailed design', #233, 'design' ) ;
#66 = DATE_AND_TIME ( #126, #41 ) ;
#67 = EDGE_CURVE ( 'NONE', #244, #206, #88, .T. ) ;
#68 = FACE_BOUND ( 'NONE', #171, .T. ) ;
#69 = ORIENTED_EDGE ( 'NONE', *, *, #207, .F. ) ;
#70 =( NAMED_UNIT ( * ) PLANE_ANGLE_UNIT ( ) SI_UNIT ( $, .RADIAN. ) );
#71 = VERTEX_POINT ( 'NONE', #223 ) ;
#72 = ADVANCED_FACE ( 'NONE', ( #114 ), #147, .T. ) ;
#73 = COORDINATED_UNIVERSAL_TIME_OFFSET ( 1, 0, .AHEAD. ) ;
#74 = DIRECTION ( 'NONE',  ( 1.000000000000000000, 0.000000000000000000, 0.000000000000000000 ) ) ;
#75 = DATE_AND_TIME ( #173, #29 ) ;
#76 = ORIENTED_EDGE ( 'NONE', *, *, #221, .T. ) ;
#77 = APPROVAL ( #79, 'UNSPECIFIED' ) ;
#78 = DIRECTION ( 'NONE',  ( -1.000000000000000000, -0.000000000000000000, -0.000000000000000000 ) ) ;
#79 = APPROVAL_STATUS ( 'not_yet_approved' ) ;
#80 = DIRECTION ( 'NONE',  ( 0.000000000000000000, 0.000000000000000000, 1.000000000000000000 ) ) ;
#81 = DIRECTION ( 'NONE',  ( -1.000000000000000000, -0.000000000000000000, -0.000000000000000000 ) ) ;
#82 = PRODUCT_DEFINITION ( 'UNKNOWN', '', #119, #65 ) ;
#83 = PERSON_AND_ORGANIZATION ( #202, #100 ) ;
#84 = AXIS2_PLACEMENT_3D ( 'NONE', #218, #108, #125 ) ;
#85 = LINE ( 'NONE', #180, #160 ) ;
#86 =( LENGTH_UNIT ( ) NAMED_UNIT ( * ) SI_UNIT ( .MILLI., .METRE. ) );
#87 =( GEOMETRIC_REPRESENTATION_CONTEXT ( 3 ) GLOBAL_UNCERTAINTY_ASSIGNED_CONTEXT ( ( #103 ) ) GLOBAL_UNIT_ASSIGNED_CONTEXT ( ( #86, #70, #102 ) ) REPRESENTATION_CONTEXT ( 'NONE', 'WORKASPACE' ) );
#88 = CIRCLE ( 'NONE', #231, 30.49632742307177580 ) ;
#89 = ORIENTED_EDGE ( 'NONE', *, *, #19, .F. ) ;
#90 = FACE_OUTER_BOUND ( 'NONE', #249, .T. ) ;
#91 = DIRECTION ( 'NONE',  ( 0.000000000000000000, 0.000000000000000000, 1.000000000000000000 ) ) ;
#92 = DIRECTION ( 'NONE',  ( -1.000000000000000000, -0.000000000000000000, -0.000000000000000000 ) ) ;
#93 = PERSON_AND_ORGANIZATION ( #202, #100 ) ;
#94 = PLANE ( 'NONE',  #107 ) ;
#95 = CARTESIAN_POINT ( 'NONE',  ( -13.99999999999998934, -3.315318599521195210E-14, 0.000000000000000000 ) ) ;
#96 = LOCAL_TIME ( 8, 58, 19.00000000000000000, #224 ) ;
#97 = CIRCLE ( 'NONE', #211, 30.49999999999996447 ) ;
#98 = CARTESIAN_POINT ( 'NONE',  ( -2.999999999999988898, 4.225031457058364978E-15, 34.49999999999997158 ) ) ;
#99 = CARTESIAN_POINT ( 'NONE',  ( -108.2865231617622612, 3.735172737399422808E-15, -30.49999999999996447 ) ) ;
#100 = ORGANIZATION ( 'UNSPECIFIED', 'UNSPECIFIED', '' ) ;
#101 = CC_DESIGN_APPROVAL ( #77, ( #47 ) ) ;
#102 =( NAMED_UNIT ( * ) SI_UNIT ( $, .STERADIAN. ) SOLID_ANGLE_UNIT ( ) );
#103 = UNCERTAINTY_MEASURE_WITH_UNIT (LENGTH_MEASURE( 1.000000000000000082E-05 ), #86, 'distance_accuracy_value', 'NONE');
#104 = AXIS2_PLACEMENT_3D ( 'NONE', #168, #74, #16 ) ;
#105 = CARTESIAN_POINT ( 'NONE',  ( -2.999999999999988898, 4.225031457058364978E-15, 34.49999999999997158 ) ) ;
#106 = CARTESIAN_POINT ( 'NONE',  ( 0.000000000000000000, 3.735172737399422808E-15, -30.49999999999996447 ) ) ;
#107 = AXIS2_PLACEMENT_3D ( 'NONE', #95, #169, #20 ) ;
#108 = DIRECTION ( 'NONE',  ( -1.000000000000000000, 0.000000000000000000, -0.000000000000000000 ) ) ;
#109 = ADVANCED_FACE ( 'NONE', ( #31 ), #212, .T. ) ;
#110 = CARTESIAN_POINT ( 'NONE',  ( 0.000000000000000000, 0.000000000000000000, 0.000000000000000000 ) ) ;
#111 = APPROVAL_ROLE ( '' ) ;
#112 = ORIENTED_EDGE ( 'NONE', *, *, #157, .F. ) ;
#113 = EDGE_LOOP ( 'NONE', ( #200, #127, #191, #42 ) ) ;
#114 = FACE_OUTER_BOUND ( 'NONE', #113, .T. ) ;
#115 = PERSON_AND_ORGANIZATION_ROLE ( 'creator' ) ;
#116 = ORIENTED_EDGE ( 'NONE', *, *, #24, .F. ) ;
#117 = CARTESIAN_POINT ( 'NONE',  ( -2.999999999999988898, 0.000000000000000000, 0.000000000000000000 ) ) ;
#118 = AXIS2_PLACEMENT_3D ( 'NONE', #227, #78, #56 ) ;
#119 = PRODUCT_DEFINITION_FORMATION_WITH_SPECIFIED_SOURCE ( 'ANY', '', #159, .NOT_KNOWN. ) ;
#120 = CC_DESIGN_PERSON_AND_ORGANIZATION_ASSIGNMENT ( #13, #115, ( #82 ) ) ;
#121 = ORIENTED_EDGE ( 'NONE', *, *, #21, .F. ) ;
#122 = EDGE_CURVE ( 'NONE', #17, #209, #5, .T. ) ;
#123 = APPROVAL_ROLE ( '' ) ;
#124 = CYLINDRICAL_SURFACE ( 'NONE', #214, 30.49999999999996447 ) ;
#125 = DIRECTION ( 'NONE',  ( -0.000000000000000000, 0.000000000000000000, 1.000000000000000000 ) ) ;
#126 = CALENDAR_DATE ( 2024, 10, 9 ) ;
#127 = ORIENTED_EDGE ( 'NONE', *, *, #67, .F. ) ;
#128 = APPROVAL_DATE_TIME ( #204, #77 ) ;
#129 = DIRECTION ( 'NONE',  ( 0.000000000000000000, 0.000000000000000000, 1.000000000000000000 ) ) ;
#130 = CC_DESIGN_DATE_AND_TIME_ASSIGNMENT ( #15, #245, ( #47 ) ) ;
#131 = ORIENTED_EDGE ( 'NONE', *, *, #40, .F. ) ;
#132 = CALENDAR_DATE ( 2024, 10, 9 ) ;
#133 = EDGE_LOOP ( 'NONE', ( #11, #176 ) ) ;
#134 = CIRCLE ( 'NONE', #118, 30.49999999999996447 ) ;
#135 = DATE_TIME_ROLE ( 'creation_date' ) ;
#136 = DIRECTION ( 'NONE',  ( -1.000000000000000000, -0.000000000000000000, -0.000000000000000000 ) ) ;
#137 = DIRECTION ( 'NONE',  ( 0.000000000000000000, 0.000000000000000000, 1.000000000000000000 ) ) ;
#138 = CC_DESIGN_PERSON_AND_ORGANIZATION_ASSIGNMENT ( #6, #163, ( #159 ) ) ;
#139 = AXIS2_PLACEMENT_3D ( 'NONE', #54, #136, #165 ) ;
#140 = CARTESIAN_POINT ( 'NONE',  ( 0.000000000000000000, 0.000000000000000000, 30.49999999999996447 ) ) ;
#141 = DIRECTION ( 'NONE',  ( 0.000000000000000000, 0.000000000000000000, 1.000000000000000000 ) ) ;
#142 = VECTOR ( 'NONE', #153, 1000.000000000000114 ) ;
#143 = CARTESIAN_POINT ( 'NONE',  ( 0.000000000000000000, 0.000000000000000000, 0.000000000000000000 ) ) ;
#144 = DIRECTION ( 'NONE',  ( -1.000000000000000000, -0.000000000000000000, -0.000000000000000000 ) ) ;
#145 = DATE_AND_TIME ( #132, #96 ) ;
#146 = VECTOR ( 'NONE', #215, 1000.000000000000000 ) ;
#147 = CONICAL_SURFACE ( 'NONE', #178, 34.49999999999997158, 0.3490658503988633421 ) ;
#148 = DIRECTION ( 'NONE',  ( 1.000000000000000000, 0.000000000000000000, 0.000000000000000000 ) ) ;
#149 = APPLICATION_CONTEXT ( 'configuration controlled 3d designs of mechanical parts and assemblies' ) ;
#150 = ADVANCED_FACE ( 'NONE', ( #205 ), #94, .F. ) ;
#151 = CARTESIAN_POINT ( 'NONE',  ( -2.999999999999988898, 0.000000000000000000, 0.000000000000000000 ) ) ;
#152 = ORIENTED_EDGE ( 'NONE', *, *, #19, .T. ) ;
#153 = DIRECTION ( 'NONE',  ( 0.9396926207859092051, 4.188538737676961566E-17, 0.3420201433256662704 ) ) ;
#154 = EDGE_CURVE ( 'NONE', #252, #71, #197, .T. ) ;
#155 = DIRECTION ( 'NONE',  ( 0.000000000000000000, 0.000000000000000000, 1.000000000000000000 ) ) ;
#156 = APPROVAL_ROLE ( '' ) ;
#157 = EDGE_CURVE ( 'NONE', #209, #17, #7, .T. ) ;
#158 = CC_DESIGN_APPROVAL ( #193, ( #119 ) ) ;
#159 = PRODUCT ( '3D_M-2030P_50_174774045', '3D_M-2030P_50_174774045', '', ( #44 ) ) ;
#160 = VECTOR ( 'NONE', #22, 1000.000000000000114 ) ;
#161 = CARTESIAN_POINT ( 'NONE',  ( 0.000000000000000000, 0.000000000000000000, 0.000000000000000000 ) ) ;
#162 = ORIENTED_EDGE ( 'NONE', *, *, #40, .T. ) ;
#163 = PERSON_AND_ORGANIZATION_ROLE ( 'design_owner' ) ;
#164 = DIRECTION ( 'NONE',  ( -1.000000000000000000, -0.000000000000000000, -0.000000000000000000 ) ) ;
#165 = DIRECTION ( 'NONE',  ( 0.000000000000000000, 0.000000000000000000, 1.000000000000000000 ) ) ;
#166 = LINE ( 'NONE', #98, #142 ) ;
#167 = PERSON_AND_ORGANIZATION_ROLE ( 'design_supplier' ) ;
#168 = CARTESIAN_POINT ( 'NONE',  ( -2.999999999999988898, 0.000000000000000000, 0.000000000000000000 ) ) ;
#169 = DIRECTION ( 'NONE',  ( 1.000000000000000000, 0.000000000000000000, 0.000000000000000000 ) ) ;
#170 = AXIS2_PLACEMENT_3D ( 'NONE', #28, #63, #179 ) ;
#171 = EDGE_LOOP ( 'NONE', ( #53, #152 ) ) ;
#172 = DIRECTION ( 'NONE',  ( -1.000000000000000000, -0.000000000000000000, -0.000000000000000000 ) ) ;
#173 = CALENDAR_DATE ( 2024, 10, 9 ) ;
#174 = CC_DESIGN_PERSON_AND_ORGANIZATION_ASSIGNMENT ( #250, #167, ( #119 ) ) ;
#175 = APPROVAL ( #183, 'UNSPECIFIED' ) ;
#176 = ORIENTED_EDGE ( 'NONE', *, *, #24, .T. ) ;
#177 = APPLICATION_PROTOCOL_DEFINITION ( 'international standard', 'config_control_design', 1994, #149 ) ;
#178 = AXIS2_PLACEMENT_3D ( 'NONE', #50, #148, #203 ) ;
#179 = DIRECTION ( 'NONE',  ( -0.000000000000000000, 0.000000000000000000, 1.000000000000000000 ) ) ;
#180 = CARTESIAN_POINT ( 'NONE',  ( -2.999999999999988898, 0.000000000000000000, -34.49999999999997158 ) ) ;
#181 = ADVANCED_FACE ( 'NONE', ( #255 ), #234, .T. ) ;
#182 = ORIENTED_EDGE ( 'NONE', *, *, #221, .F. ) ;
#183 = APPROVAL_STATUS ( 'not_yet_approved' ) ;
#184 = CC_DESIGN_APPROVAL ( #175, ( #82 ) ) ;
#185 = ORIENTED_EDGE ( 'NONE', *, *, #248, .F. ) ;
#186 = SHAPE_DEFINITION_REPRESENTATION ( #3, #237 ) ;
#187 = PRODUCT_RELATED_PRODUCT_CATEGORY ( 'detail', '', ( #159 ) ) ;
#188 = ORIENTED_EDGE ( 'NONE', *, *, #157, .T. ) ;
#189 = SECURITY_CLASSIFICATION_LEVEL ( 'unclassified' ) ;
#190 = VERTEX_POINT ( 'NONE', #216 ) ;
#191 = ORIENTED_EDGE ( 'NONE', *, *, #207, .T. ) ;
#192 = APPROVAL_DATE_TIME ( #145, #193 ) ;
#193 = APPROVAL ( #59, 'UNSPECIFIED' ) ;
#194 = ORIENTED_EDGE ( 'NONE', *, *, #154, .F. ) ;
#195 = PERSON_AND_ORGANIZATION ( #202, #100 ) ;
#196 = LOCAL_TIME ( 8, 58, 19.00000000000000000, #30 ) ;
#197 = LINE ( 'NONE', #99, #18 ) ;
#198 = AXIS2_PLACEMENT_3D ( 'NONE', #161, #25, #236 ) ;
#199 = AXIS2_PLACEMENT_3D ( 'NONE', #110, #14, #80 ) ;
#200 = ORIENTED_EDGE ( 'NONE', *, *, #61, .F. ) ;
#201 = CARTESIAN_POINT ( 'NONE',  ( -108.2865231617622612, 0.000000000000000000, 0.000000000000000000 ) ) ;
#202 = PERSON ( 'UNSPECIFIED', 'UNSPECIFIED', 'UNSPECIFIED', ('UNSPECIFIED'), ('UNSPECIFIED'), ('UNSPECIFIED') ) ;
#203 = DIRECTION ( 'NONE',  ( 0.000000000000000000, 0.000000000000000000, -1.000000000000000000 ) ) ;
#204 = DATE_AND_TIME ( #32, #210 ) ;
#205 = FACE_OUTER_BOUND ( 'NONE', #133, .T. ) ;
#206 = VERTEX_POINT ( 'NONE', #222 ) ;
#207 = EDGE_CURVE ( 'NONE', #244, #17, #85, .T. ) ;
#208 = EDGE_LOOP ( 'NONE', ( #182, #131 ) ) ;
#209 = VERTEX_POINT ( 'NONE', #105 ) ;
#210 = LOCAL_TIME ( 8, 58, 19.00000000000000000, #51 ) ;
#211 = AXIS2_PLACEMENT_3D ( 'NONE', #143, #64, #8 ) ;
#212 = CONICAL_SURFACE ( 'NONE', #104, 34.49999999999997158, 0.3490658503988633421 ) ;
#213 = ADVANCED_FACE ( 'NONE', ( #238 ), #27, .F. ) ;
#214 = AXIS2_PLACEMENT_3D ( 'NONE', #201, #164, #141 ) ;
#215 = DIRECTION ( 'NONE',  ( -1.000000000000000000, -0.000000000000000000, -0.000000000000000000 ) ) ;
#216 = CARTESIAN_POINT ( 'NONE',  ( -2.999999999999988898, 0.000000000000000000, 30.49999999999996447 ) ) ;
#217 = LINE ( 'NONE', #43, #146 ) ;
#218 = CARTESIAN_POINT ( 'NONE',  ( -2.999999999999989342, 34.49999999999997158, 0.000000000000000000 ) ) ;
#219 = APPROVAL_PERSON_ORGANIZATION ( #195, #77, #111 ) ;
#220 = ORIENTED_EDGE ( 'NONE', *, *, #61, .T. ) ;
#221 = EDGE_CURVE ( 'NONE', #246, #252, #97, .T. ) ;
#222 = CARTESIAN_POINT ( 'NONE',  ( -13.99999999999998401, 3.979877216749908062E-15, 30.49632742307177580 ) ) ;
#223 = CARTESIAN_POINT ( 'NONE',  ( -2.999999999999988898, 3.735172737399422808E-15, -30.49999999999996447 ) ) ;
#224 = COORDINATED_UNIVERSAL_TIME_OFFSET ( 1, 0, .AHEAD. ) ;
#225 = CLOSED_SHELL ( 'NONE', ( #239, #109, #150, #72, #229, #181, #213 ) ) ;
#226 = EDGE_LOOP ( 'NONE', ( #116, #220, #188, #69 ) ) ;
#227 = CARTESIAN_POINT ( 'NONE',  ( -2.999999999999988898, 0.000000000000000000, 0.000000000000000000 ) ) ;
#228 = PERSON_AND_ORGANIZATION_ROLE ( 'creator' ) ;
#229 = ADVANCED_FACE ( 'NONE', ( #90, #68 ), #4, .F. ) ;
#230 = ORIENTED_EDGE ( 'NONE', *, *, #154, .T. ) ;
#231 = AXIS2_PLACEMENT_3D ( 'NONE', #52, #232, #243 ) ;
#232 = DIRECTION ( 'NONE',  ( -1.000000000000000000, -0.000000000000000000, -0.000000000000000000 ) ) ;
#233 = APPLICATION_CONTEXT ( 'configuration controlled 3d designs of mechanical parts and assemblies' ) ;
#234 = CYLINDRICAL_SURFACE ( 'NONE', #251, 30.49999999999996447 ) ;
#235 = CC_DESIGN_DATE_AND_TIME_ASSIGNMENT ( #75, #135, ( #82 ) ) ;
#236 = DIRECTION ( 'NONE',  ( 1.000000000000000000, 0.000000000000000000, 0.000000000000000000 ) ) ;
#237 = ADVANCED_BREP_SHAPE_REPRESENTATION ( '3D_M-2030P_50_174774045', ( #2, #198 ), #87 ) ;
#238 = FACE_OUTER_BOUND ( 'NONE', #208, .T. ) ;
#239 = ADVANCED_FACE ( 'NONE', ( #46 ), #124, .T. ) ;
#240 = COORDINATED_UNIVERSAL_TIME_OFFSET ( 1, 0, .AHEAD. ) ;
#241 = CARTESIAN_POINT ( 'NONE',  ( -13.99999999999998401, 0.000000000000000000, -30.49632742307177580 ) ) ;
#242 = ORIENTED_EDGE ( 'NONE', *, *, #122, .F. ) ;
#243 = DIRECTION ( 'NONE',  ( 0.000000000000000000, 0.000000000000000000, 1.000000000000000000 ) ) ;
#244 = VERTEX_POINT ( 'NONE', #241 ) ;
#245 = DATE_TIME_ROLE ( 'classification_date' ) ;
#246 = VERTEX_POINT ( 'NONE', #140 ) ;
#247 = PERSON_AND_ORGANIZATION ( #202, #100 ) ;
#248 = EDGE_CURVE ( 'NONE', #246, #190, #217, .T. ) ;
#249 = EDGE_LOOP ( 'NONE', ( #242, #112 ) ) ;
#250 = PERSON_AND_ORGANIZATION ( #202, #100 ) ;
#251 = AXIS2_PLACEMENT_3D ( 'NONE', #57, #38, #137 ) ;
#252 = VERTEX_POINT ( 'NONE', #106 ) ;
#253 = APPROVAL_PERSON_ORGANIZATION ( #10, #175, #123 ) ;
#254 = CIRCLE ( 'NONE', #199, 30.49999999999996447 ) ;
#255 = FACE_OUTER_BOUND ( 'NONE', #34, .T. ) ;
ENDSEC;
END-ISO-10303-21;
