ISO-10303-21;
HEADER;
FILE_DESCRIPTION (( 'STEP AP203' ),
    '1' );
FILE_NAME ('3D_M-7012G_DN32_174731030.STEP',
    '2024-10-04T13:19:40',
    ( '' ),
    ( '' ),
    'SwSTEP 2.0',
    'SolidWorks 2024',
    '' );
FILE_SCHEMA (( 'CONFIG_CONTROL_DESIGN' ));
ENDSEC;

DATA;
#1 = DIRECTION ( 'NONE',  ( 0.000000000000000000, 0.000000000000000000, 1.000000000000000000 ) ) ;
#2 = CYLINDRICAL_SURFACE ( 'NONE', #95, 16.19999999999999929 ) ;
#3 = AXIS2_PLACEMENT_3D ( 'NONE', #152, #228, #35 ) ;
#4 = DIRECTION ( 'NONE',  ( 0.000000000000000000, 0.000000000000000000, 1.000000000000000000 ) ) ;
#5 = CARTESIAN_POINT ( 'NONE',  ( 0.000000000000000000, 75.00000000000000000, 0.000000000000000000 ) ) ;
#6 = SECURITY_CLASSIFICATION ( '', '', #142 ) ;
#7 = DATE_AND_TIME ( #185, #137 ) ;
#8 = PERSON_AND_ORGANIZATION ( #156, #232 ) ;
#9 = PRODUCT ( '3D_M-7012G_DN32_174731030', '3D_M-7012G_DN32_174731030', '', ( #129 ) ) ;
#10 = PERSON_AND_ORGANIZATION_ROLE ( 'design_supplier' ) ;
#11 = PERSON_AND_ORGANIZATION ( #156, #232 ) ;
#12 = PERSON_AND_ORGANIZATION_ROLE ( 'creator' ) ;
#13 = EDGE_LOOP ( 'NONE', ( #155, #134, #195, #100 ) ) ;
#14 = CC_DESIGN_APPROVAL ( #109, ( #198 ) ) ;
#15 = ADVANCED_BREP_SHAPE_REPRESENTATION ( '3D_M-7012G_DN32_174731030', ( #36, #97 ), #175 ) ;
#16 = EDGE_LOOP ( 'NONE', ( #21, #94 ) ) ;
#17 = AXIS2_PLACEMENT_3D ( 'NONE', #182, #164, #138 ) ;
#18 = EDGE_CURVE ( 'NONE', #76, #244, #150, .T. ) ;
#19 = EDGE_LOOP ( 'NONE', ( #173, #37, #227, #98 ) ) ;
#20 = CC_DESIGN_SECURITY_CLASSIFICATION ( #6, ( #149 ) ) ;
#21 = ORIENTED_EDGE ( 'NONE', *, *, #194, .F. ) ;
#22 = APPLICATION_CONTEXT ( 'configuration controlled 3d designs of mechanical parts and assemblies' ) ;
#23 = DIRECTION ( 'NONE',  ( -0.000000000000000000, -1.000000000000000000, -0.000000000000000000 ) ) ;
#24 = CARTESIAN_POINT ( 'NONE',  ( 0.000000000000000000, 75.00000000000000000, 0.000000000000000000 ) ) ;
#25 = DIRECTION ( 'NONE',  ( 0.000000000000000000, 0.000000000000000000, 1.000000000000000000 ) ) ;
#26 = CC_DESIGN_PERSON_AND_ORGANIZATION_ASSIGNMENT ( #209, #10, ( #149 ) ) ;
#27 = CARTESIAN_POINT ( 'NONE',  ( 1.983927814618711846E-15, 75.00000000000000000, 16.19999999999999929 ) ) ;
#28 = CARTESIAN_POINT ( 'NONE',  ( 0.000000000000000000, 75.00000000000000000, 0.000000000000000000 ) ) ;
#29 = APPROVAL_PERSON_ORGANIZATION ( #8, #90, #52 ) ;
#30 = PERSON_AND_ORGANIZATION_ROLE ( 'design_owner' ) ;
#31 = CIRCLE ( 'NONE', #219, 19.00000000000000000 ) ;
#32 = DIRECTION ( 'NONE',  ( 0.000000000000000000, 0.000000000000000000, 1.000000000000000000 ) ) ;
#33 = EDGE_CURVE ( 'NONE', #246, #101, #224, .T. ) ;
#34 = APPLICATION_CONTEXT ( 'configuration controlled 3d designs of mechanical parts and assemblies' ) ;
#35 = DIRECTION ( 'NONE',  ( 0.000000000000000000, 0.000000000000000000, 1.000000000000000000 ) ) ;
#36 = MANIFOLD_SOLID_BREP ( 'Aufsatz-Linear austragen1', #189 ) ;
#37 = ORIENTED_EDGE ( 'NONE', *, *, #187, .T. ) ;
#38 = EDGE_CURVE ( 'NONE', #39, #246, #96, .T. ) ;
#39 = VERTEX_POINT ( 'NONE', #229 ) ;
#40 = ORIENTED_EDGE ( 'NONE', *, *, #194, .T. ) ;
#41 = CIRCLE ( 'NONE', #237, 19.00000000000000000 ) ;
#42 = VERTEX_POINT ( 'NONE', #56 ) ;
#43 = EDGE_CURVE ( 'NONE', #74, #39, #64, .T. ) ;
#44 = PLANE ( 'NONE',  #86 ) ;
#45 = FACE_OUTER_BOUND ( 'NONE', #13, .T. ) ;
#46 = FACE_OUTER_BOUND ( 'NONE', #77, .T. ) ;
#47 = AXIS2_PLACEMENT_3D ( 'NONE', #28, #23, #165 ) ;
#48 = ADVANCED_FACE ( 'NONE', ( #49 ), #61, .F. ) ;
#49 = FACE_OUTER_BOUND ( 'NONE', #118, .T. ) ;
#50 = DIRECTION ( 'NONE',  ( 0.000000000000000000, 1.000000000000000000, 0.000000000000000000 ) ) ;
#51 = PERSON_AND_ORGANIZATION_ROLE ( 'classification_officer' ) ;
#52 = APPROVAL_ROLE ( '' ) ;
#53 =( LENGTH_UNIT ( ) NAMED_UNIT ( * ) SI_UNIT ( .MILLI., .METRE. ) );
#54 = EDGE_CURVE ( 'NONE', #101, #246, #75, .T. ) ;
#55 = COORDINATED_UNIVERSAL_TIME_OFFSET ( 1, 0, .AHEAD. ) ;
#56 = CARTESIAN_POINT ( 'NONE',  ( 2.326828918379970970E-15, 75.00000000000000000, 19.00000000000000000 ) ) ;
#57 = VERTEX_POINT ( 'NONE', #199 ) ;
#58 = ORIENTED_EDGE ( 'NONE', *, *, #158, .T. ) ;
#59 = CARTESIAN_POINT ( 'NONE',  ( 0.000000000000000000, 75.00000000000000000, -19.00000000000000000 ) ) ;
#60 = CC_DESIGN_PERSON_AND_ORGANIZATION_ASSIGNMENT ( #11, #12, ( #198 ) ) ;
#61 = CYLINDRICAL_SURFACE ( 'NONE', #216, 16.19999999999999929 ) ;
#62 = LOCAL_TIME ( 15, 19, 40.00000000000000000, #68 ) ;
#63 = DIRECTION ( 'NONE',  ( 0.000000000000000000, 0.000000000000000000, 1.000000000000000000 ) ) ;
#64 = CIRCLE ( 'NONE', #3, 16.19999999999999929 ) ;
#65 = LINE ( 'NONE', #123, #192 ) ;
#66 = CARTESIAN_POINT ( 'NONE',  ( 0.000000000000000000, 0.000000000000000000, -16.19999999999999929 ) ) ;
#67 = CARTESIAN_POINT ( 'NONE',  ( 0.000000000000000000, 75.00000000000000000, 0.000000000000000000 ) ) ;
#68 = COORDINATED_UNIVERSAL_TIME_OFFSET ( 1, 0, .AHEAD. ) ;
#69 = SHAPE_DEFINITION_REPRESENTATION ( #107, #15 ) ;
#70 = DIRECTION ( 'NONE',  ( 1.000000000000000000, 0.000000000000000000, 0.000000000000000000 ) ) ;
#71 = AXIS2_PLACEMENT_3D ( 'NONE', #78, #214, #210 ) ;
#72 = COORDINATED_UNIVERSAL_TIME_OFFSET ( 1, 0, .AHEAD. ) ;
#73 = PERSON_AND_ORGANIZATION ( #156, #232 ) ;
#74 = VERTEX_POINT ( 'NONE', #27 ) ;
#75 = CIRCLE ( 'NONE', #245, 16.19999999999999929 ) ;
#76 = VERTEX_POINT ( 'NONE', #249 ) ;
#77 = EDGE_LOOP ( 'NONE', ( #248, #120 ) ) ;
#78 = CARTESIAN_POINT ( 'NONE',  ( 0.000000000000000000, 0.000000000000000000, 0.000000000000000000 ) ) ;
#79 = ORIENTED_EDGE ( 'NONE', *, *, #119, .F. ) ;
#80 = CYLINDRICAL_SURFACE ( 'NONE', #17, 19.00000000000000000 ) ;
#81 = CARTESIAN_POINT ( 'NONE',  ( 0.000000000000000000, 0.000000000000000000, 0.000000000000000000 ) ) ;
#82 = EDGE_CURVE ( 'NONE', #57, #244, #205, .T. ) ;
#83 = DIRECTION ( 'NONE',  ( -0.000000000000000000, -1.000000000000000000, -0.000000000000000000 ) ) ;
#84 = FACE_OUTER_BOUND ( 'NONE', #151, .T. ) ;
#85 = DIRECTION ( 'NONE',  ( 0.000000000000000000, 1.000000000000000000, 0.000000000000000000 ) ) ;
#86 = AXIS2_PLACEMENT_3D ( 'NONE', #102, #124, #104 ) ;
#87 = APPROVAL_ROLE ( '' ) ;
#88 = ADVANCED_FACE ( 'NONE', ( #45 ), #2, .F. ) ;
#89 = CALENDAR_DATE ( 2024, 4, 10 ) ;
#90 = APPROVAL ( #169, 'UNSPECIFIED' ) ;
#91 = APPROVAL_DATE_TIME ( #147, #163 ) ;
#92 = DATE_TIME_ROLE ( 'creation_date' ) ;
#93 = CC_DESIGN_APPROVAL ( #90, ( #6 ) ) ;
#94 = ORIENTED_EDGE ( 'NONE', *, *, #43, .F. ) ;
#95 = AXIS2_PLACEMENT_3D ( 'NONE', #200, #181, #197 ) ;
#96 = LINE ( 'NONE', #154, #234 ) ;
#97 = AXIS2_PLACEMENT_3D ( 'NONE', #108, #32, #70 ) ;
#98 = ORIENTED_EDGE ( 'NONE', *, *, #18, .F. ) ;
#99 = AXIS2_PLACEMENT_3D ( 'NONE', #5, #50, #4 ) ;
#100 = ORIENTED_EDGE ( 'NONE', *, *, #54, .F. ) ;
#101 = VERTEX_POINT ( 'NONE', #233 ) ;
#102 = CARTESIAN_POINT ( 'NONE',  ( 0.000000000000000000, 0.000000000000000000, 0.000000000000000000 ) ) ;
#103 = LINE ( 'NONE', #176, #111 ) ;
#104 = DIRECTION ( 'NONE',  ( 0.000000000000000000, -0.000000000000000000, 1.000000000000000000 ) ) ;
#105 = FACE_OUTER_BOUND ( 'NONE', #19, .T. ) ;
#106 =( NAMED_UNIT ( * ) PLANE_ANGLE_UNIT ( ) SI_UNIT ( $, .RADIAN. ) );
#107 = PRODUCT_DEFINITION_SHAPE ( 'NONE', 'NONE',  #198 ) ;
#108 = CARTESIAN_POINT ( 'NONE',  ( 0.000000000000000000, 0.000000000000000000, 0.000000000000000000 ) ) ;
#109 = APPROVAL ( #110, 'UNSPECIFIED' ) ;
#110 = APPROVAL_STATUS ( 'not_yet_approved' ) ;
#111 = VECTOR ( 'NONE', #238, 1000.000000000000000 ) ;
#112 = UNCERTAINTY_MEASURE_WITH_UNIT (LENGTH_MEASURE( 1.000000000000000082E-05 ), #53, 'distance_accuracy_value', 'NONE');
#113 = APPLICATION_PROTOCOL_DEFINITION ( 'international standard', 'config_control_design', 1994, #22 ) ;
#114 = ADVANCED_FACE ( 'NONE', ( #105 ), #80, .T. ) ;
#115 = ORIENTED_EDGE ( 'NONE', *, *, #33, .T. ) ;
#116 = EDGE_LOOP ( 'NONE', ( #174, #212 ) ) ;
#117 = VECTOR ( 'NONE', #136, 1000.000000000000000 ) ;
#118 = EDGE_LOOP ( 'NONE', ( #40, #133, #172, #190 ) ) ;
#119 = EDGE_CURVE ( 'NONE', #76, #42, #31, .T. ) ;
#120 = ORIENTED_EDGE ( 'NONE', *, *, #82, .F. ) ;
#121 = APPROVAL_PERSON_ORGANIZATION ( #186, #163, #87 ) ;
#122 = DIRECTION ( 'NONE',  ( 0.000000000000000000, 0.000000000000000000, -1.000000000000000000 ) ) ;
#123 = CARTESIAN_POINT ( 'NONE',  ( 1.983927814618711846E-15, 75.00000000000000000, 16.19999999999999929 ) ) ;
#124 = DIRECTION ( 'NONE',  ( 0.000000000000000000, 1.000000000000000000, 0.000000000000000000 ) ) ;
#125 = DIRECTION ( 'NONE',  ( 0.000000000000000000, 1.000000000000000000, 0.000000000000000000 ) ) ;
#126 = FACE_OUTER_BOUND ( 'NONE', #116, .T. ) ;
#127 = COORDINATED_UNIVERSAL_TIME_OFFSET ( 1, 0, .AHEAD. ) ;
#128 = APPROVAL_PERSON_ORGANIZATION ( #183, #109, #144 ) ;
#129 = MECHANICAL_CONTEXT ( 'NONE', #22, 'mechanical' ) ;
#130 = PERSON_AND_ORGANIZATION ( #156, #232 ) ;
#131 = AXIS2_PLACEMENT_3D ( 'NONE', #67, #215, #220 ) ;
#132 = PERSON_AND_ORGANIZATION_ROLE ( 'creator' ) ;
#133 = ORIENTED_EDGE ( 'NONE', *, *, #207, .T. ) ;
#134 = ORIENTED_EDGE ( 'NONE', *, *, #43, .T. ) ;
#135 = EDGE_CURVE ( 'NONE', #42, #76, #208, .T. ) ;
#136 = DIRECTION ( 'NONE',  ( -0.000000000000000000, -1.000000000000000000, -0.000000000000000000 ) ) ;
#137 = LOCAL_TIME ( 15, 19, 40.00000000000000000, #206 ) ;
#138 = DIRECTION ( 'NONE',  ( 0.000000000000000000, 0.000000000000000000, -1.000000000000000000 ) ) ;
#139 = DIRECTION ( 'NONE',  ( -0.000000000000000000, -1.000000000000000000, -0.000000000000000000 ) ) ;
#140 = PLANE ( 'NONE',  #153 ) ;
#141 = CYLINDRICAL_SURFACE ( 'NONE', #47, 19.00000000000000000 ) ;
#142 = SECURITY_CLASSIFICATION_LEVEL ( 'unclassified' ) ;
#143 = CALENDAR_DATE ( 2024, 4, 10 ) ;
#144 = APPROVAL_ROLE ( '' ) ;
#145 = DESIGN_CONTEXT ( 'detailed design', #34, 'design' ) ;
#146 = DATE_AND_TIME ( #143, #62 ) ;
#147 = DATE_AND_TIME ( #241, #171 ) ;
#148 = CIRCLE ( 'NONE', #131, 16.19999999999999929 ) ;
#149 = PRODUCT_DEFINITION_FORMATION_WITH_SPECIFIED_SOURCE ( 'ANY', '', #9, .NOT_KNOWN. ) ;
#150 = LINE ( 'NONE', #59, #117 ) ;
#151 = EDGE_LOOP ( 'NONE', ( #211, #79, #242, #58 ) ) ;
#152 = CARTESIAN_POINT ( 'NONE',  ( 0.000000000000000000, 75.00000000000000000, 0.000000000000000000 ) ) ;
#153 = AXIS2_PLACEMENT_3D ( 'NONE', #162, #218, #201 ) ;
#154 = CARTESIAN_POINT ( 'NONE',  ( 0.000000000000000000, 75.00000000000000000, -16.19999999999999929 ) ) ;
#155 = ORIENTED_EDGE ( 'NONE', *, *, #207, .F. ) ;
#156 = PERSON ( 'UNSPECIFIED', 'UNSPECIFIED', 'UNSPECIFIED', ('UNSPECIFIED'), ('UNSPECIFIED'), ('UNSPECIFIED') ) ;
#157 = FACE_BOUND ( 'NONE', #16, .T. ) ;
#158 = EDGE_CURVE ( 'NONE', #244, #57, #41, .T. ) ;
#159 = CC_DESIGN_APPROVAL ( #163, ( #149 ) ) ;
#160 = DIRECTION ( 'NONE',  ( 0.000000000000000000, 1.000000000000000000, 0.000000000000000000 ) ) ;
#161 = AXIS2_PLACEMENT_3D ( 'NONE', #81, #125, #63 ) ;
#162 = CARTESIAN_POINT ( 'NONE',  ( 0.000000000000000000, 75.00000000000000000, 0.000000000000000000 ) ) ;
#163 = APPROVAL ( #168, 'UNSPECIFIED' ) ;
#164 = DIRECTION ( 'NONE',  ( -0.000000000000000000, -1.000000000000000000, -0.000000000000000000 ) ) ;
#165 = DIRECTION ( 'NONE',  ( 0.000000000000000000, 0.000000000000000000, -1.000000000000000000 ) ) ;
#166 =( NAMED_UNIT ( * ) SI_UNIT ( $, .STERADIAN. ) SOLID_ANGLE_UNIT ( ) );
#167 = DATE_AND_TIME ( #89, #193 ) ;
#168 = APPROVAL_STATUS ( 'not_yet_approved' ) ;
#169 = APPROVAL_STATUS ( 'not_yet_approved' ) ;
#170 = CC_DESIGN_DATE_AND_TIME_ASSIGNMENT ( #225, #202, ( #6 ) ) ;
#171 = LOCAL_TIME ( 15, 19, 40.00000000000000000, #55 ) ;
#172 = ORIENTED_EDGE ( 'NONE', *, *, #33, .F. ) ;
#173 = ORIENTED_EDGE ( 'NONE', *, *, #135, .F. ) ;
#174 = ORIENTED_EDGE ( 'NONE', *, *, #119, .T. ) ;
#175 =( GEOMETRIC_REPRESENTATION_CONTEXT ( 3 ) GLOBAL_UNCERTAINTY_ASSIGNED_CONTEXT ( ( #112 ) ) GLOBAL_UNIT_ASSIGNED_CONTEXT ( ( #53, #106, #166 ) ) REPRESENTATION_CONTEXT ( 'NONE', 'WORKASPACE' ) );
#176 = CARTESIAN_POINT ( 'NONE',  ( 2.326828918379970970E-15, 75.00000000000000000, 19.00000000000000000 ) ) ;
#177 = ADVANCED_FACE ( 'NONE', ( #84 ), #141, .T. ) ;
#178 = DIRECTION ( 'NONE',  ( 0.000000000000000000, 1.000000000000000000, 0.000000000000000000 ) ) ;
#179 = CARTESIAN_POINT ( 'NONE',  ( 0.000000000000000000, 75.00000000000000000, 0.000000000000000000 ) ) ;
#180 = CC_DESIGN_PERSON_AND_ORGANIZATION_ASSIGNMENT ( #73, #132, ( #149 ) ) ;
#181 = DIRECTION ( 'NONE',  ( -0.000000000000000000, -1.000000000000000000, -0.000000000000000000 ) ) ;
#182 = CARTESIAN_POINT ( 'NONE',  ( 0.000000000000000000, 75.00000000000000000, 0.000000000000000000 ) ) ;
#183 = PERSON_AND_ORGANIZATION ( #156, #232 ) ;
#184 = APPROVAL_DATE_TIME ( #7, #109 ) ;
#185 = CALENDAR_DATE ( 2024, 4, 10 ) ;
#186 = PERSON_AND_ORGANIZATION ( #156, #232 ) ;
#187 = EDGE_CURVE ( 'NONE', #42, #57, #103, .T. ) ;
#188 = ORIENTED_EDGE ( 'NONE', *, *, #54, .T. ) ;
#189 = CLOSED_SHELL ( 'NONE', ( #48, #114, #230, #243, #177, #88 ) ) ;
#190 = ORIENTED_EDGE ( 'NONE', *, *, #38, .F. ) ;
#191 = EDGE_LOOP ( 'NONE', ( #115, #188 ) ) ;
#192 = VECTOR ( 'NONE', #83, 1000.000000000000000 ) ;
#193 = LOCAL_TIME ( 15, 19, 40.00000000000000000, #72 ) ;
#194 = EDGE_CURVE ( 'NONE', #39, #74, #148, .T. ) ;
#195 = ORIENTED_EDGE ( 'NONE', *, *, #38, .T. ) ;
#196 = CARTESIAN_POINT ( 'NONE',  ( 0.000000000000000000, 0.000000000000000000, 0.000000000000000000 ) ) ;
#197 = DIRECTION ( 'NONE',  ( 0.000000000000000000, 0.000000000000000000, -1.000000000000000000 ) ) ;
#198 = PRODUCT_DEFINITION ( 'UNKNOWN', '', #149, #145 ) ;
#199 = CARTESIAN_POINT ( 'NONE',  ( 2.326828918379970970E-15, 0.000000000000000000, 19.00000000000000000 ) ) ;
#200 = CARTESIAN_POINT ( 'NONE',  ( 0.000000000000000000, 75.00000000000000000, 0.000000000000000000 ) ) ;
#201 = DIRECTION ( 'NONE',  ( 0.000000000000000000, -0.000000000000000000, 1.000000000000000000 ) ) ;
#202 = DATE_TIME_ROLE ( 'classification_date' ) ;
#203 = LOCAL_TIME ( 15, 19, 40.00000000000000000, #127 ) ;
#204 = APPLICATION_PROTOCOL_DEFINITION ( 'international standard', 'config_control_design', 1994, #34 ) ;
#205 = CIRCLE ( 'NONE', #161, 19.00000000000000000 ) ;
#206 = COORDINATED_UNIVERSAL_TIME_OFFSET ( 1, 0, .AHEAD. ) ;
#207 = EDGE_CURVE ( 'NONE', #74, #101, #65, .T. ) ;
#208 = CIRCLE ( 'NONE', #99, 19.00000000000000000 ) ;
#209 = PERSON_AND_ORGANIZATION ( #156, #232 ) ;
#210 = DIRECTION ( 'NONE',  ( 0.000000000000000000, 0.000000000000000000, 1.000000000000000000 ) ) ;
#211 = ORIENTED_EDGE ( 'NONE', *, *, #187, .F. ) ;
#212 = ORIENTED_EDGE ( 'NONE', *, *, #135, .T. ) ;
#213 = CC_DESIGN_DATE_AND_TIME_ASSIGNMENT ( #146, #92, ( #198 ) ) ;
#214 = DIRECTION ( 'NONE',  ( 0.000000000000000000, 1.000000000000000000, 0.000000000000000000 ) ) ;
#215 = DIRECTION ( 'NONE',  ( 0.000000000000000000, 1.000000000000000000, 0.000000000000000000 ) ) ;
#216 = AXIS2_PLACEMENT_3D ( 'NONE', #179, #139, #122 ) ;
#217 = CARTESIAN_POINT ( 'NONE',  ( 0.000000000000000000, 0.000000000000000000, 0.000000000000000000 ) ) ;
#218 = DIRECTION ( 'NONE',  ( 0.000000000000000000, 1.000000000000000000, 0.000000000000000000 ) ) ;
#219 = AXIS2_PLACEMENT_3D ( 'NONE', #24, #178, #25 ) ;
#220 = DIRECTION ( 'NONE',  ( 0.000000000000000000, 0.000000000000000000, 1.000000000000000000 ) ) ;
#221 = CC_DESIGN_PERSON_AND_ORGANIZATION_ASSIGNMENT ( #222, #51, ( #6 ) ) ;
#222 = PERSON_AND_ORGANIZATION ( #156, #232 ) ;
#223 = CALENDAR_DATE ( 2024, 4, 10 ) ;
#224 = CIRCLE ( 'NONE', #71, 16.19999999999999929 ) ;
#225 = DATE_AND_TIME ( #223, #203 ) ;
#226 = DIRECTION ( 'NONE',  ( -0.000000000000000000, -1.000000000000000000, -0.000000000000000000 ) ) ;
#227 = ORIENTED_EDGE ( 'NONE', *, *, #82, .T. ) ;
#228 = DIRECTION ( 'NONE',  ( 0.000000000000000000, 1.000000000000000000, 0.000000000000000000 ) ) ;
#229 = CARTESIAN_POINT ( 'NONE',  ( 0.000000000000000000, 75.00000000000000000, -16.19999999999999929 ) ) ;
#230 = ADVANCED_FACE ( 'NONE', ( #126, #157 ), #140, .T. ) ;
#231 = FACE_BOUND ( 'NONE', #191, .T. ) ;
#232 = ORGANIZATION ( 'UNSPECIFIED', 'UNSPECIFIED', '' ) ;
#233 = CARTESIAN_POINT ( 'NONE',  ( 1.983927814618711846E-15, 0.000000000000000000, 16.19999999999999929 ) ) ;
#234 = VECTOR ( 'NONE', #226, 1000.000000000000000 ) ;
#235 = DIRECTION ( 'NONE',  ( 0.000000000000000000, 0.000000000000000000, 1.000000000000000000 ) ) ;
#236 = CARTESIAN_POINT ( 'NONE',  ( 0.000000000000000000, 0.000000000000000000, -19.00000000000000000 ) ) ;
#237 = AXIS2_PLACEMENT_3D ( 'NONE', #196, #85, #235 ) ;
#238 = DIRECTION ( 'NONE',  ( -0.000000000000000000, -1.000000000000000000, -0.000000000000000000 ) ) ;
#239 = APPROVAL_DATE_TIME ( #167, #90 ) ;
#240 = CC_DESIGN_PERSON_AND_ORGANIZATION_ASSIGNMENT ( #130, #30, ( #9 ) ) ;
#241 = CALENDAR_DATE ( 2024, 4, 10 ) ;
#242 = ORIENTED_EDGE ( 'NONE', *, *, #18, .T. ) ;
#243 = ADVANCED_FACE ( 'NONE', ( #46, #231 ), #44, .F. ) ;
#244 = VERTEX_POINT ( 'NONE', #236 ) ;
#245 = AXIS2_PLACEMENT_3D ( 'NONE', #217, #160, #1 ) ;
#246 = VERTEX_POINT ( 'NONE', #66 ) ;
#247 = PRODUCT_RELATED_PRODUCT_CATEGORY ( 'detail', '', ( #9 ) ) ;
#248 = ORIENTED_EDGE ( 'NONE', *, *, #158, .F. ) ;
#249 = CARTESIAN_POINT ( 'NONE',  ( 0.000000000000000000, 75.00000000000000000, -19.00000000000000000 ) ) ;
ENDSEC;
END-ISO-10303-21;
