ISO-10303-21;
HEADER;
FILE_DESCRIPTION (( 'STEP AP203' ),
    '1' );
FILE_NAME ('3D_GR1442_33 x 4_188741155.STEP',
    '2024-10-22T15:31:28',
    ( '' ),
    ( '' ),
    'SwSTEP 2.0',
    'SolidWorks 2023',
    '' );
FILE_SCHEMA (( 'CONFIG_CONTROL_DESIGN' ));
ENDSEC;

DATA;
#1 = EDGE_LOOP ( 'NONE', ( #78, #52, #74, #233 ) ) ;
#2 =( NAMED_UNIT ( * ) SI_UNIT ( $, .STERADIAN. ) SOLID_ANGLE_UNIT ( ) );
#3 = CC_DESIGN_APPROVAL ( #13, ( #113 ) ) ;
#4 = CARTESIAN_POINT ( 'NONE',  ( 0.000000000000000000, 0.000000000000000000, 16.25000000000000000 ) ) ;
#5 = DIRECTION ( 'NONE',  ( 0.000000000000000000, 1.000000000000000000, 0.000000000000000000 ) ) ;
#6 = CARTESIAN_POINT ( 'NONE',  ( 0.000000000000000000, 0.2500000000000002220, 0.000000000000000000 ) ) ;
#7 = PRODUCT_DEFINITION_FORMATION_WITH_SPECIFIED_SOURCE ( 'ANY', '', #107, .NOT_KNOWN. ) ;
#8 =( NAMED_UNIT ( * ) PLANE_ANGLE_UNIT ( ) SI_UNIT ( $, .RADIAN. ) );
#9 = PERSON_AND_ORGANIZATION ( #239, #197 ) ;
#10 = PERSON_AND_ORGANIZATION ( #239, #197 ) ;
#11 = CIRCLE ( 'NONE', #134, 0.2500000000000002220 ) ;
#12 = CARTESIAN_POINT ( 'NONE',  ( 0.000000000000000000, 0.000000000000000000, 0.000000000000000000 ) ) ;
#13 = APPROVAL ( #116, 'UNSPECIFIED' ) ;
#14 = COORDINATED_UNIVERSAL_TIME_OFFSET ( 1, 0, .AHEAD. ) ;
#15 = ORIENTED_EDGE ( 'NONE', *, *, #45, .F. ) ;
#16 = AXIS2_PLACEMENT_3D ( 'NONE', #275, #36, #25 ) ;
#17 = LOCAL_TIME ( 17, 31, 28.00000000000000000, #28 ) ;
#18 = DIRECTION ( 'NONE',  ( 0.000000000000000000, 1.000000000000000000, 0.000000000000000000 ) ) ;
#19 = ORIENTED_EDGE ( 'NONE', *, *, #20, .F. ) ;
#20 = EDGE_CURVE ( 'NONE', #180, #138, #188, .T. ) ;
#21 = CARTESIAN_POINT ( 'NONE',  ( 0.000000000000000000, 4.000000000000000000, 0.000000000000000000 ) ) ;
#22 = APPROVAL_PERSON_ORGANIZATION ( #9, #13, #179 ) ;
#23 = CARTESIAN_POINT ( 'NONE',  ( 0.000000000000000000, 0.2500000000000002220, 0.000000000000000000 ) ) ;
#24 = EDGE_CURVE ( 'NONE', #191, #157, #58, .T. ) ;
#25 = DIRECTION ( 'NONE',  ( 0.000000000000000000, 0.000000000000000000, 1.000000000000000000 ) ) ;
#26 = CIRCLE ( 'NONE', #119, 16.25000000000000000 ) ;
#27 = AXIS2_PLACEMENT_3D ( 'NONE', #166, #120, #231 ) ;
#28 = COORDINATED_UNIVERSAL_TIME_OFFSET ( 1, 0, .AHEAD. ) ;
#29 = MANIFOLD_SOLID_BREP ( 'Verrundung1', #278 ) ;
#30 = PERSON_AND_ORGANIZATION ( #239, #197 ) ;
#31 = AXIS2_PLACEMENT_3D ( 'NONE', #41, #235, #236 ) ;
#32 = AXIS2_PLACEMENT_3D ( 'NONE', #75, #163, #54 ) ;
#33 = APPROVAL_ROLE ( '' ) ;
#34 = ORIENTED_EDGE ( 'NONE', *, *, #150, .F. ) ;
#35 = DIRECTION ( 'NONE',  ( 0.000000000000000000, 0.000000000000000000, 1.000000000000000000 ) ) ;
#36 = DIRECTION ( 'NONE',  ( 0.000000000000000000, 1.000000000000000000, 0.000000000000000000 ) ) ;
#37 = CARTESIAN_POINT ( 'NONE',  ( 0.000000000000000000, 0.2500000000000002220, 16.25000000000000000 ) ) ;
#38 = DIRECTION ( 'NONE',  ( 1.000000000000000000, -0.000000000000000000, 1.224646799147353207E-16 ) ) ;
#39 = CC_DESIGN_PERSON_AND_ORGANIZATION_ASSIGNMENT ( #10, #265, ( #107 ) ) ;
#40 = ORIENTED_EDGE ( 'NONE', *, *, #267, .T. ) ;
#41 = CARTESIAN_POINT ( 'NONE',  ( 0.000000000000000000, 0.000000000000000000, 0.000000000000000000 ) ) ;
#42 = CARTESIAN_POINT ( 'NONE',  ( 0.000000000000000000, 3.750000000000000000, 16.25000000000000000 ) ) ;
#43 = AXIS2_PLACEMENT_3D ( 'NONE', #279, #151, #110 ) ;
#44 = DIRECTION ( 'NONE',  ( -0.000000000000000000, -1.000000000000000000, -0.000000000000000000 ) ) ;
#45 = EDGE_CURVE ( 'NONE', #266, #240, #262, .T. ) ;
#46 = CARTESIAN_POINT ( 'NONE',  ( 2.005359133603791206E-15, 4.000000000000000000, -16.25000000000000000 ) ) ;
#47 = CARTESIAN_POINT ( 'NONE',  ( 0.000000000000000000, 3.750000000000000000, -16.50000000000000000 ) ) ;
#48 = CC_DESIGN_PERSON_AND_ORGANIZATION_ASSIGNMENT ( #30, #269, ( #7 ) ) ;
#49 = CC_DESIGN_APPROVAL ( #176, ( #7 ) ) ;
#50 = CIRCLE ( 'NONE', #141, 16.50000000000000000 ) ;
#51 = CALENDAR_DATE ( 2024, 22, 10 ) ;
#52 = ORIENTED_EDGE ( 'NONE', *, *, #178, .T. ) ;
#53 = AXIS2_PLACEMENT_3D ( 'NONE', #255, #44, #258 ) ;
#54 = DIRECTION ( 'NONE',  ( 0.000000000000000000, 0.000000000000000000, 1.000000000000000000 ) ) ;
#55 = CARTESIAN_POINT ( 'NONE',  ( 1.990051048614449313E-15, 3.750000000000000000, -16.25000000000000000 ) ) ;
#56 = ORIENTED_EDGE ( 'NONE', *, *, #178, .F. ) ;
#57 = ADVANCED_FACE ( 'NONE', ( #248 ), #129, .T. ) ;
#58 = LINE ( 'NONE', #215, #59 ) ;
#59 = VECTOR ( 'NONE', #212, 1000.000000000000000 ) ;
#60 = APPROVAL_PERSON_ORGANIZATION ( #227, #76, #33 ) ;
#61 = DIRECTION ( 'NONE',  ( 1.000000000000000000, -0.000000000000000000, 1.224646799147353207E-16 ) ) ;
#62 = CC_DESIGN_PERSON_AND_ORGANIZATION_ASSIGNMENT ( #182, #73, ( #187 ) ) ;
#63 = DIRECTION ( 'NONE',  ( -1.000000000000000000, 0.000000000000000000, 0.000000000000000000 ) ) ;
#64 = VECTOR ( 'NONE', #196, 1000.000000000000000 ) ;
#65 = CARTESIAN_POINT ( 'NONE',  ( 0.000000000000000000, 4.000000000000000000, 0.000000000000000000 ) ) ;
#66 = DIRECTION ( 'NONE',  ( 0.000000000000000000, 1.000000000000000000, 0.000000000000000000 ) ) ;
#67 = ADVANCED_FACE ( 'NONE', ( #147 ), #241, .T. ) ;
#68 = DIRECTION ( 'NONE',  ( 1.000000000000000000, 0.000000000000000000, 0.000000000000000000 ) ) ;
#69 = ORIENTED_EDGE ( 'NONE', *, *, #89, .T. ) ;
#70 = EDGE_LOOP ( 'NONE', ( #183, #40, #234, #245 ) ) ;
#71 = DATE_AND_TIME ( #264, #222 ) ;
#72 = ORIENTED_EDGE ( 'NONE', *, *, #126, .T. ) ;
#73 = PERSON_AND_ORGANIZATION_ROLE ( 'classification_officer' ) ;
#74 = ORIENTED_EDGE ( 'NONE', *, *, #142, .F. ) ;
#75 = CARTESIAN_POINT ( 'NONE',  ( 0.000000000000000000, 4.000000000000000000, 0.000000000000000000 ) ) ;
#76 = APPROVAL ( #184, 'UNSPECIFIED' ) ;
#77 = DIRECTION ( 'NONE',  ( 0.000000000000000000, 0.000000000000000000, 1.000000000000000000 ) ) ;
#78 = ORIENTED_EDGE ( 'NONE', *, *, #194, .F. ) ;
#79 = PRODUCT_DEFINITION_SHAPE ( 'NONE', 'NONE',  #113 ) ;
#80 = CARTESIAN_POINT ( 'NONE',  ( 0.000000000000000000, 0.000000000000000000, 0.000000000000000000 ) ) ;
#81 = ORIENTED_EDGE ( 'NONE', *, *, #194, .T. ) ;
#82 = CARTESIAN_POINT ( 'NONE',  ( 0.000000000000000000, 4.000000000000000000, 16.25000000000000000 ) ) ;
#83 = CC_DESIGN_SECURITY_CLASSIFICATION ( #187, ( #7 ) ) ;
#84 = DIRECTION ( 'NONE',  ( 0.000000000000000000, 1.000000000000000000, 0.000000000000000000 ) ) ;
#85 = DIRECTION ( 'NONE',  ( 0.000000000000000000, 0.000000000000000000, 1.000000000000000000 ) ) ;
#86 = DIRECTION ( 'NONE',  ( 0.000000000000000000, 0.000000000000000000, -1.000000000000000000 ) ) ;
#87 = APPROVAL_PERSON_ORGANIZATION ( #162, #176, #181 ) ;
#88 = AXIS2_PLACEMENT_3D ( 'NONE', #252, #18, #35 ) ;
#89 = EDGE_CURVE ( 'NONE', #100, #191, #230, .T. ) ;
#90 = CARTESIAN_POINT ( 'NONE',  ( 0.000000000000000000, 3.750000000000000000, 0.000000000000000000 ) ) ;
#91 = COORDINATED_UNIVERSAL_TIME_OFFSET ( 1, 0, .AHEAD. ) ;
#92 = ORIENTED_EDGE ( 'NONE', *, *, #150, .T. ) ;
#93 = MECHANICAL_CONTEXT ( 'NONE', #136, 'mechanical' ) ;
#94 = ADVANCED_FACE ( 'NONE', ( #251 ), #121, .T. ) ;
#95 = SECURITY_CLASSIFICATION_LEVEL ( 'unclassified' ) ;
#96 = ORIENTED_EDGE ( 'NONE', *, *, #20, .T. ) ;
#97 = CALENDAR_DATE ( 2024, 22, 10 ) ;
#98 = CC_DESIGN_PERSON_AND_ORGANIZATION_ASSIGNMENT ( #204, #243, ( #113 ) ) ;
#99 = DIRECTION ( 'NONE',  ( 0.000000000000000000, 0.000000000000000000, 1.000000000000000000 ) ) ;
#100 = VERTEX_POINT ( 'NONE', #253 ) ;
#101 = FACE_OUTER_BOUND ( 'NONE', #208, .T. ) ;
#102 = DATE_AND_TIME ( #122, #246 ) ;
#103 = CIRCLE ( 'NONE', #32, 16.25000000000000000 ) ;
#104 = DIRECTION ( 'NONE',  ( 0.000000000000000000, 0.000000000000000000, 1.000000000000000000 ) ) ;
#105 =( LENGTH_UNIT ( ) NAMED_UNIT ( * ) SI_UNIT ( .MILLI., .METRE. ) );
#106 = UNCERTAINTY_MEASURE_WITH_UNIT (LENGTH_MEASURE( 1.000000000000000082E-05 ), #105, 'distance_accuracy_value', 'NONE');
#107 = PRODUCT ( '3D_GR1442_33 x 4_188741155', '3D_GR1442_33 x 4_188741155', '', ( #93 ) ) ;
#108 = CARTESIAN_POINT ( 'NONE',  ( 0.000000000000000000, 0.2500000000000002220, 0.000000000000000000 ) ) ;
#109 = EDGE_CURVE ( 'NONE', #180, #185, #247, .T. ) ;
#110 = DIRECTION ( 'NONE',  ( 0.000000000000000000, 0.000000000000000000, -1.000000000000000000 ) ) ;
#111 = ADVANCED_BREP_SHAPE_REPRESENTATION ( '3D_GR1442_33 x 4_188741155', ( #29, #128 ), #250 ) ;
#112 = DATE_TIME_ROLE ( 'creation_date' ) ;
#113 = PRODUCT_DEFINITION ( 'UNKNOWN', '', #7, #198 ) ;
#114 = PERSON_AND_ORGANIZATION ( #239, #197 ) ;
#115 = EDGE_LOOP ( 'NONE', ( #96, #81 ) ) ;
#116 = APPROVAL_STATUS ( 'not_yet_approved' ) ;
#117 = COORDINATED_UNIVERSAL_TIME_OFFSET ( 1, 0, .AHEAD. ) ;
#118 = EDGE_CURVE ( 'NONE', #191, #266, #11, .T. ) ;
#119 = AXIS2_PLACEMENT_3D ( 'NONE', #218, #132, #220 ) ;
#120 = DIRECTION ( 'NONE',  ( -0.000000000000000000, -1.000000000000000000, -0.000000000000000000 ) ) ;
#121 = PLANE ( 'NONE',  #186 ) ;
#122 = CALENDAR_DATE ( 2024, 22, 10 ) ;
#123 = EDGE_LOOP ( 'NONE', ( #72, #168 ) ) ;
#124 = CARTESIAN_POINT ( 'NONE',  ( 2.005359133603791206E-15, 0.000000000000000000, -16.25000000000000000 ) ) ;
#125 = DIRECTION ( 'NONE',  ( -0.000000000000000000, -1.000000000000000000, -0.000000000000000000 ) ) ;
#126 = EDGE_CURVE ( 'NONE', #240, #266, #103, .T. ) ;
#127 = FACE_OUTER_BOUND ( 'NONE', #115, .T. ) ;
#128 = AXIS2_PLACEMENT_3D ( 'NONE', #12, #223, #68 ) ;
#129 = TOROIDAL_SURFACE ( 'NONE', #152, 16.25000000000000000, 0.2500000000000000000 ) ;
#130 = CARTESIAN_POINT ( 'NONE',  ( 2.020667218593133100E-15, 0.2500000000000002220, 16.50000000000000000 ) ) ;
#131 = DIRECTION ( 'NONE',  ( 1.224646799147349509E-16, 0.000000000000000000, -1.000000000000000000 ) ) ;
#132 = DIRECTION ( 'NONE',  ( -0.000000000000000000, -1.000000000000000000, -0.000000000000000000 ) ) ;
#133 = AXIS2_PLACEMENT_3D ( 'NONE', #42, #63, #217 ) ;
#134 = AXIS2_PLACEMENT_3D ( 'NONE', #55, #38, #189 ) ;
#135 = EDGE_LOOP ( 'NONE', ( #56, #19, #249, #34 ) ) ;
#136 = APPLICATION_CONTEXT ( 'configuration controlled 3d designs of mechanical parts and assemblies' ) ;
#137 = ORIENTED_EDGE ( 'NONE', *, *, #89, .F. ) ;
#138 = VERTEX_POINT ( 'NONE', #124 ) ;
#139 = CIRCLE ( 'NONE', #53, 16.50000000000000000 ) ;
#140 = DATE_TIME_ROLE ( 'classification_date' ) ;
#141 = AXIS2_PLACEMENT_3D ( 'NONE', #211, #190, #77 ) ;
#142 = EDGE_CURVE ( 'NONE', #185, #157, #50, .T. ) ;
#143 = ORIENTED_EDGE ( 'NONE', *, *, #267, .F. ) ;
#144 = DIRECTION ( 'NONE',  ( 0.000000000000000000, 1.000000000000000000, 0.000000000000000000 ) ) ;
#145 = ADVANCED_FACE ( 'NONE', ( #101 ), #193, .T. ) ;
#146 = DIRECTION ( 'NONE',  ( 0.000000000000000000, 1.000000000000000000, 0.000000000000000000 ) ) ;
#147 = FACE_OUTER_BOUND ( 'NONE', #214, .T. ) ;
#148 = ORIENTED_EDGE ( 'NONE', *, *, #242, .T. ) ;
#149 = TOROIDAL_SURFACE ( 'NONE', #210, 16.25000000000000000, 0.2500000000000000000 ) ;
#150 = EDGE_CURVE ( 'NONE', #157, #185, #272, .T. ) ;
#151 = DIRECTION ( 'NONE',  ( -0.000000000000000000, -1.000000000000000000, -0.000000000000000000 ) ) ;
#152 = AXIS2_PLACEMENT_3D ( 'NONE', #23, #144, #104 ) ;
#153 = DIRECTION ( 'NONE',  ( -0.000000000000000000, -1.000000000000000000, -0.000000000000000000 ) ) ;
#154 = CYLINDRICAL_SURFACE ( 'NONE', #216, 16.50000000000000000 ) ;
#155 = APPLICATION_PROTOCOL_DEFINITION ( 'international standard', 'config_control_design', 1994, #175 ) ;
#156 = LOCAL_TIME ( 17, 31, 28.00000000000000000, #14 ) ;
#157 = VERTEX_POINT ( 'NONE', #219 ) ;
#158 = APPROVAL_DATE_TIME ( #71, #176 ) ;
#159 = ORIENTED_EDGE ( 'NONE', *, *, #242, .F. ) ;
#160 = CALENDAR_DATE ( 2024, 22, 10 ) ;
#161 = CC_DESIGN_DATE_AND_TIME_ASSIGNMENT ( #244, #140, ( #187 ) ) ;
#162 = PERSON_AND_ORGANIZATION ( #239, #197 ) ;
#163 = DIRECTION ( 'NONE',  ( 0.000000000000000000, 1.000000000000000000, 0.000000000000000000 ) ) ;
#164 = EDGE_LOOP ( 'NONE', ( #229, #137, #148, #15 ) ) ;
#165 = ADVANCED_FACE ( 'NONE', ( #201 ), #154, .T. ) ;
#166 = CARTESIAN_POINT ( 'NONE',  ( 0.000000000000000000, 3.750000000000000000, 0.000000000000000000 ) ) ;
#167 = APPROVAL_DATE_TIME ( #102, #76 ) ;
#168 = ORIENTED_EDGE ( 'NONE', *, *, #45, .T. ) ;
#169 = DIRECTION ( 'NONE',  ( 0.000000000000000000, 0.000000000000000000, 1.000000000000000000 ) ) ;
#170 = CIRCLE ( 'NONE', #133, 0.2500000000000002220 ) ;
#171 = PLANE ( 'NONE',  #31 ) ;
#172 = CC_DESIGN_APPROVAL ( #76, ( #187 ) ) ;
#173 = DIRECTION ( 'NONE',  ( 0.000000000000000000, 0.000000000000000000, 1.000000000000000000 ) ) ;
#174 = LINE ( 'NONE', #259, #64 ) ;
#175 = APPLICATION_CONTEXT ( 'configuration controlled 3d designs of mechanical parts and assemblies' ) ;
#176 = APPROVAL ( #206, 'UNSPECIFIED' ) ;
#177 = LOCAL_TIME ( 17, 31, 28.00000000000000000, #91 ) ;
#178 = EDGE_CURVE ( 'NONE', #138, #157, #273, .T. ) ;
#179 = APPROVAL_ROLE ( '' ) ;
#180 = VERTEX_POINT ( 'NONE', #4 ) ;
#181 = APPROVAL_ROLE ( '' ) ;
#182 = PERSON_AND_ORGANIZATION ( #239, #197 ) ;
#183 = ORIENTED_EDGE ( 'NONE', *, *, #226, .T. ) ;
#184 = APPROVAL_STATUS ( 'not_yet_approved' ) ;
#185 = VERTEX_POINT ( 'NONE', #130 ) ;
#186 = AXIS2_PLACEMENT_3D ( 'NONE', #21, #146, #232 ) ;
#187 = SECURITY_CLASSIFICATION ( '', '', #95 ) ;
#188 = CIRCLE ( 'NONE', #221, 16.25000000000000000 ) ;
#189 = DIRECTION ( 'NONE',  ( 1.224646799147349509E-16, 0.000000000000000000, -1.000000000000000000 ) ) ;
#190 = DIRECTION ( 'NONE',  ( 0.000000000000000000, 1.000000000000000000, 0.000000000000000000 ) ) ;
#191 = VERTEX_POINT ( 'NONE', #47 ) ;
#192 = AXIS2_PLACEMENT_3D ( 'NONE', #90, #84, #173 ) ;
#193 = CYLINDRICAL_SURFACE ( 'NONE', #43, 16.50000000000000000 ) ;
#194 = EDGE_CURVE ( 'NONE', #138, #180, #26, .T. ) ;
#195 = ORIENTED_EDGE ( 'NONE', *, *, #226, .F. ) ;
#196 = DIRECTION ( 'NONE',  ( -0.000000000000000000, -1.000000000000000000, -0.000000000000000000 ) ) ;
#197 = ORGANIZATION ( 'UNSPECIFIED', 'UNSPECIFIED', '' ) ;
#198 = DESIGN_CONTEXT ( 'detailed design', #175, 'design' ) ;
#199 = FACE_OUTER_BOUND ( 'NONE', #1, .T. ) ;
#200 = ADVANCED_FACE ( 'NONE', ( #261 ), #276, .T. ) ;
#201 = FACE_OUTER_BOUND ( 'NONE', #70, .T. ) ;
#202 = DIRECTION ( 'NONE',  ( 0.000000000000000000, 0.000000000000000000, 1.000000000000000000 ) ) ;
#203 = ADVANCED_FACE ( 'NONE', ( #127 ), #171, .F. ) ;
#204 = PERSON_AND_ORGANIZATION ( #239, #197 ) ;
#205 = ORIENTED_EDGE ( 'NONE', *, *, #118, .T. ) ;
#206 = APPROVAL_STATUS ( 'not_yet_approved' ) ;
#207 = PERSON_AND_ORGANIZATION_ROLE ( 'design_supplier' ) ;
#208 = EDGE_LOOP ( 'NONE', ( #143, #69, #270, #92 ) ) ;
#209 = APPROVAL_DATE_TIME ( #224, #13 ) ;
#210 = AXIS2_PLACEMENT_3D ( 'NONE', #108, #5, #85 ) ;
#211 = CARTESIAN_POINT ( 'NONE',  ( 0.000000000000000000, 0.2500000000000002220, 0.000000000000000000 ) ) ;
#212 = DIRECTION ( 'NONE',  ( -0.000000000000000000, -1.000000000000000000, -0.000000000000000000 ) ) ;
#213 = DIRECTION ( 'NONE',  ( -1.000000000000000000, 0.000000000000000000, 0.000000000000000000 ) ) ;
#214 = EDGE_LOOP ( 'NONE', ( #195, #205, #274, #159 ) ) ;
#215 = CARTESIAN_POINT ( 'NONE',  ( 0.000000000000000000, 4.000000000000000000, -16.50000000000000000 ) ) ;
#216 = AXIS2_PLACEMENT_3D ( 'NONE', #65, #153, #86 ) ;
#217 = DIRECTION ( 'NONE',  ( 0.000000000000000000, 0.000000000000000000, 1.000000000000000000 ) ) ;
#218 = CARTESIAN_POINT ( 'NONE',  ( 0.000000000000000000, 0.000000000000000000, 0.000000000000000000 ) ) ;
#219 = CARTESIAN_POINT ( 'NONE',  ( 0.000000000000000000, 0.2500000000000002220, -16.50000000000000000 ) ) ;
#220 = DIRECTION ( 'NONE',  ( 0.000000000000000000, 0.000000000000000000, 1.000000000000000000 ) ) ;
#221 = AXIS2_PLACEMENT_3D ( 'NONE', #80, #125, #169 ) ;
#222 = LOCAL_TIME ( 17, 31, 28.00000000000000000, #268 ) ;
#223 = DIRECTION ( 'NONE',  ( 0.000000000000000000, 0.000000000000000000, 1.000000000000000000 ) ) ;
#224 = DATE_AND_TIME ( #51, #17 ) ;
#225 = DATE_AND_TIME ( #160, #177 ) ;
#226 = EDGE_CURVE ( 'NONE', #191, #100, #139, .T. ) ;
#227 = PERSON_AND_ORGANIZATION ( #239, #197 ) ;
#228 = SHAPE_DEFINITION_REPRESENTATION ( #79, #111 ) ;
#229 = ORIENTED_EDGE ( 'NONE', *, *, #118, .F. ) ;
#230 = CIRCLE ( 'NONE', #27, 16.50000000000000000 ) ;
#231 = DIRECTION ( 'NONE',  ( 0.000000000000000000, 0.000000000000000000, 1.000000000000000000 ) ) ;
#232 = DIRECTION ( 'NONE',  ( 0.000000000000000000, -0.000000000000000000, 1.000000000000000000 ) ) ;
#233 = ORIENTED_EDGE ( 'NONE', *, *, #109, .F. ) ;
#234 = ORIENTED_EDGE ( 'NONE', *, *, #142, .T. ) ;
#235 = DIRECTION ( 'NONE',  ( 0.000000000000000000, 1.000000000000000000, 0.000000000000000000 ) ) ;
#236 = DIRECTION ( 'NONE',  ( 0.000000000000000000, -0.000000000000000000, 1.000000000000000000 ) ) ;
#237 = CC_DESIGN_PERSON_AND_ORGANIZATION_ASSIGNMENT ( #114, #207, ( #7 ) ) ;
#238 = CARTESIAN_POINT ( 'NONE',  ( 1.990051048614449313E-15, 0.2500000000000002220, -16.25000000000000000 ) ) ;
#239 = PERSON ( 'UNSPECIFIED', 'UNSPECIFIED', 'UNSPECIFIED', ('UNSPECIFIED'), ('UNSPECIFIED'), ('UNSPECIFIED') ) ;
#240 = VERTEX_POINT ( 'NONE', #82 ) ;
#241 = TOROIDAL_SURFACE ( 'NONE', #88, 16.25000000000000000, 0.2500000000000000000 ) ;
#242 = EDGE_CURVE ( 'NONE', #100, #240, #170, .T. ) ;
#243 = PERSON_AND_ORGANIZATION_ROLE ( 'creator' ) ;
#244 = DATE_AND_TIME ( #97, #156 ) ;
#245 = ORIENTED_EDGE ( 'NONE', *, *, #24, .F. ) ;
#246 = LOCAL_TIME ( 17, 31, 28.00000000000000000, #117 ) ;
#247 = CIRCLE ( 'NONE', #256, 0.2500000000000002220 ) ;
#248 = FACE_OUTER_BOUND ( 'NONE', #135, .T. ) ;
#249 = ORIENTED_EDGE ( 'NONE', *, *, #109, .T. ) ;
#250 =( GEOMETRIC_REPRESENTATION_CONTEXT ( 3 ) GLOBAL_UNCERTAINTY_ASSIGNED_CONTEXT ( ( #106 ) ) GLOBAL_UNIT_ASSIGNED_CONTEXT ( ( #105, #8, #2 ) ) REPRESENTATION_CONTEXT ( 'NONE', 'WORKASPACE' ) );
#251 = FACE_OUTER_BOUND ( 'NONE', #123, .T. ) ;
#252 = CARTESIAN_POINT ( 'NONE',  ( 0.000000000000000000, 3.750000000000000000, 0.000000000000000000 ) ) ;
#253 = CARTESIAN_POINT ( 'NONE',  ( 2.020667218593133100E-15, 3.750000000000000000, 16.50000000000000000 ) ) ;
#254 = AXIS2_PLACEMENT_3D ( 'NONE', #6, #66, #202 ) ;
#255 = CARTESIAN_POINT ( 'NONE',  ( 0.000000000000000000, 3.750000000000000000, 0.000000000000000000 ) ) ;
#256 = AXIS2_PLACEMENT_3D ( 'NONE', #37, #213, #99 ) ;
#257 = ADVANCED_FACE ( 'NONE', ( #199 ), #149, .T. ) ;
#258 = DIRECTION ( 'NONE',  ( 0.000000000000000000, 0.000000000000000000, 1.000000000000000000 ) ) ;
#259 = CARTESIAN_POINT ( 'NONE',  ( 2.020667218593133100E-15, 4.000000000000000000, 16.50000000000000000 ) ) ;
#260 = AXIS2_PLACEMENT_3D ( 'NONE', #238, #61, #131 ) ;
#261 = FACE_OUTER_BOUND ( 'NONE', #164, .T. ) ;
#262 = CIRCLE ( 'NONE', #16, 16.25000000000000000 ) ;
#263 = APPLICATION_PROTOCOL_DEFINITION ( 'international standard', 'config_control_design', 1994, #136 ) ;
#264 = CALENDAR_DATE ( 2024, 22, 10 ) ;
#265 = PERSON_AND_ORGANIZATION_ROLE ( 'design_owner' ) ;
#266 = VERTEX_POINT ( 'NONE', #46 ) ;
#267 = EDGE_CURVE ( 'NONE', #100, #185, #174, .T. ) ;
#268 = COORDINATED_UNIVERSAL_TIME_OFFSET ( 1, 0, .AHEAD. ) ;
#269 = PERSON_AND_ORGANIZATION_ROLE ( 'creator' ) ;
#270 = ORIENTED_EDGE ( 'NONE', *, *, #24, .T. ) ;
#271 = PRODUCT_RELATED_PRODUCT_CATEGORY ( 'detail', '', ( #107 ) ) ;
#272 = CIRCLE ( 'NONE', #254, 16.50000000000000000 ) ;
#273 = CIRCLE ( 'NONE', #260, 0.2500000000000002220 ) ;
#274 = ORIENTED_EDGE ( 'NONE', *, *, #126, .F. ) ;
#275 = CARTESIAN_POINT ( 'NONE',  ( 0.000000000000000000, 4.000000000000000000, 0.000000000000000000 ) ) ;
#276 = TOROIDAL_SURFACE ( 'NONE', #192, 16.25000000000000000, 0.2500000000000000000 ) ;
#277 = CC_DESIGN_DATE_AND_TIME_ASSIGNMENT ( #225, #112, ( #113 ) ) ;
#278 = CLOSED_SHELL ( 'NONE', ( #67, #257, #165, #145, #94, #203, #57, #200 ) ) ;
#279 = CARTESIAN_POINT ( 'NONE',  ( 0.000000000000000000, 4.000000000000000000, 0.000000000000000000 ) ) ;
ENDSEC;
END-ISO-10303-21;
