ISO-10303-21;
HEADER;
FILE_DESCRIPTION (( 'STEP AP203' ),
    '1' );
FILE_NAME ('3D_R169-K_42-33_17325270.STEP',
    '2024-07-11T10:21:14',
    ( '' ),
    ( '' ),
    'SwSTEP 2.0',
    'SolidWorks 2024',
    '' );
FILE_SCHEMA (( 'CONFIG_CONTROL_DESIGN' ));
ENDSEC;

DATA;
#1 = CARTESIAN_POINT ( 'NONE',  ( 16.00000000000000000, 1.031764928281645122E-15, 16.85000000000000142 ) ) ;
#2 = PERSON_AND_ORGANIZATION ( #202, #241 ) ;
#3 = APPROVAL_ROLE ( '' ) ;
#4 = COORDINATED_UNIVERSAL_TIME_OFFSET ( 1, 0, .AHEAD. ) ;
#5 = ORIENTED_EDGE ( 'NONE', *, *, #59, .T. ) ;
#6 = EDGE_CURVE ( 'NONE', #238, #47, #144, .T. ) ;
#7 = AXIS2_PLACEMENT_3D ( 'NONE', #249, #162, #146 ) ;
#8 = ORIENTED_EDGE ( 'NONE', *, *, #230, .F. ) ;
#9 = COORDINATED_UNIVERSAL_TIME_OFFSET ( 1, 0, .AHEAD. ) ;
#10 = DIRECTION ( 'NONE',  ( 0.000000000000000000, 0.000000000000000000, -1.000000000000000000 ) ) ;
#11 = FACE_OUTER_BOUND ( 'NONE', #27, .T. ) ;
#12 = CARTESIAN_POINT ( 'NONE',  ( 16.00000000000000000, 0.000000000000000000, 0.000000000000000000 ) ) ;
#13 = PRODUCT_DEFINITION ( 'UNKNOWN', '', #247, #25 ) ;
#14 = DIRECTION ( 'NONE',  ( -0.9649722855976516911, 3.212883412862720644E-17, -0.2623518401468615258 ) ) ;
#15 =( GEOMETRIC_REPRESENTATION_CONTEXT ( 3 ) GLOBAL_UNCERTAINTY_ASSIGNED_CONTEXT ( ( #171 ) ) GLOBAL_UNIT_ASSIGNED_CONTEXT ( ( #58, #75, #74 ) ) REPRESENTATION_CONTEXT ( 'NONE', 'WORKASPACE' ) );
#16 = VERTEX_POINT ( 'NONE', #111 ) ;
#17 = DIRECTION ( 'NONE',  ( 0.000000000000000000, 0.000000000000000000, -1.000000000000000000 ) ) ;
#18 = CIRCLE ( 'NONE', #237, 14.77740161572483935 ) ;
#19 = LOCAL_TIME ( 12, 21, 14.00000000000000000, #82 ) ;
#20 = APPLICATION_PROTOCOL_DEFINITION ( 'international standard', 'config_control_design', 1994, #85 ) ;
#21 = CALENDAR_DATE ( 2024, 11, 7 ) ;
#22 = DATE_TIME_ROLE ( 'creation_date' ) ;
#23 = CONICAL_SURFACE ( 'NONE', #137, 16.85000000000000142, 0.2654586084287746117 ) ;
#24 = VERTEX_POINT ( 'NONE', #226 ) ;
#25 = DESIGN_CONTEXT ( 'detailed design', #85, 'design' ) ;
#26 = ADVANCED_FACE ( 'NONE', ( #149, #67 ), #33, .T. ) ;
#27 = EDGE_LOOP ( 'NONE', ( #177, #108, #45, #53 ) ) ;
#28 = AXIS2_PLACEMENT_3D ( 'NONE', #32, #184, #109 ) ;
#29 = EDGE_LOOP ( 'NONE', ( #133, #127, #160, #5 ) ) ;
#30 = CARTESIAN_POINT ( 'NONE',  ( 16.00000000000000000, 0.000000000000000000, 0.000000000000000000 ) ) ;
#31 = CIRCLE ( 'NONE', #168, 21.19999999999999929 ) ;
#32 = CARTESIAN_POINT ( 'NONE',  ( 0.000000000000000000, 0.000000000000000000, 0.000000000000000000 ) ) ;
#33 = PLANE ( 'NONE',  #7 ) ;
#34 = EDGE_CURVE ( 'NONE', #198, #238, #236, .T. ) ;
#35 = ORIENTED_EDGE ( 'NONE', *, *, #248, .F. ) ;
#36 = CARTESIAN_POINT ( 'NONE',  ( 16.00000000000000000, 0.000000000000000000, 0.000000000000000000 ) ) ;
#37 = DIRECTION ( 'NONE',  ( -1.000000000000000000, -0.000000000000000000, -0.000000000000000000 ) ) ;
#38 = DIRECTION ( 'NONE',  ( 0.000000000000000000, 0.000000000000000000, 1.000000000000000000 ) ) ;
#39 = DIRECTION ( 'NONE',  ( 0.000000000000000000, 0.000000000000000000, -1.000000000000000000 ) ) ;
#40 = AXIS2_PLACEMENT_3D ( 'NONE', #12, #244, #50 ) ;
#41 = DIRECTION ( 'NONE',  ( 1.000000000000000000, 0.000000000000000000, 0.000000000000000000 ) ) ;
#42 = PERSON_AND_ORGANIZATION_ROLE ( 'creator' ) ;
#43 = APPROVAL ( #121, 'UNSPECIFIED' ) ;
#44 = DATE_TIME_ROLE ( 'classification_date' ) ;
#45 = ORIENTED_EDGE ( 'NONE', *, *, #155, .T. ) ;
#46 = CALENDAR_DATE ( 2024, 11, 7 ) ;
#47 = VERTEX_POINT ( 'NONE', #113 ) ;
#48 = MANIFOLD_SOLID_BREP ( 'Wandung2', #195 ) ;
#49 = CARTESIAN_POINT ( 'NONE',  ( 1.734723475976807094E-15, 2.342431116470334056E-15, -19.12740161572484254 ) ) ;
#50 = DIRECTION ( 'NONE',  ( 0.000000000000000000, 0.000000000000000000, -1.000000000000000000 ) ) ;
#51 = CONICAL_SURFACE ( 'NONE', #167, 14.92005542880469804, 0.2654586084287746117 ) ;
#52 = EDGE_CURVE ( 'NONE', #238, #198, #191, .T. ) ;
#53 = ORIENTED_EDGE ( 'NONE', *, *, #112, .F. ) ;
#54 = ORIENTED_EDGE ( 'NONE', *, *, #112, .T. ) ;
#55 = ORIENTED_EDGE ( 'NONE', *, *, #6, .T. ) ;
#56 = CARTESIAN_POINT ( 'NONE',  ( 0.000000000000000000, 0.000000000000000000, 0.000000000000000000 ) ) ;
#57 = CARTESIAN_POINT ( 'NONE',  ( 16.00000000000000000, 0.000000000000000000, 16.85000000000000142 ) ) ;
#58 =( LENGTH_UNIT ( ) NAMED_UNIT ( * ) SI_UNIT ( .MILLI., .METRE. ) );
#59 = EDGE_CURVE ( 'NONE', #24, #47, #129, .T. ) ;
#60 = AXIS2_PLACEMENT_3D ( 'NONE', #93, #77, #114 ) ;
#61 = CC_DESIGN_APPROVAL ( #163, ( #247 ) ) ;
#62 = APPROVAL_STATUS ( 'not_yet_approved' ) ;
#63 = DATE_AND_TIME ( #140, #229 ) ;
#64 = PERSON_AND_ORGANIZATION_ROLE ( 'design_supplier' ) ;
#65 = DATE_AND_TIME ( #101, #94 ) ;
#66 = ORIENTED_EDGE ( 'NONE', *, *, #248, .T. ) ;
#67 = FACE_OUTER_BOUND ( 'NONE', #222, .T. ) ;
#68 = DIRECTION ( 'NONE',  ( -1.000000000000000000, -0.000000000000000000, -0.000000000000000000 ) ) ;
#69 = EDGE_CURVE ( 'NONE', #182, #103, #164, .T. ) ;
#70 = DIRECTION ( 'NONE',  ( 1.000000000000000000, 0.000000000000000000, 0.000000000000000000 ) ) ;
#71 = CONICAL_SURFACE ( 'NONE', #197, 16.85000000000000142, 0.2654586084287746117 ) ;
#72 = EDGE_LOOP ( 'NONE', ( #132, #55, #181, #125 ) ) ;
#73 = DIRECTION ( 'NONE',  ( -0.9649722855976516911, 3.212883412862720644E-17, -0.2623518401468615258 ) ) ;
#74 =( NAMED_UNIT ( * ) SI_UNIT ( $, .STERADIAN. ) SOLID_ANGLE_UNIT ( ) );
#75 =( NAMED_UNIT ( * ) PLANE_ANGLE_UNIT ( ) SI_UNIT ( $, .RADIAN. ) );
#76 = ADVANCED_FACE ( 'NONE', ( #242 ), #240, .F. ) ;
#77 = DIRECTION ( 'NONE',  ( 1.000000000000000000, 0.000000000000000000, 0.000000000000000000 ) ) ;
#78 = PERSON_AND_ORGANIZATION_ROLE ( 'creator' ) ;
#79 = AXIS2_PLACEMENT_3D ( 'NONE', #209, #110, #206 ) ;
#80 = APPROVAL_ROLE ( '' ) ;
#81 = EDGE_LOOP ( 'NONE', ( #35, #208 ) ) ;
#82 = COORDINATED_UNIVERSAL_TIME_OFFSET ( 1, 0, .AHEAD. ) ;
#83 = AXIS2_PLACEMENT_3D ( 'NONE', #234, #139, #39 ) ;
#84 = EDGE_LOOP ( 'NONE', ( #66, #187, #205, #102 ) ) ;
#85 = APPLICATION_CONTEXT ( 'configuration controlled 3d designs of mechanical parts and assemblies' ) ;
#86 = APPROVAL_DATE_TIME ( #63, #163 ) ;
#87 = CARTESIAN_POINT ( 'NONE',  ( 0.000000000000000000, 0.000000000000000000, 0.000000000000000000 ) ) ;
#88 = CC_DESIGN_PERSON_AND_ORGANIZATION_ASSIGNMENT ( #98, #42, ( #247 ) ) ;
#89 = CARTESIAN_POINT ( 'NONE',  ( 15.47529631970627584, 0.000000000000000000, 0.000000000000000000 ) ) ;
#90 = DIRECTION ( 'NONE',  ( 1.000000000000000000, 0.000000000000000000, 0.000000000000000000 ) ) ;
#91 = CARTESIAN_POINT ( 'NONE',  ( 15.47529631970627584, 1.827179812398676611E-15, -14.92005542880469804 ) ) ;
#92 = FACE_OUTER_BOUND ( 'NONE', #72, .T. ) ;
#93 = CARTESIAN_POINT ( 'NONE',  ( 16.00000000000000000, 0.000000000000000000, 0.000000000000000000 ) ) ;
#94 = LOCAL_TIME ( 12, 21, 14.00000000000000000, #4 ) ;
#95 = EDGE_CURVE ( 'NONE', #148, #103, #246, .T. ) ;
#96 = CARTESIAN_POINT ( 'NONE',  ( 1.734723475976807094E-15, 0.000000000000000000, 19.12740161572484254 ) ) ;
#97 = DATE_AND_TIME ( #21, #172 ) ;
#98 = PERSON_AND_ORGANIZATION ( #202, #241 ) ;
#99 = APPROVAL_PERSON_ORGANIZATION ( #118, #219, #151 ) ;
#100 = PERSON_AND_ORGANIZATION ( #202, #241 ) ;
#101 = CALENDAR_DATE ( 2024, 11, 7 ) ;
#102 = ORIENTED_EDGE ( 'NONE', *, *, #155, .F. ) ;
#103 = VERTEX_POINT ( 'NONE', #49 ) ;
#104 = ADVANCED_FACE ( 'NONE', ( #204 ), #23, .T. ) ;
#105 = PRODUCT ( '3D_R169-K_42-33_17325270', '3D_R169-K_42-33_17325270', '', ( #212 ) ) ;
#106 = EDGE_LOOP ( 'NONE', ( #203, #8 ) ) ;
#107 = CC_DESIGN_PERSON_AND_ORGANIZATION_ASSIGNMENT ( #2, #78, ( #13 ) ) ;
#108 = ORIENTED_EDGE ( 'NONE', *, *, #213, .T. ) ;
#109 = DIRECTION ( 'NONE',  ( 0.000000000000000000, 0.000000000000000000, -1.000000000000000000 ) ) ;
#110 = DIRECTION ( 'NONE',  ( 1.000000000000000000, 0.000000000000000000, 0.000000000000000000 ) ) ;
#111 = CARTESIAN_POINT ( 'NONE',  ( 16.00000000000000000, 0.000000000000000000, 14.77740161572483935 ) ) ;
#112 = EDGE_CURVE ( 'NONE', #103, #148, #228, .T. ) ;
#113 = CARTESIAN_POINT ( 'NONE',  ( 0.000000000000000000, 3.894376821288582760E-15, -21.19999999999999929 ) ) ;
#114 = DIRECTION ( 'NONE',  ( 0.000000000000000000, 0.000000000000000000, -1.000000000000000000 ) ) ;
#115 = FACE_BOUND ( 'NONE', #131, .T. ) ;
#116 = CIRCLE ( 'NONE', #60, 14.77740161572483935 ) ;
#117 = LINE ( 'NONE', #57, #224 ) ;
#118 = PERSON_AND_ORGANIZATION ( #202, #241 ) ;
#119 = CC_DESIGN_DATE_AND_TIME_ASSIGNMENT ( #65, #22, ( #13 ) ) ;
#120 = CARTESIAN_POINT ( 'NONE',  ( 16.00000000000000000, 1.031764928281645122E-15, -16.85000000000000142 ) ) ;
#121 = APPROVAL_STATUS ( 'not_yet_approved' ) ;
#122 = DATE_AND_TIME ( #216, #19 ) ;
#123 = VECTOR ( 'NONE', #73, 999.9999999999998863 ) ;
#124 = DATE_AND_TIME ( #46, #161 ) ;
#125 = ORIENTED_EDGE ( 'NONE', *, *, #183, .F. ) ;
#126 = PRODUCT_RELATED_PRODUCT_CATEGORY ( 'detail', '', ( #105 ) ) ;
#127 = ORIENTED_EDGE ( 'NONE', *, *, #34, .F. ) ;
#128 = DIRECTION ( 'NONE',  ( -1.000000000000000000, -0.000000000000000000, -0.000000000000000000 ) ) ;
#129 = CIRCLE ( 'NONE', #79, 21.19999999999999929 ) ;
#130 = APPROVAL_PERSON_ORGANIZATION ( #100, #163, #3 ) ;
#131 = EDGE_LOOP ( 'NONE', ( #157, #54 ) ) ;
#132 = ORIENTED_EDGE ( 'NONE', *, *, #52, .F. ) ;
#133 = ORIENTED_EDGE ( 'NONE', *, *, #6, .F. ) ;
#134 = PERSON_AND_ORGANIZATION ( #202, #241 ) ;
#135 = PERSON_AND_ORGANIZATION_ROLE ( 'design_owner' ) ;
#136 = FACE_OUTER_BOUND ( 'NONE', #106, .T. ) ;
#137 = AXIS2_PLACEMENT_3D ( 'NONE', #30, #128, #223 ) ;
#138 = AXIS2_PLACEMENT_3D ( 'NONE', #211, #189, #41 ) ;
#139 = DIRECTION ( 'NONE',  ( 1.000000000000000000, 0.000000000000000000, 0.000000000000000000 ) ) ;
#140 = CALENDAR_DATE ( 2024, 11, 7 ) ;
#141 = PERSON_AND_ORGANIZATION ( #202, #241 ) ;
#142 = ADVANCED_FACE ( 'NONE', ( #11 ), #51, .F. ) ;
#143 = APPROVAL_DATE_TIME ( #124, #43 ) ;
#144 = LINE ( 'NONE', #145, #178 ) ;
#145 = CARTESIAN_POINT ( 'NONE',  ( 16.00000000000000000, 2.063529856563290244E-15, -16.85000000000000142 ) ) ;
#146 = DIRECTION ( 'NONE',  ( 0.000000000000000000, 0.000000000000000000, -1.000000000000000000 ) ) ;
#147 = CC_DESIGN_PERSON_AND_ORGANIZATION_ASSIGNMENT ( #134, #135, ( #105 ) ) ;
#148 = VERTEX_POINT ( 'NONE', #96 ) ;
#149 = FACE_BOUND ( 'NONE', #81, .T. ) ;
#150 = DIRECTION ( 'NONE',  ( -0.9649722855976516911, 0.000000000000000000, 0.2623518401468615258 ) ) ;
#151 = APPROVAL_ROLE ( '' ) ;
#152 = DIRECTION ( 'NONE',  ( 1.000000000000000000, 0.000000000000000000, 0.000000000000000000 ) ) ;
#153 = CARTESIAN_POINT ( 'NONE',  ( 16.00000000000000000, 2.076070437655784399E-15, -14.77740161572483935 ) ) ;
#154 = SECURITY_CLASSIFICATION ( '', '', #235 ) ;
#155 = EDGE_CURVE ( 'NONE', #16, #148, #188, .T. ) ;
#156 = AXIS2_PLACEMENT_3D ( 'NONE', #227, #68, #221 ) ;
#157 = ORIENTED_EDGE ( 'NONE', *, *, #95, .T. ) ;
#158 = CC_DESIGN_APPROVAL ( #43, ( #154 ) ) ;
#159 = PERSON_AND_ORGANIZATION_ROLE ( 'classification_officer' ) ;
#160 = ORIENTED_EDGE ( 'NONE', *, *, #183, .T. ) ;
#161 = LOCAL_TIME ( 12, 21, 14.00000000000000000, #196 ) ;
#162 = DIRECTION ( 'NONE',  ( 1.000000000000000000, 0.000000000000000000, 0.000000000000000000 ) ) ;
#163 = APPROVAL ( #62, 'UNSPECIFIED' ) ;
#164 = LINE ( 'NONE', #91, #123 ) ;
#165 = ADVANCED_FACE ( 'NONE', ( #115, #136 ), #231, .F. ) ;
#166 = DIRECTION ( 'NONE',  ( -1.000000000000000000, -0.000000000000000000, -0.000000000000000000 ) ) ;
#167 = AXIS2_PLACEMENT_3D ( 'NONE', #89, #166, #245 ) ;
#168 = AXIS2_PLACEMENT_3D ( 'NONE', #56, #194, #17 ) ;
#169 = ORIENTED_EDGE ( 'NONE', *, *, #52, .T. ) ;
#170 = CARTESIAN_POINT ( 'NONE',  ( 16.00000000000000000, 0.000000000000000000, 0.000000000000000000 ) ) ;
#171 = UNCERTAINTY_MEASURE_WITH_UNIT (LENGTH_MEASURE( 1.000000000000000082E-05 ), #58, 'distance_accuracy_value', 'NONE');
#172 = LOCAL_TIME ( 12, 21, 14.00000000000000000, #193 ) ;
#173 = CARTESIAN_POINT ( 'NONE',  ( 15.47529631970627584, 0.000000000000000000, 14.92005542880469804 ) ) ;
#174 = CARTESIAN_POINT ( 'NONE',  ( 16.00000000000000000, 0.000000000000000000, 0.000000000000000000 ) ) ;
#175 = APPROVAL_DATE_TIME ( #97, #219 ) ;
#176 = PERSON_AND_ORGANIZATION ( #202, #241 ) ;
#177 = ORIENTED_EDGE ( 'NONE', *, *, #69, .F. ) ;
#178 = VECTOR ( 'NONE', #14, 999.9999999999998863 ) ;
#179 = CC_DESIGN_DATE_AND_TIME_ASSIGNMENT ( #122, #44, ( #154 ) ) ;
#180 = PRODUCT_DEFINITION_SHAPE ( 'NONE', 'NONE',  #13 ) ;
#181 = ORIENTED_EDGE ( 'NONE', *, *, #230, .T. ) ;
#182 = VERTEX_POINT ( 'NONE', #153 ) ;
#183 = EDGE_CURVE ( 'NONE', #198, #24, #117, .T. ) ;
#184 = DIRECTION ( 'NONE',  ( 1.000000000000000000, 0.000000000000000000, 0.000000000000000000 ) ) ;
#185 = DIRECTION ( 'NONE',  ( 0.000000000000000000, 0.000000000000000000, -1.000000000000000000 ) ) ;
#186 = CC_DESIGN_APPROVAL ( #219, ( #13 ) ) ;
#187 = ORIENTED_EDGE ( 'NONE', *, *, #69, .T. ) ;
#188 = LINE ( 'NONE', #173, #217 ) ;
#189 = DIRECTION ( 'NONE',  ( 0.000000000000000000, 0.000000000000000000, 1.000000000000000000 ) ) ;
#190 = CC_DESIGN_PERSON_AND_ORGANIZATION_ASSIGNMENT ( #141, #64, ( #247 ) ) ;
#191 = CIRCLE ( 'NONE', #214, 16.85000000000000142 ) ;
#192 = DIRECTION ( 'NONE',  ( -0.9649722855976516911, 0.000000000000000000, 0.2623518401468615258 ) ) ;
#193 = COORDINATED_UNIVERSAL_TIME_OFFSET ( 1, 0, .AHEAD. ) ;
#194 = DIRECTION ( 'NONE',  ( 1.000000000000000000, 0.000000000000000000, 0.000000000000000000 ) ) ;
#195 = CLOSED_SHELL ( 'NONE', ( #76, #239, #26, #165, #104, #142 ) ) ;
#196 = COORDINATED_UNIVERSAL_TIME_OFFSET ( 1, 0, .AHEAD. ) ;
#197 = AXIS2_PLACEMENT_3D ( 'NONE', #170, #37, #38 ) ;
#198 = VERTEX_POINT ( 'NONE', #1 ) ;
#199 = CC_DESIGN_PERSON_AND_ORGANIZATION_ASSIGNMENT ( #218, #159, ( #154 ) ) ;
#200 = SHAPE_DEFINITION_REPRESENTATION ( #180, #207 ) ;
#201 = CC_DESIGN_SECURITY_CLASSIFICATION ( #154, ( #247 ) ) ;
#202 = PERSON ( 'UNSPECIFIED', 'UNSPECIFIED', 'UNSPECIFIED', ('UNSPECIFIED'), ('UNSPECIFIED'), ('UNSPECIFIED') ) ;
#203 = ORIENTED_EDGE ( 'NONE', *, *, #59, .F. ) ;
#204 = FACE_OUTER_BOUND ( 'NONE', #29, .T. ) ;
#205 = ORIENTED_EDGE ( 'NONE', *, *, #95, .F. ) ;
#206 = DIRECTION ( 'NONE',  ( 0.000000000000000000, 0.000000000000000000, -1.000000000000000000 ) ) ;
#207 = ADVANCED_BREP_SHAPE_REPRESENTATION ( '3D_R169-K_42-33_17325270', ( #48, #138 ), #15 ) ;
#208 = ORIENTED_EDGE ( 'NONE', *, *, #213, .F. ) ;
#209 = CARTESIAN_POINT ( 'NONE',  ( 0.000000000000000000, 0.000000000000000000, 0.000000000000000000 ) ) ;
#210 = APPROVAL_STATUS ( 'not_yet_approved' ) ;
#211 = CARTESIAN_POINT ( 'NONE',  ( 0.000000000000000000, 0.000000000000000000, 0.000000000000000000 ) ) ;
#212 = MECHANICAL_CONTEXT ( 'NONE', #232, 'mechanical' ) ;
#213 = EDGE_CURVE ( 'NONE', #182, #16, #116, .T. ) ;
#214 = AXIS2_PLACEMENT_3D ( 'NONE', #36, #90, #185 ) ;
#215 = APPLICATION_PROTOCOL_DEFINITION ( 'international standard', 'config_control_design', 1994, #232 ) ;
#216 = CALENDAR_DATE ( 2024, 11, 7 ) ;
#217 = VECTOR ( 'NONE', #150, 999.9999999999998863 ) ;
#218 = PERSON_AND_ORGANIZATION ( #202, #241 ) ;
#219 = APPROVAL ( #210, 'UNSPECIFIED' ) ;
#220 = AXIS2_PLACEMENT_3D ( 'NONE', #87, #70, #10 ) ;
#221 = DIRECTION ( 'NONE',  ( 0.000000000000000000, 0.000000000000000000, 1.000000000000000000 ) ) ;
#222 = EDGE_LOOP ( 'NONE', ( #243, #169 ) ) ;
#223 = DIRECTION ( 'NONE',  ( 0.000000000000000000, 0.000000000000000000, 1.000000000000000000 ) ) ;
#224 = VECTOR ( 'NONE', #192, 999.9999999999998863 ) ;
#225 = APPROVAL_PERSON_ORGANIZATION ( #176, #43, #80 ) ;
#226 = CARTESIAN_POINT ( 'NONE',  ( 0.000000000000000000, -1.298125607096194385E-15, 21.19999999999999929 ) ) ;
#227 = CARTESIAN_POINT ( 'NONE',  ( 15.47529631970627584, 0.000000000000000000, 0.000000000000000000 ) ) ;
#228 = CIRCLE ( 'NONE', #28, 19.12740161572484254 ) ;
#229 = LOCAL_TIME ( 12, 21, 14.00000000000000000, #9 ) ;
#230 = EDGE_CURVE ( 'NONE', #47, #24, #31, .T. ) ;
#231 = PLANE ( 'NONE',  #83 ) ;
#232 = APPLICATION_CONTEXT ( 'configuration controlled 3d designs of mechanical parts and assemblies' ) ;
#233 = DIRECTION ( 'NONE',  ( 0.000000000000000000, 0.000000000000000000, -1.000000000000000000 ) ) ;
#234 = CARTESIAN_POINT ( 'NONE',  ( 0.000000000000000000, 0.000000000000000000, 0.000000000000000000 ) ) ;
#235 = SECURITY_CLASSIFICATION_LEVEL ( 'unclassified' ) ;
#236 = CIRCLE ( 'NONE', #40, 16.85000000000000142 ) ;
#237 = AXIS2_PLACEMENT_3D ( 'NONE', #174, #152, #233 ) ;
#238 = VERTEX_POINT ( 'NONE', #120 ) ;
#239 = ADVANCED_FACE ( 'NONE', ( #92 ), #71, .T. ) ;
#240 = CONICAL_SURFACE ( 'NONE', #156, 14.92005542880469804, 0.2654586084287746117 ) ;
#241 = ORGANIZATION ( 'UNSPECIFIED', 'UNSPECIFIED', '' ) ;
#242 = FACE_OUTER_BOUND ( 'NONE', #84, .T. ) ;
#243 = ORIENTED_EDGE ( 'NONE', *, *, #34, .T. ) ;
#244 = DIRECTION ( 'NONE',  ( 1.000000000000000000, 0.000000000000000000, 0.000000000000000000 ) ) ;
#245 = DIRECTION ( 'NONE',  ( 0.000000000000000000, 0.000000000000000000, 1.000000000000000000 ) ) ;
#246 = CIRCLE ( 'NONE', #220, 19.12740161572484254 ) ;
#247 = PRODUCT_DEFINITION_FORMATION_WITH_SPECIFIED_SOURCE ( 'ANY', '', #105, .NOT_KNOWN. ) ;
#248 = EDGE_CURVE ( 'NONE', #16, #182, #18, .T. ) ;
#249 = CARTESIAN_POINT ( 'NONE',  ( 16.00000000000000000, 0.000000000000000000, 0.000000000000000000 ) ) ;
ENDSEC;
END-ISO-10303-21;
