ISO-10303-21;
HEADER;
FILE_DESCRIPTION (( 'STEP AP203' ),
    '1' );
FILE_NAME ('3D_GR1382_DN25x1.5_18380310.STEP',
    '2024-09-23T06:00:34',
    ( '' ),
    ( '' ),
    'SwSTEP 2.0',
    'SolidWorks 2024',
    '' );
FILE_SCHEMA (( 'CONFIG_CONTROL_DESIGN' ));
ENDSEC;

DATA;
#1 = PLANE ( 'NONE',  #245 ) ;
#2 = APPROVAL ( #227, 'UNSPECIFIED' ) ;
#3 = ORIENTED_EDGE ( 'NONE', *, *, #112, .F. ) ;
#4 = ORIENTED_EDGE ( 'NONE', *, *, #195, .T. ) ;
#5 = DIRECTION ( 'NONE',  ( 0.000000000000000000, 0.000000000000000000, 1.000000000000000000 ) ) ;
#6 = VERTEX_POINT ( 'NONE', #345 ) ;
#7 = DIRECTION ( 'NONE',  ( -1.000000000000000000, 0.000000000000000000, -0.000000000000000000 ) ) ;
#8 = ORIENTED_EDGE ( 'NONE', *, *, #222, .F. ) ;
#9 = APPLICATION_CONTEXT ( 'configuration controlled 3d designs of mechanical parts and assemblies' ) ;
#10 = FACE_OUTER_BOUND ( 'NONE', #263, .T. ) ;
#11 = DIRECTION ( 'NONE',  ( 0.000000000000000000, 0.000000000000000000, 1.000000000000000000 ) ) ;
#12 = PERSON_AND_ORGANIZATION_ROLE ( 'design_supplier' ) ;
#13 = CARTESIAN_POINT ( 'NONE',  ( -2.000000000000001776, 0.000000000000000000, 12.50000000000001954 ) ) ;
#14 = SECURITY_CLASSIFICATION_LEVEL ( 'unclassified' ) ;
#15 = CONICAL_SURFACE ( 'NONE', #312, 10.00000000000002132, 0.7853981633974466137 ) ;
#16 = ORIENTED_EDGE ( 'NONE', *, *, #257, .T. ) ;
#17 = LOCAL_TIME ( 8, 0, 34.00000000000000000, #53 ) ;
#18 = CARTESIAN_POINT ( 'NONE',  ( 7.000000000001726619, 1.224646799147355623E-15, -10.00000000000002132 ) ) ;
#19 = ORGANIZATION ( 'UNSPECIFIED', 'UNSPECIFIED', '' ) ;
#20 = EDGE_CURVE ( 'NONE', #25, #182, #96, .T. ) ;
#21 = CARTESIAN_POINT ( 'NONE',  ( -154.8395502972293230, 0.000000000000000000, 0.000000000000000000 ) ) ;
#22 = DIRECTION ( 'NONE',  ( -1.000000000000000000, -0.000000000000000000, -0.000000000000000000 ) ) ;
#23 = CARTESIAN_POINT ( 'NONE',  ( 7.000000000001726619, 1.285879139104723197E-15, -10.00000000000002132 ) ) ;
#24 = FACE_BOUND ( 'NONE', #167, .T. ) ;
#25 = VERTEX_POINT ( 'NONE', #226 ) ;
#26 = AXIS2_PLACEMENT_3D ( 'NONE', #271, #107, #80 ) ;
#27 = EDGE_LOOP ( 'NONE', ( #145, #221 ) ) ;
#28 = EDGE_CURVE ( 'NONE', #130, #70, #50, .T. ) ;
#29 = CC_DESIGN_PERSON_AND_ORGANIZATION_ASSIGNMENT ( #295, #12, ( #346 ) ) ;
#30 = AXIS2_PLACEMENT_3D ( 'NONE', #65, #68, #94 ) ;
#31 = EDGE_CURVE ( 'NONE', #194, #70, #233, .T. ) ;
#32 = SECURITY_CLASSIFICATION ( '', '', #14 ) ;
#33 = VERTEX_POINT ( 'NONE', #13 ) ;
#34 = DIRECTION ( 'NONE',  ( -1.000000000000000000, -0.000000000000000000, -0.000000000000000000 ) ) ;
#35 = ORIENTED_EDGE ( 'NONE', *, *, #28, .T. ) ;
#36 = DIRECTION ( 'NONE',  ( 0.000000000000000000, 0.000000000000000000, 1.000000000000000000 ) ) ;
#37 = ORIENTED_EDGE ( 'NONE', *, *, #249, .F. ) ;
#38 = CALENDAR_DATE ( 2024, 23, 9 ) ;
#39 = DIRECTION ( 'NONE',  ( -1.000000000000000000, -0.000000000000000000, -0.000000000000000000 ) ) ;
#40 = CC_DESIGN_PERSON_AND_ORGANIZATION_ASSIGNMENT ( #156, #350, ( #32 ) ) ;
#41 = DIRECTION ( 'NONE',  ( 0.000000000000000000, 0.000000000000000000, 1.000000000000000000 ) ) ;
#42 = CARTESIAN_POINT ( 'NONE',  ( -154.8395502972293230, 1.530808498934193888E-15, -12.50000000000001954 ) ) ;
#43 = AXIS2_PLACEMENT_3D ( 'NONE', #238, #22, #213 ) ;
#44 = CARTESIAN_POINT ( 'NONE',  ( -2.000000000000000888, 0.000000000000000000, 11.50000000000002132 ) ) ;
#45 = APPROVAL_ROLE ( '' ) ;
#46 = DIRECTION ( 'NONE',  ( 0.000000000000000000, 0.000000000000000000, 1.000000000000000000 ) ) ;
#47 = CONICAL_SURFACE ( 'NONE', #267, 10.00000000000002132, 0.7853981633974466137 ) ;
#48 = DIRECTION ( 'NONE',  ( -0.000000000000000000, 0.000000000000000000, 1.000000000000000000 ) ) ;
#49 = ADVANCED_FACE ( 'NONE', ( #294 ), #15, .T. ) ;
#50 = CIRCLE ( 'NONE', #200, 11.00000000000001954 ) ;
#51 = DIRECTION ( 'NONE',  ( 0.000000000000000000, -1.224646799147353454E-16, 1.000000000000000000 ) ) ;
#52 = DIRECTION ( 'NONE',  ( -1.000000000000000000, -0.000000000000000000, -0.000000000000000000 ) ) ;
#53 = COORDINATED_UNIVERSAL_TIME_OFFSET ( 1, 0, .AHEAD. ) ;
#54 = APPLICATION_CONTEXT ( 'configuration controlled 3d designs of mechanical parts and assemblies' ) ;
#55 = DIRECTION ( 'NONE',  ( -0.000000000000000000, 0.000000000000000000, 1.000000000000000000 ) ) ;
#56 = PRODUCT_RELATED_PRODUCT_CATEGORY ( 'detail', '', ( #248 ) ) ;
#57 = ORIENTED_EDGE ( 'NONE', *, *, #336, .T. ) ;
#58 = CIRCLE ( 'NONE', #264, 10.00000000000002132 ) ;
#59 = CARTESIAN_POINT ( 'NONE',  ( 7.000000000001726619, 0.000000000000000000, 0.000000000000000000 ) ) ;
#60 = ORIENTED_EDGE ( 'NONE', *, *, #277, .T. ) ;
#61 = CC_DESIGN_PERSON_AND_ORGANIZATION_ASSIGNMENT ( #246, #333, ( #248 ) ) ;
#62 = ADVANCED_BREP_SHAPE_REPRESENTATION ( '3D_GR1382_DN25x1.5_18380310', ( #169, #285 ), #349 ) ;
#63 = ORIENTED_EDGE ( 'NONE', *, *, #125, .T. ) ;
#64 = VECTOR ( 'NONE', #236, 1000.000000000000000 ) ;
#65 = CARTESIAN_POINT ( 'NONE',  ( -154.8395502972293230, 0.000000000000000000, 0.000000000000000000 ) ) ;
#66 = APPROVAL_PERSON_ORGANIZATION ( #93, #2, #45 ) ;
#67 = APPLICATION_PROTOCOL_DEFINITION ( 'international standard', 'config_control_design', 1994, #54 ) ;
#68 = DIRECTION ( 'NONE',  ( -1.000000000000000000, -0.000000000000000000, -0.000000000000000000 ) ) ;
#69 = CIRCLE ( 'NONE', #79, 0.9999999999999991118 ) ;
#70 = VERTEX_POINT ( 'NONE', #316 ) ;
#71 = CALENDAR_DATE ( 2024, 23, 9 ) ;
#72 = ORIENTED_EDGE ( 'NONE', *, *, #314, .T. ) ;
#73 = EDGE_CURVE ( 'NONE', #116, #194, #99, .T. ) ;
#74 = DIRECTION ( 'NONE',  ( -1.000000000000000000, -0.000000000000000000, -0.000000000000000000 ) ) ;
#75 = COORDINATED_UNIVERSAL_TIME_OFFSET ( 1, 0, .AHEAD. ) ;
#76 = CARTESIAN_POINT ( 'NONE',  ( 7.000000000001726619, 0.000000000000000000, 0.000000000000000000 ) ) ;
#77 = PLANE ( 'NONE',  #139 ) ;
#78 = DIRECTION ( 'NONE',  ( 0.000000000000000000, 0.000000000000000000, -1.000000000000000000 ) ) ;
#79 = AXIS2_PLACEMENT_3D ( 'NONE', #132, #301, #51 ) ;
#80 = DIRECTION ( 'NONE',  ( 0.000000000000000000, 0.000000000000000000, 1.000000000000000000 ) ) ;
#81 = APPROVAL_DATE_TIME ( #258, #262 ) ;
#82 = ADVANCED_FACE ( 'NONE', ( #225 ), #241, .T. ) ;
#83 = FACE_OUTER_BOUND ( 'NONE', #110, .T. ) ;
#84 = ORIENTED_EDGE ( 'NONE', *, *, #314, .F. ) ;
#85 = ADVANCED_FACE ( 'NONE', ( #319 ), #317, .T. ) ;
#86 = PRODUCT_DEFINITION_SHAPE ( 'NONE', 'NONE',  #90 ) ;
#87 = CIRCLE ( 'NONE', #250, 12.50000000000001954 ) ;
#88 = MECHANICAL_CONTEXT ( 'NONE', #54, 'mechanical' ) ;
#89 = DIRECTION ( 'NONE',  ( -1.000000000000000000, -0.000000000000000000, -0.000000000000000000 ) ) ;
#90 = PRODUCT_DEFINITION ( 'UNKNOWN', '', #346, #115 ) ;
#91 = CC_DESIGN_PERSON_AND_ORGANIZATION_ASSIGNMENT ( #179, #235, ( #346 ) ) ;
#92 = CARTESIAN_POINT ( 'NONE',  ( -2.000000000000000888, 0.000000000000000000, 0.000000000000000000 ) ) ;
#93 = PERSON_AND_ORGANIZATION ( #198, #19 ) ;
#94 = DIRECTION ( 'NONE',  ( 0.000000000000000000, 0.000000000000000000, 1.000000000000000000 ) ) ;
#95 = CIRCLE ( 'NONE', #43, 11.00000000000001776 ) ;
#96 = LINE ( 'NONE', #42, #120 ) ;
#97 = EDGE_CURVE ( 'NONE', #25, #154, #87, .T. ) ;
#98 = DATE_AND_TIME ( #128, #269 ) ;
#99 = LINE ( 'NONE', #259, #155 ) ;
#100 = CALENDAR_DATE ( 2024, 23, 9 ) ;
#101 = DIRECTION ( 'NONE',  ( -1.000000000000000000, -0.000000000000000000, -0.000000000000000000 ) ) ;
#102 = CIRCLE ( 'NONE', #106, 12.50000000000001954 ) ;
#103 = FACE_OUTER_BOUND ( 'NONE', #229, .T. ) ;
#104 = CARTESIAN_POINT ( 'NONE',  ( 0.000000000000000000, 0.000000000000000000, 12.50000000000001954 ) ) ;
#105 = CARTESIAN_POINT ( 'NONE',  ( -3.000000000000002665, 0.000000000000000000, 11.50000000000002132 ) ) ;
#106 = AXIS2_PLACEMENT_3D ( 'NONE', #237, #339, #111 ) ;
#107 = DIRECTION ( 'NONE',  ( -1.000000000000000000, -0.000000000000000000, -0.000000000000000000 ) ) ;
#108 = DIRECTION ( 'NONE',  ( -1.000000000000000000, -0.000000000000000000, -0.000000000000000000 ) ) ;
#109 = APPROVAL_PERSON_ORGANIZATION ( #177, #262, #196 ) ;
#110 = EDGE_LOOP ( 'NONE', ( #57, #16, #37, #260 ) ) ;
#111 = DIRECTION ( 'NONE',  ( 0.000000000000000000, 0.000000000000000000, 1.000000000000000000 ) ) ;
#112 = EDGE_CURVE ( 'NONE', #70, #130, #302, .T. ) ;
#113 = AXIS2_PLACEMENT_3D ( 'NONE', #135, #303, #46 ) ;
#114 = ORIENTED_EDGE ( 'NONE', *, *, #195, .F. ) ;
#115 = DESIGN_CONTEXT ( 'detailed design', #9, 'design' ) ;
#116 = VERTEX_POINT ( 'NONE', #160 ) ;
#117 = ORIENTED_EDGE ( 'NONE', *, *, #288, .F. ) ;
#118 = CYLINDRICAL_SURFACE ( 'NONE', #158, 12.50000000000001954 ) ;
#119 = DIRECTION ( 'NONE',  ( -1.000000000000000000, -0.000000000000000000, -0.000000000000000000 ) ) ;
#120 = VECTOR ( 'NONE', #126, 1000.000000000000000 ) ;
#121 = CYLINDRICAL_SURFACE ( 'NONE', #315, 12.50000000000001954 ) ;
#122 = ORIENTED_EDGE ( 'NONE', *, *, #20, .F. ) ;
#123 = COORDINATED_UNIVERSAL_TIME_OFFSET ( 1, 0, .AHEAD. ) ;
#124 = CARTESIAN_POINT ( 'NONE',  ( 0.000000000000000000, 0.000000000000000000, 0.000000000000000000 ) ) ;
#125 = EDGE_CURVE ( 'NONE', #33, #143, #255, .T. ) ;
#126 = DIRECTION ( 'NONE',  ( -1.000000000000000000, -0.000000000000000000, -0.000000000000000000 ) ) ;
#127 = AXIS2_PLACEMENT_3D ( 'NONE', #163, #356, #274 ) ;
#128 = CALENDAR_DATE ( 2024, 23, 9 ) ;
#129 = CC_DESIGN_APPROVAL ( #262, ( #90 ) ) ;
#130 = VERTEX_POINT ( 'NONE', #159 ) ;
#131 = LOCAL_TIME ( 8, 0, 34.00000000000000000, #123 ) ;
#132 = CARTESIAN_POINT ( 'NONE',  ( -2.000000000000000888, 1.408343819019458740E-15, -11.50000000000002132 ) ) ;
#133 = DIRECTION ( 'NONE',  ( 0.000000000000000000, 0.000000000000000000, 1.000000000000000000 ) ) ;
#134 = DIRECTION ( 'NONE',  ( -1.000000000000000000, 0.000000000000000000, -0.000000000000000000 ) ) ;
#135 = CARTESIAN_POINT ( 'NONE',  ( -2.000000000000000888, 0.000000000000000000, 0.000000000000000000 ) ) ;
#136 = CC_DESIGN_PERSON_AND_ORGANIZATION_ASSIGNMENT ( #304, #308, ( #90 ) ) ;
#137 = DIRECTION ( 'NONE',  ( 0.000000000000000000, 0.000000000000000000, 1.000000000000000000 ) ) ;
#138 = EDGE_CURVE ( 'NONE', #143, #6, #297, .T. ) ;
#139 = AXIS2_PLACEMENT_3D ( 'NONE', #266, #134, #48 ) ;
#140 =( NAMED_UNIT ( * ) PLANE_ANGLE_UNIT ( ) SI_UNIT ( $, .RADIAN. ) );
#141 = FACE_OUTER_BOUND ( 'NONE', #278, .T. ) ;
#142 = AXIS2_PLACEMENT_3D ( 'NONE', #59, #146, #5 ) ;
#143 = VERTEX_POINT ( 'NONE', #105 ) ;
#144 = ORIENTED_EDGE ( 'NONE', *, *, #73, .T. ) ;
#145 = ORIENTED_EDGE ( 'NONE', *, *, #138, .T. ) ;
#146 = DIRECTION ( 'NONE',  ( -1.000000000000000000, -0.000000000000000000, -0.000000000000000000 ) ) ;
#147 = CARTESIAN_POINT ( 'NONE',  ( 0.000000000000000000, 0.000000000000000000, 0.000000000000000000 ) ) ;
#148 = FACE_OUTER_BOUND ( 'NONE', #243, .T. ) ;
#149 = ORIENTED_EDGE ( 'NONE', *, *, #199, .T. ) ;
#150 = DIRECTION ( 'NONE',  ( 1.000000000000000000, 0.000000000000000000, 0.000000000000000000 ) ) ;
#151 = EDGE_CURVE ( 'NONE', #6, #143, #324, .T. ) ;
#152 = VERTEX_POINT ( 'NONE', #23 ) ;
#153 = COORDINATED_UNIVERSAL_TIME_OFFSET ( 1, 0, .AHEAD. ) ;
#154 = VERTEX_POINT ( 'NONE', #104 ) ;
#155 = VECTOR ( 'NONE', #254, 1000.000000000000000 ) ;
#156 = PERSON_AND_ORGANIZATION ( #198, #19 ) ;
#157 = LINE ( 'NONE', #18, #64 ) ;
#158 = AXIS2_PLACEMENT_3D ( 'NONE', #305, #332, #36 ) ;
#159 = CARTESIAN_POINT ( 'NONE',  ( 0.000000000000000000, 1.347111479062090968E-15, -11.00000000000001954 ) ) ;
#160 = CARTESIAN_POINT ( 'NONE',  ( 7.000000000001726619, 0.000000000000000000, 10.00000000000002132 ) ) ;
#161 = CARTESIAN_POINT ( 'NONE',  ( -2.000000000000001776, 0.000000000000000000, 0.000000000000000000 ) ) ;
#162 = EDGE_CURVE ( 'NONE', #154, #33, #212, .T. ) ;
#163 = CARTESIAN_POINT ( 'NONE',  ( 0.000000000000000000, 0.000000000000000000, 0.000000000000000000 ) ) ;
#164 = CARTESIAN_POINT ( 'NONE',  ( 7.000000000001726619, 0.000000000000000000, 0.000000000000000000 ) ) ;
#165 = VECTOR ( 'NONE', #299, 1000.000000000000000 ) ;
#166 = CARTESIAN_POINT ( 'NONE',  ( -154.8395502972293230, 0.000000000000000000, 0.000000000000000000 ) ) ;
#167 = EDGE_LOOP ( 'NONE', ( #174, #35 ) ) ;
#168 = ORIENTED_EDGE ( 'NONE', *, *, #125, .F. ) ;
#169 = MANIFOLD_SOLID_BREP ( 'Rotation1', #344 ) ;
#170 = AXIS2_PLACEMENT_3D ( 'NONE', #215, #74, #183 ) ;
#171 = ORIENTED_EDGE ( 'NONE', *, *, #249, .T. ) ;
#172 = LOCAL_TIME ( 8, 0, 34.00000000000000000, #347 ) ;
#173 = ADVANCED_FACE ( 'NONE', ( #103 ), #77, .F. ) ;
#174 = ORIENTED_EDGE ( 'NONE', *, *, #112, .T. ) ;
#175 = VECTOR ( 'NONE', #34, 1000.000000000000000 ) ;
#176 = CARTESIAN_POINT ( 'NONE',  ( 0.000000000000000000, 0.000000000000000000, 0.000000000000000000 ) ) ;
#177 = PERSON_AND_ORGANIZATION ( #198, #19 ) ;
#178 = DIRECTION ( 'NONE',  ( -1.000000000000000000, -0.000000000000000000, -0.000000000000000000 ) ) ;
#179 = PERSON_AND_ORGANIZATION ( #198, #19 ) ;
#180 = ORIENTED_EDGE ( 'NONE', *, *, #257, .F. ) ;
#181 = DATE_TIME_ROLE ( 'creation_date' ) ;
#182 = VERTEX_POINT ( 'NONE', #352 ) ;
#183 = DIRECTION ( 'NONE',  ( 0.000000000000000000, 0.000000000000000000, 1.000000000000000000 ) ) ;
#184 = AXIS2_PLACEMENT_3D ( 'NONE', #161, #353, #137 ) ;
#185 = SHAPE_DEFINITION_REPRESENTATION ( #86, #62 ) ;
#186 = ADVANCED_FACE ( 'NONE', ( #326 ), #300, .F. ) ;
#187 = DIRECTION ( 'NONE',  ( -1.000000000000000000, -0.000000000000000000, -0.000000000000000000 ) ) ;
#188 = DIRECTION ( 'NONE',  ( 0.000000000000000000, 0.000000000000000000, 1.000000000000000000 ) ) ;
#189 = CARTESIAN_POINT ( 'NONE',  ( 6.000000000001726619, 1.347111479062090771E-15, -11.00000000000001776 ) ) ;
#190 = VECTOR ( 'NONE', #89, 1000.000000000000000 ) ;
#191 = CARTESIAN_POINT ( 'NONE',  ( -3.000000000000000888, 11.50000000000002132, 0.000000000000000000 ) ) ;
#192 = CIRCLE ( 'NONE', #142, 10.00000000000002132 ) ;
#193 = CARTESIAN_POINT ( 'NONE',  ( -154.8395502972293230, 1.347111479062090968E-15, -11.00000000000001954 ) ) ;
#194 = VERTEX_POINT ( 'NONE', #355 ) ;
#195 = EDGE_CURVE ( 'NONE', #218, #194, #95, .T. ) ;
#196 = APPROVAL_ROLE ( '' ) ;
#197 = CC_DESIGN_DATE_AND_TIME_ASSIGNMENT ( #270, #207, ( #32 ) ) ;
#198 = PERSON ( 'UNSPECIFIED', 'UNSPECIFIED', 'UNSPECIFIED', ('UNSPECIFIED'), ('UNSPECIFIED'), ('UNSPECIFIED') ) ;
#199 = EDGE_CURVE ( 'NONE', #182, #33, #337, .T. ) ;
#200 = AXIS2_PLACEMENT_3D ( 'NONE', #147, #39, #41 ) ;
#201 = DIRECTION ( 'NONE',  ( 0.000000000000000000, 0.000000000000000000, 1.000000000000000000 ) ) ;
#202 = EDGE_LOOP ( 'NONE', ( #84, #4, #310, #228 ) ) ;
#203 = ORIENTED_EDGE ( 'NONE', *, *, #336, .F. ) ;
#204 = CARTESIAN_POINT ( 'NONE',  ( 7.000000000001726619, 0.000000000000000000, 0.000000000000000000 ) ) ;
#205 = ORIENTED_EDGE ( 'NONE', *, *, #97, .T. ) ;
#206 = APPROVAL ( #231, 'UNSPECIFIED' ) ;
#207 = DATE_TIME_ROLE ( 'classification_date' ) ;
#208 = CYLINDRICAL_SURFACE ( 'NONE', #209, 11.00000000000001954 ) ;
#209 = AXIS2_PLACEMENT_3D ( 'NONE', #21, #101, #323 ) ;
#210 = PERSON_AND_ORGANIZATION ( #198, #19 ) ;
#211 = DIRECTION ( 'NONE',  ( 1.000000000000000000, 0.000000000000000000, 0.000000000000000000 ) ) ;
#212 = LINE ( 'NONE', #328, #165 ) ;
#213 = DIRECTION ( 'NONE',  ( 0.000000000000000000, 0.000000000000000000, 1.000000000000000000 ) ) ;
#214 = AXIS2_PLACEMENT_3D ( 'NONE', #44, #239, #78 ) ;
#215 = CARTESIAN_POINT ( 'NONE',  ( 6.000000000001726619, 0.000000000000000000, 0.000000000000000000 ) ) ;
#216 = CC_DESIGN_APPROVAL ( #206, ( #346 ) ) ;
#217 = DIRECTION ( 'NONE',  ( 0.000000000000000000, 0.000000000000000000, 1.000000000000000000 ) ) ;
#218 = VERTEX_POINT ( 'NONE', #189 ) ;
#219 = CC_DESIGN_APPROVAL ( #2, ( #32 ) ) ;
#220 = LINE ( 'NONE', #193, #175 ) ;
#221 = ORIENTED_EDGE ( 'NONE', *, *, #151, .T. ) ;
#222 = EDGE_CURVE ( 'NONE', #182, #6, #69, .T. ) ;
#223 =( LENGTH_UNIT ( ) NAMED_UNIT ( * ) SI_UNIT ( .MILLI., .METRE. ) );
#224 = TOROIDAL_SURFACE ( 'NONE', #113, 11.50000000000002132, 0.9999999999999995559 ) ;
#225 = FACE_OUTER_BOUND ( 'NONE', #282, .T. ) ;
#226 = CARTESIAN_POINT ( 'NONE',  ( 0.000000000000000000, 1.530808498934193888E-15, -12.50000000000001954 ) ) ;
#227 = APPROVAL_STATUS ( 'not_yet_approved' ) ;
#228 = ORIENTED_EDGE ( 'NONE', *, *, #28, .F. ) ;
#229 = EDGE_LOOP ( 'NONE', ( #203, #291 ) ) ;
#230 = AXIS2_PLACEMENT_3D ( 'NONE', #124, #240, #296 ) ;
#231 = APPROVAL_STATUS ( 'not_yet_approved' ) ;
#232 = LOCAL_TIME ( 8, 0, 34.00000000000000000, #75 ) ;
#233 = LINE ( 'NONE', #318, #190 ) ;
#234 = ADVANCED_FACE ( 'NONE', ( #273 ), #224, .T. ) ;
#235 = PERSON_AND_ORGANIZATION_ROLE ( 'creator' ) ;
#236 = DIRECTION ( 'NONE',  ( -0.7071067811865487940, 8.659560562354918067E-17, -0.7071067811865463515 ) ) ;
#237 = CARTESIAN_POINT ( 'NONE',  ( -2.000000000000001776, 0.000000000000000000, 0.000000000000000000 ) ) ;
#238 = CARTESIAN_POINT ( 'NONE',  ( 6.000000000001726619, 0.000000000000000000, 0.000000000000000000 ) ) ;
#239 = DIRECTION ( 'NONE',  ( 0.000000000000000000, -1.000000000000000000, 0.000000000000000000 ) ) ;
#240 = DIRECTION ( 'NONE',  ( -1.000000000000000000, -0.000000000000000000, -0.000000000000000000 ) ) ;
#241 = TOROIDAL_SURFACE ( 'NONE', #283, 11.50000000000002132, 0.9999999999999995559 ) ;
#242 = DIRECTION ( 'NONE',  ( 0.000000000000000000, 0.000000000000000000, 1.000000000000000000 ) ) ;
#243 = EDGE_LOOP ( 'NONE', ( #122, #205, #309, #306 ) ) ;
#244 = EDGE_CURVE ( 'NONE', #154, #25, #272, .T. ) ;
#245 = AXIS2_PLACEMENT_3D ( 'NONE', #252, #7, #55 ) ;
#246 = PERSON_AND_ORGANIZATION ( #198, #19 ) ;
#247 = EDGE_LOOP ( 'NONE', ( #8, #149, #63, #284 ) ) ;
#248 = PRODUCT ( '3D_GR1382_DN25x1.5_18380310', '3D_GR1382_DN25x1.5_18380310', '', ( #88 ) ) ;
#249 = EDGE_CURVE ( 'NONE', #194, #218, #330, .T. ) ;
#250 = AXIS2_PLACEMENT_3D ( 'NONE', #176, #178, #11 ) ;
#251 = ORIENTED_EDGE ( 'NONE', *, *, #244, .F. ) ;
#252 = CARTESIAN_POINT ( 'NONE',  ( -7.654042494670108595E-16, 11.00000000000001954, 0.000000000000000000 ) ) ;
#253 = CC_DESIGN_SECURITY_CLASSIFICATION ( #32, ( #346 ) ) ;
#254 = DIRECTION ( 'NONE',  ( -0.7071067811865487940, 0.000000000000000000, 0.7071067811865463515 ) ) ;
#255 = CIRCLE ( 'NONE', #214, 0.9999999999999991118 ) ;
#256 = ORIENTED_EDGE ( 'NONE', *, *, #31, .F. ) ;
#257 = EDGE_CURVE ( 'NONE', #152, #218, #157, .T. ) ;
#258 = DATE_AND_TIME ( #38, #131 ) ;
#259 = CARTESIAN_POINT ( 'NONE',  ( 7.000000000001726619, 0.000000000000000000, 10.00000000000002132 ) ) ;
#260 = ORIENTED_EDGE ( 'NONE', *, *, #73, .F. ) ;
#261 = DATE_AND_TIME ( #71, #172 ) ;
#262 = APPROVAL ( #290, 'UNSPECIFIED' ) ;
#263 = EDGE_LOOP ( 'NONE', ( #251, #286 ) ) ;
#264 = AXIS2_PLACEMENT_3D ( 'NONE', #76, #187, #133 ) ;
#265 = CALENDAR_DATE ( 2024, 23, 9 ) ;
#266 = CARTESIAN_POINT ( 'NONE',  ( 7.000000000000860645, 0.000000000000000000, 0.000000000000000000 ) ) ;
#267 = AXIS2_PLACEMENT_3D ( 'NONE', #164, #108, #242 ) ;
#268 = CARTESIAN_POINT ( 'NONE',  ( -3.000000000000002665, 0.000000000000000000, 0.000000000000000000 ) ) ;
#269 = LOCAL_TIME ( 8, 0, 34.00000000000000000, #153 ) ;
#270 = DATE_AND_TIME ( #100, #232 ) ;
#271 = CARTESIAN_POINT ( 'NONE',  ( -3.000000000000002665, 0.000000000000000000, 0.000000000000000000 ) ) ;
#272 = CIRCLE ( 'NONE', #127, 12.50000000000001954 ) ;
#273 = FACE_OUTER_BOUND ( 'NONE', #247, .T. ) ;
#274 = DIRECTION ( 'NONE',  ( 0.000000000000000000, 0.000000000000000000, 1.000000000000000000 ) ) ;
#275 = ADVANCED_FACE ( 'NONE', ( #351 ), #208, .T. ) ;
#276 = DIRECTION ( 'NONE',  ( 0.000000000000000000, 0.000000000000000000, 1.000000000000000000 ) ) ;
#277 = EDGE_CURVE ( 'NONE', #152, #116, #58, .T. ) ;
#278 = EDGE_LOOP ( 'NONE', ( #281, #321, #117, #348 ) ) ;
#279 =( NAMED_UNIT ( * ) SI_UNIT ( $, .STERADIAN. ) SOLID_ANGLE_UNIT ( ) );
#280 = EDGE_LOOP ( 'NONE', ( #171, #72, #3, #256 ) ) ;
#281 = ORIENTED_EDGE ( 'NONE', *, *, #244, .T. ) ;
#282 = EDGE_LOOP ( 'NONE', ( #338, #335, #289, #168 ) ) ;
#283 = AXIS2_PLACEMENT_3D ( 'NONE', #92, #119, #201 ) ;
#284 = ORIENTED_EDGE ( 'NONE', *, *, #151, .F. ) ;
#285 = AXIS2_PLACEMENT_3D ( 'NONE', #313, #217, #150 ) ;
#286 = ORIENTED_EDGE ( 'NONE', *, *, #97, .F. ) ;
#287 = DIRECTION ( 'NONE',  ( -1.000000000000000000, -0.000000000000000000, -0.000000000000000000 ) ) ;
#288 = EDGE_CURVE ( 'NONE', #33, #182, #102, .T. ) ;
#289 = ORIENTED_EDGE ( 'NONE', *, *, #138, .F. ) ;
#290 = APPROVAL_STATUS ( 'not_yet_approved' ) ;
#291 = ORIENTED_EDGE ( 'NONE', *, *, #277, .F. ) ;
#292 = DIRECTION ( 'NONE',  ( -1.000000000000000000, -0.000000000000000000, -0.000000000000000000 ) ) ;
#293 = ADVANCED_FACE ( 'NONE', ( #83 ), #47, .T. ) ;
#294 = FACE_OUTER_BOUND ( 'NONE', #343, .T. ) ;
#295 = PERSON_AND_ORGANIZATION ( #198, #19 ) ;
#296 = DIRECTION ( 'NONE',  ( 0.000000000000000000, 0.000000000000000000, 1.000000000000000000 ) ) ;
#297 = CIRCLE ( 'NONE', #307, 11.50000000000002132 ) ;
#298 = DATE_AND_TIME ( #265, #17 ) ;
#299 = DIRECTION ( 'NONE',  ( -1.000000000000000000, -0.000000000000000000, -0.000000000000000000 ) ) ;
#300 = PLANE ( 'NONE',  #357 ) ;
#301 = DIRECTION ( 'NONE',  ( -0.000000000000000000, 1.000000000000000000, 1.224646799147353207E-16 ) ) ;
#302 = CIRCLE ( 'NONE', #230, 11.00000000000001954 ) ;
#303 = DIRECTION ( 'NONE',  ( -1.000000000000000000, -0.000000000000000000, -0.000000000000000000 ) ) ;
#304 = PERSON_AND_ORGANIZATION ( #198, #19 ) ;
#305 = CARTESIAN_POINT ( 'NONE',  ( -154.8395502972293230, 0.000000000000000000, 0.000000000000000000 ) ) ;
#306 = ORIENTED_EDGE ( 'NONE', *, *, #199, .F. ) ;
#307 = AXIS2_PLACEMENT_3D ( 'NONE', #268, #52, #188 ) ;
#308 = PERSON_AND_ORGANIZATION_ROLE ( 'creator' ) ;
#309 = ORIENTED_EDGE ( 'NONE', *, *, #162, .T. ) ;
#310 = ORIENTED_EDGE ( 'NONE', *, *, #31, .T. ) ;
#311 = UNCERTAINTY_MEASURE_WITH_UNIT (LENGTH_MEASURE( 1.000000000000000082E-05 ), #223, 'distance_accuracy_value', 'NONE');
#312 = AXIS2_PLACEMENT_3D ( 'NONE', #204, #292, #340 ) ;
#313 = CARTESIAN_POINT ( 'NONE',  ( 0.000000000000000000, 0.000000000000000000, 0.000000000000000000 ) ) ;
#314 = EDGE_CURVE ( 'NONE', #218, #130, #220, .T. ) ;
#315 = AXIS2_PLACEMENT_3D ( 'NONE', #166, #287, #276 ) ;
#316 = CARTESIAN_POINT ( 'NONE',  ( 0.000000000000000000, 0.000000000000000000, 11.00000000000001954 ) ) ;
#317 = CYLINDRICAL_SURFACE ( 'NONE', #30, 11.00000000000001954 ) ;
#318 = CARTESIAN_POINT ( 'NONE',  ( -154.8395502972293230, 0.000000000000000000, 11.00000000000001954 ) ) ;
#319 = FACE_OUTER_BOUND ( 'NONE', #202, .T. ) ;
#320 = APPROVAL_ROLE ( '' ) ;
#321 = ORIENTED_EDGE ( 'NONE', *, *, #20, .T. ) ;
#322 = APPROVAL_DATE_TIME ( #98, #2 ) ;
#323 = DIRECTION ( 'NONE',  ( 0.000000000000000000, 0.000000000000000000, 1.000000000000000000 ) ) ;
#324 = CIRCLE ( 'NONE', #26, 11.50000000000002132 ) ;
#325 = CC_DESIGN_DATE_AND_TIME_ASSIGNMENT ( #298, #181, ( #90 ) ) ;
#326 = FACE_OUTER_BOUND ( 'NONE', #27, .T. ) ;
#327 = DIRECTION ( 'NONE',  ( 0.000000000000000000, 0.000000000000000000, -1.000000000000000000 ) ) ;
#328 = CARTESIAN_POINT ( 'NONE',  ( -154.8395502972293230, 0.000000000000000000, 12.50000000000001954 ) ) ;
#329 = ADVANCED_FACE ( 'NONE', ( #10, #24 ), #1, .F. ) ;
#330 = CIRCLE ( 'NONE', #170, 11.00000000000001776 ) ;
#331 = APPROVAL_PERSON_ORGANIZATION ( #210, #206, #320 ) ;
#332 = DIRECTION ( 'NONE',  ( -1.000000000000000000, -0.000000000000000000, -0.000000000000000000 ) ) ;
#333 = PERSON_AND_ORGANIZATION_ROLE ( 'design_owner' ) ;
#334 = APPLICATION_PROTOCOL_DEFINITION ( 'international standard', 'config_control_design', 1994, #9 ) ;
#335 = ORIENTED_EDGE ( 'NONE', *, *, #222, .T. ) ;
#336 = EDGE_CURVE ( 'NONE', #116, #152, #192, .T. ) ;
#337 = CIRCLE ( 'NONE', #184, 12.50000000000001954 ) ;
#338 = ORIENTED_EDGE ( 'NONE', *, *, #288, .T. ) ;
#339 = DIRECTION ( 'NONE',  ( -1.000000000000000000, -0.000000000000000000, -0.000000000000000000 ) ) ;
#340 = DIRECTION ( 'NONE',  ( 0.000000000000000000, 0.000000000000000000, 1.000000000000000000 ) ) ;
#341 = APPROVAL_DATE_TIME ( #261, #206 ) ;
#342 = ADVANCED_FACE ( 'NONE', ( #141 ), #121, .T. ) ;
#343 = EDGE_LOOP ( 'NONE', ( #180, #60, #144, #114 ) ) ;
#344 = CLOSED_SHELL ( 'NONE', ( #82, #342, #275, #293, #173, #49, #85, #329, #354, #234, #186 ) ) ;
#345 = CARTESIAN_POINT ( 'NONE',  ( -3.000000000000002665, 1.469576158976826314E-15, -11.50000000000002132 ) ) ;
#346 = PRODUCT_DEFINITION_FORMATION_WITH_SPECIFIED_SOURCE ( 'ANY', '', #248, .NOT_KNOWN. ) ;
#347 = COORDINATED_UNIVERSAL_TIME_OFFSET ( 1, 0, .AHEAD. ) ;
#348 = ORIENTED_EDGE ( 'NONE', *, *, #162, .F. ) ;
#349 =( GEOMETRIC_REPRESENTATION_CONTEXT ( 3 ) GLOBAL_UNCERTAINTY_ASSIGNED_CONTEXT ( ( #311 ) ) GLOBAL_UNIT_ASSIGNED_CONTEXT ( ( #223, #140, #279 ) ) REPRESENTATION_CONTEXT ( 'NONE', 'WORKASPACE' ) );
#350 = PERSON_AND_ORGANIZATION_ROLE ( 'classification_officer' ) ;
#351 = FACE_OUTER_BOUND ( 'NONE', #280, .T. ) ;
#352 = CARTESIAN_POINT ( 'NONE',  ( -2.000000000000001776, 1.530808498934193888E-15, -12.50000000000001954 ) ) ;
#353 = DIRECTION ( 'NONE',  ( -1.000000000000000000, -0.000000000000000000, -0.000000000000000000 ) ) ;
#354 = ADVANCED_FACE ( 'NONE', ( #148 ), #118, .T. ) ;
#355 = CARTESIAN_POINT ( 'NONE',  ( 6.000000000001726619, 0.000000000000000000, 11.00000000000001776 ) ) ;
#356 = DIRECTION ( 'NONE',  ( -1.000000000000000000, -0.000000000000000000, -0.000000000000000000 ) ) ;
#357 = AXIS2_PLACEMENT_3D ( 'NONE', #191, #211, #327 ) ;
ENDSEC;
END-ISO-10303-21;
