ISO-10303-21;
HEADER;
FILE_DESCRIPTION (( 'STEP AP203' ),
    '1' );
FILE_NAME ('3D_R1620_60.3x2_173630140_173631130.STEP',
    '2024-08-27T11:06:43',
    ( '' ),
    ( '' ),
    'SwSTEP 2.0',
    'SolidWorks 2024',
    '' );
FILE_SCHEMA (( 'CONFIG_CONTROL_DESIGN' ));
ENDSEC;

DATA;
#1 = VERTEX_POINT ( 'NONE', #163 ) ;
#2 = CARTESIAN_POINT ( 'NONE',  ( 0.000000000000000000, 0.000000000000000000, 0.000000000000000000 ) ) ;
#3 = EDGE_LOOP ( 'NONE', ( #199, #45 ) ) ;
#4 = EDGE_LOOP ( 'NONE', ( #42, #200 ) ) ;
#5 = DIRECTION ( 'NONE',  ( -1.000000000000000000, 0.000000000000000000, 3.078612664085839642E-15 ) ) ;
#6 = AXIS2_PLACEMENT_3D ( 'NONE', #173, #76, #226 ) ;
#7 = DIRECTION ( 'NONE',  ( 3.078612664085840037E-15, 0.000000000000000000, 1.000000000000000000 ) ) ;
#8 = DIRECTION ( 'NONE',  ( 3.078612664085839642E-15, 0.000000000000000000, 1.000000000000000000 ) ) ;
#9 = EDGE_CURVE ( 'NONE', #86, #129, #72, .T. ) ;
#10 =( NAMED_UNIT ( * ) PLANE_ANGLE_UNIT ( ) SI_UNIT ( $, .RADIAN. ) );
#11 = AXIS2_PLACEMENT_3D ( 'NONE', #210, #88, #154 ) ;
#12 = PERSON_AND_ORGANIZATION ( #201, #139 ) ;
#13 = APPROVAL_DATE_TIME ( #160, #102 ) ;
#14 = EDGE_CURVE ( 'NONE', #147, #184, #234, .T. ) ;
#15 = COORDINATED_UNIVERSAL_TIME_OFFSET ( 1, 0, .AHEAD. ) ;
#16 = AXIS2_PLACEMENT_3D ( 'NONE', #182, #84, #162 ) ;
#17 = LOCAL_TIME ( 13, 6, 43.00000000000000000, #250 ) ;
#18 = CALENDAR_DATE ( 2024, 27, 8 ) ;
#19 = CC_DESIGN_DATE_AND_TIME_ASSIGNMENT ( #58, #40, ( #207 ) ) ;
#20 = DATE_AND_TIME ( #233, #186 ) ;
#21 = EDGE_CURVE ( 'NONE', #1, #23, #103, .T. ) ;
#22 = CLOSED_SHELL ( 'NONE', ( #171, #150, #107, #132, #71, #53 ) ) ;
#23 = VERTEX_POINT ( 'NONE', #106 ) ;
#24 = APPLICATION_CONTEXT ( 'configuration controlled 3d designs of mechanical parts and assemblies' ) ;
#25 = CARTESIAN_POINT ( 'NONE',  ( 0.000000000000000000, -3.692310099429270397E-15, 0.000000000000000000 ) ) ;
#26 = CIRCLE ( 'NONE', #32, 30.14999999999999858 ) ;
#27 = ORIENTED_EDGE ( 'NONE', *, *, #21, .F. ) ;
#28 = EDGE_LOOP ( 'NONE', ( #27, #110, #224, #109 ) ) ;
#29 = DIRECTION ( 'NONE',  ( 1.000000000000000000, 0.000000000000000000, 9.124414482196663926E-17 ) ) ;
#30 = FACE_OUTER_BOUND ( 'NONE', #4, .T. ) ;
#31 = CC_DESIGN_PERSON_AND_ORGANIZATION_ASSIGNMENT ( #179, #251, ( #232 ) ) ;
#32 = AXIS2_PLACEMENT_3D ( 'NONE', #34, #94, #211 ) ;
#33 = PLANE ( 'NONE',  #119 ) ;
#34 = CARTESIAN_POINT ( 'NONE',  ( -1.522941492408208362E-13, 0.000000000000000000, -51.00000000000000000 ) ) ;
#35 = DIRECTION ( 'NONE',  ( 1.000000000000000000, 0.000000000000000000, 9.124414482196662693E-17 ) ) ;
#36 = APPROVAL ( #157, 'UNSPECIFIED' ) ;
#37 = DATE_AND_TIME ( #177, #78 ) ;
#38 = PERSON_AND_ORGANIZATION_ROLE ( 'design_owner' ) ;
#39 = CC_DESIGN_APPROVAL ( #36, ( #207 ) ) ;
#40 = DATE_TIME_ROLE ( 'creation_date' ) ;
#41 = APPROVAL_STATUS ( 'not_yet_approved' ) ;
#42 = ORIENTED_EDGE ( 'NONE', *, *, #114, .F. ) ;
#43 = APPLICATION_CONTEXT ( 'configuration controlled 3d designs of mechanical parts and assemblies' ) ;
#44 = AXIS2_PLACEMENT_3D ( 'NONE', #228, #133, #242 ) ;
#45 = ORIENTED_EDGE ( 'NONE', *, *, #180, .T. ) ;
#46 = ORIENTED_EDGE ( 'NONE', *, *, #14, .F. ) ;
#47 = EDGE_LOOP ( 'NONE', ( #123, #222 ) ) ;
#48 = PRODUCT_RELATED_PRODUCT_CATEGORY ( 'detail', '', ( #70 ) ) ;
#49 = ORIENTED_EDGE ( 'NONE', *, *, #137, .T. ) ;
#50 = PRODUCT_DEFINITION_SHAPE ( 'NONE', 'NONE',  #207 ) ;
#51 = FACE_OUTER_BOUND ( 'NONE', #164, .T. ) ;
#52 = CARTESIAN_POINT ( 'NONE',  ( -1.570092458683778147E-13, 0.000000000000000000, -51.00000000000000000 ) ) ;
#53 = ADVANCED_FACE ( 'NONE', ( #65 ), #97, .F. ) ;
#54 = CARTESIAN_POINT ( 'NONE',  ( -22.84999999999999432, 0.000000000000000000, -2.084928709181937411E-15 ) ) ;
#55 = CC_DESIGN_SECURITY_CLASSIFICATION ( #238, ( #232 ) ) ;
#56 =( LENGTH_UNIT ( ) NAMED_UNIT ( * ) SI_UNIT ( .MILLI., .METRE. ) );
#57 = DIRECTION ( 'NONE',  ( -1.000000000000000000, 0.000000000000000000, 3.078612664085839642E-15 ) ) ;
#58 = DATE_AND_TIME ( #18, #197 ) ;
#59 = DATE_TIME_ROLE ( 'classification_date' ) ;
#60 = CC_DESIGN_PERSON_AND_ORGANIZATION_ASSIGNMENT ( #231, #142, ( #207 ) ) ;
#61 = APPROVAL_ROLE ( '' ) ;
#62 = CIRCLE ( 'NONE', #202, 30.14999999999999858 ) ;
#63 = TOROIDAL_SURFACE ( 'NONE', #6, 51.00000000000000000, 30.14999999999999858 ) ;
#64 = APPROVAL_ROLE ( '' ) ;
#65 = FACE_OUTER_BOUND ( 'NONE', #28, .T. ) ;
#66 = FACE_BOUND ( 'NONE', #3, .T. ) ;
#67 = CIRCLE ( 'NONE', #212, 30.14999999999999858 ) ;
#68 = ORIENTED_EDGE ( 'NONE', *, *, #9, .T. ) ;
#69 = VERTEX_POINT ( 'NONE', #146 ) ;
#70 = PRODUCT ( '3D_R1620_60.3x2_173630140_173631130', '3D_R1620_60.3x2_173630140_173631130', '', ( #79 ) ) ;
#71 = ADVANCED_FACE ( 'NONE', ( #66, #30 ), #33, .F. ) ;
#72 = CIRCLE ( 'NONE', #209, 81.15000000000000568 ) ;
#73 = CARTESIAN_POINT ( 'NONE',  ( -51.00000000000000000, 0.000000000000000000, -4.653451385920298208E-15 ) ) ;
#74 = CARTESIAN_POINT ( 'NONE',  ( -51.00000000000000000, 0.000000000000000000, -4.653451385920298208E-15 ) ) ;
#75 = DIRECTION ( 'NONE',  ( -1.000000000000000000, 0.000000000000000000, 3.078612664085839642E-15 ) ) ;
#76 = DIRECTION ( 'NONE',  ( 0.000000000000000000, 1.000000000000000000, 0.000000000000000000 ) ) ;
#77 = PERSON_AND_ORGANIZATION ( #201, #139 ) ;
#78 = LOCAL_TIME ( 13, 6, 43.00000000000000000, #15 ) ;
#79 = MECHANICAL_CONTEXT ( 'NONE', #43, 'mechanical' ) ;
#80 = EDGE_CURVE ( 'NONE', #69, #203, #215, .T. ) ;
#81 = DIRECTION ( 'NONE',  ( 0.000000000000000000, 0.000000000000000000, 1.000000000000000000 ) ) ;
#82 = CALENDAR_DATE ( 2024, 27, 8 ) ;
#83 = CIRCLE ( 'NONE', #144, 28.15000000000000213 ) ;
#84 = DIRECTION ( 'NONE',  ( 0.000000000000000000, 1.000000000000000000, 0.000000000000000000 ) ) ;
#85 = AXIS2_PLACEMENT_3D ( 'NONE', #243, #247, #29 ) ;
#86 = VERTEX_POINT ( 'NONE', #166 ) ;
#87 = DIRECTION ( 'NONE',  ( 0.000000000000000000, 0.000000000000000000, 1.000000000000000000 ) ) ;
#88 = DIRECTION ( 'NONE',  ( 0.000000000000000000, 1.000000000000000000, 0.000000000000000000 ) ) ;
#89 = DIRECTION ( 'NONE',  ( 0.000000000000000000, 1.000000000000000000, 0.000000000000000000 ) ) ;
#90 = DIRECTION ( 'NONE',  ( 3.078612664085840037E-15, 0.000000000000000000, 1.000000000000000000 ) ) ;
#91 = DIRECTION ( 'NONE',  ( -9.124414482196663926E-17, 0.000000000000000000, 1.000000000000000000 ) ) ;
#92 = CC_DESIGN_DATE_AND_TIME_ASSIGNMENT ( #37, #59, ( #238 ) ) ;
#93 = CIRCLE ( 'NONE', #156, 28.15000000000000213 ) ;
#94 = DIRECTION ( 'NONE',  ( -1.000000000000000000, 0.000000000000000000, 3.078612664085839642E-15 ) ) ;
#95 = APPLICATION_PROTOCOL_DEFINITION ( 'international standard', 'config_control_design', 1994, #24 ) ;
#96 = COORDINATED_UNIVERSAL_TIME_OFFSET ( 1, 0, .AHEAD. ) ;
#97 = TOROIDAL_SURFACE ( 'NONE', #16, 51.00000000000000000, 28.15000000000000213 ) ;
#98 = APPROVAL_PERSON_ORGANIZATION ( #218, #158, #61 ) ;
#99 = EDGE_CURVE ( 'NONE', #129, #184, #62, .T. ) ;
#100 = SECURITY_CLASSIFICATION_LEVEL ( 'unclassified' ) ;
#101 = CALENDAR_DATE ( 2024, 27, 8 ) ;
#102 = APPROVAL ( #191, 'UNSPECIFIED' ) ;
#103 = CIRCLE ( 'NONE', #196, 79.14999999999999147 ) ;
#104 = CARTESIAN_POINT ( 'NONE',  ( 0.000000000000000000, 0.000000000000000000, 0.000000000000000000 ) ) ;
#105 = ORIENTED_EDGE ( 'NONE', *, *, #114, .T. ) ;
#106 = CARTESIAN_POINT ( 'NONE',  ( -79.14999999999999147, 0.000000000000000000, -7.221974062658659399E-15 ) ) ;
#107 = ADVANCED_FACE ( 'NONE', ( #51 ), #130, .T. ) ;
#108 = AXIS2_PLACEMENT_3D ( 'NONE', #115, #57, #7 ) ;
#109 = ORIENTED_EDGE ( 'NONE', *, *, #178, .T. ) ;
#110 = ORIENTED_EDGE ( 'NONE', *, *, #127, .F. ) ;
#111 = FACE_BOUND ( 'NONE', #128, .T. ) ;
#112 = CARTESIAN_POINT ( 'NONE',  ( -81.15000000000000568, 0.000000000000000000, -1.211955897985955618E-14 ) ) ;
#113 = CARTESIAN_POINT ( 'NONE',  ( -51.00000000000000000, 0.000000000000000000, -9.368548013477262500E-15 ) ) ;
#114 = EDGE_CURVE ( 'NONE', #147, #86, #153, .T. ) ;
#115 = CARTESIAN_POINT ( 'NONE',  ( -1.570092458683778147E-13, 0.000000000000000000, -51.00000000000000000 ) ) ;
#116 = FACE_OUTER_BOUND ( 'NONE', #239, .T. ) ;
#117 = PERSON_AND_ORGANIZATION ( #201, #139 ) ;
#118 = APPROVAL_DATE_TIME ( #20, #36 ) ;
#119 = AXIS2_PLACEMENT_3D ( 'NONE', #230, #5, #8 ) ;
#120 = AXIS2_PLACEMENT_3D ( 'NONE', #25, #236, #87 ) ;
#121 =( NAMED_UNIT ( * ) SI_UNIT ( $, .STERADIAN. ) SOLID_ANGLE_UNIT ( ) );
#122 = COORDINATED_UNIVERSAL_TIME_OFFSET ( 1, 0, .AHEAD. ) ;
#123 = ORIENTED_EDGE ( 'NONE', *, *, #240, .T. ) ;
#124 = CIRCLE ( 'NONE', #108, 28.15000000000000213 ) ;
#125 = CC_DESIGN_PERSON_AND_ORGANIZATION_ASSIGNMENT ( #192, #214, ( #232 ) ) ;
#126 = EDGE_LOOP ( 'NONE', ( #105, #68, #161, #46 ) ) ;
#127 = EDGE_CURVE ( 'NONE', #69, #1, #124, .T. ) ;
#128 = EDGE_LOOP ( 'NONE', ( #241, #237 ) ) ;
#129 = VERTEX_POINT ( 'NONE', #112 ) ;
#130 = TOROIDAL_SURFACE ( 'NONE', #11, 51.00000000000000000, 30.14999999999999858 ) ;
#131 = ORIENTED_EDGE ( 'NONE', *, *, #9, .F. ) ;
#132 = ADVANCED_FACE ( 'NONE', ( #111, #206 ), #185, .T. ) ;
#133 = DIRECTION ( 'NONE',  ( -1.000000000000000000, 0.000000000000000000, 3.078612664085839642E-15 ) ) ;
#134 = CARTESIAN_POINT ( 'NONE',  ( -51.00000000000000000, 0.000000000000000000, -9.368548013477262500E-15 ) ) ;
#135 = AXIS2_PLACEMENT_3D ( 'NONE', #190, #89, #208 ) ;
#136 = DIRECTION ( 'NONE',  ( 0.000000000000000000, 1.000000000000000000, 0.000000000000000000 ) ) ;
#137 = EDGE_CURVE ( 'NONE', #86, #147, #26, .T. ) ;
#138 = DIRECTION ( 'NONE',  ( 1.000000000000000000, 0.000000000000000000, 9.124414482196665159E-17 ) ) ;
#139 = ORGANIZATION ( 'UNSPECIFIED', 'UNSPECIFIED', '' ) ;
#140 = APPROVAL_DATE_TIME ( #174, #158 ) ;
#141 = CC_DESIGN_PERSON_AND_ORGANIZATION_ASSIGNMENT ( #77, #213, ( #238 ) ) ;
#142 = PERSON_AND_ORGANIZATION_ROLE ( 'creator' ) ;
#143 = AXIS2_PLACEMENT_3D ( 'NONE', #244, #136, #229 ) ;
#144 = AXIS2_PLACEMENT_3D ( 'NONE', #73, #152, #35 ) ;
#145 = COORDINATED_UNIVERSAL_TIME_OFFSET ( 1, 0, .AHEAD. ) ;
#146 = CARTESIAN_POINT ( 'NONE',  ( -7.034629937436141646E-14, 0.000000000000000000, -22.84999999999999432 ) ) ;
#147 = VERTEX_POINT ( 'NONE', #187 ) ;
#148 = ORIENTED_EDGE ( 'NONE', *, *, #169, .T. ) ;
#149 = DIRECTION ( 'NONE',  ( 0.000000000000000000, 1.000000000000000000, 0.000000000000000000 ) ) ;
#150 = ADVANCED_FACE ( 'NONE', ( #245 ), #63, .T. ) ;
#151 = DIRECTION ( 'NONE',  ( -9.124414482196663926E-17, 0.000000000000000000, 1.000000000000000000 ) ) ;
#152 = DIRECTION ( 'NONE',  ( -9.124414482196663926E-17, 0.000000000000000000, 1.000000000000000000 ) ) ;
#153 = CIRCLE ( 'NONE', #44, 30.14999999999999858 ) ;
#154 = DIRECTION ( 'NONE',  ( 0.000000000000000000, 0.000000000000000000, 1.000000000000000000 ) ) ;
#155 = CC_DESIGN_PERSON_AND_ORGANIZATION_ASSIGNMENT ( #12, #38, ( #70 ) ) ;
#156 = AXIS2_PLACEMENT_3D ( 'NONE', #74, #151, #227 ) ;
#157 = APPROVAL_STATUS ( 'not_yet_approved' ) ;
#158 = APPROVAL ( #41, 'UNSPECIFIED' ) ;
#159 = APPLICATION_PROTOCOL_DEFINITION ( 'international standard', 'config_control_design', 1994, #43 ) ;
#160 = DATE_AND_TIME ( #82, #17 ) ;
#161 = ORIENTED_EDGE ( 'NONE', *, *, #240, .F. ) ;
#162 = DIRECTION ( 'NONE',  ( 0.000000000000000000, 0.000000000000000000, 1.000000000000000000 ) ) ;
#163 = CARTESIAN_POINT ( 'NONE',  ( -2.436721923623942381E-13, 0.000000000000000000, -79.14999999999999147 ) ) ;
#164 = EDGE_LOOP ( 'NONE', ( #131, #49, #198, #183 ) ) ;
#165 = DIRECTION ( 'NONE',  ( 0.000000000000000000, 1.000000000000000000, 0.000000000000000000 ) ) ;
#166 = CARTESIAN_POINT ( 'NONE',  ( -2.451143210630089089E-13, 0.000000000000000000, -81.15000000000000568 ) ) ;
#167 = UNCERTAINTY_MEASURE_WITH_UNIT (LENGTH_MEASURE( 1.000000000000000082E-05 ), #56, 'distance_accuracy_value', 'NONE');
#168 = DIRECTION ( 'NONE',  ( -9.124414482196663926E-17, 0.000000000000000000, 1.000000000000000000 ) ) ;
#169 = EDGE_CURVE ( 'NONE', #23, #203, #83, .T. ) ;
#170 = CARTESIAN_POINT ( 'NONE',  ( -20.84999999999999787, 0.000000000000000000, -6.617537047094967241E-15 ) ) ;
#171 = ADVANCED_FACE ( 'NONE', ( #116 ), #221, .F. ) ;
#172 = DIRECTION ( 'NONE',  ( 1.000000000000000000, 0.000000000000000000, 9.124414482196665159E-17 ) ) ;
#173 = CARTESIAN_POINT ( 'NONE',  ( 0.000000000000000000, 0.000000000000000000, 0.000000000000000000 ) ) ;
#174 = DATE_AND_TIME ( #101, #204 ) ;
#175 = SHAPE_DEFINITION_REPRESENTATION ( #50, #188 ) ;
#176 = AXIS2_PLACEMENT_3D ( 'NONE', #52, #75, #90 ) ;
#177 = CALENDAR_DATE ( 2024, 27, 8 ) ;
#178 = EDGE_CURVE ( 'NONE', #203, #23, #93, .T. ) ;
#179 = PERSON_AND_ORGANIZATION ( #201, #139 ) ;
#180 = EDGE_CURVE ( 'NONE', #1, #69, #189, .T. ) ;
#181 = ORIENTED_EDGE ( 'NONE', *, *, #21, .T. ) ;
#182 = CARTESIAN_POINT ( 'NONE',  ( 0.000000000000000000, 0.000000000000000000, 0.000000000000000000 ) ) ;
#183 = ORIENTED_EDGE ( 'NONE', *, *, #99, .F. ) ;
#184 = VERTEX_POINT ( 'NONE', #170 ) ;
#185 = PLANE ( 'NONE',  #85 ) ;
#186 = LOCAL_TIME ( 13, 6, 43.00000000000000000, #145 ) ;
#187 = CARTESIAN_POINT ( 'NONE',  ( -5.947397741863278866E-14, 0.000000000000000000, -20.84999999999999787 ) ) ;
#188 = ADVANCED_BREP_SHAPE_REPRESENTATION ( '3D_R1620_60.3x2_173630140_173631130', ( #220, #193 ), #252 ) ;
#189 = CIRCLE ( 'NONE', #176, 28.15000000000000213 ) ;
#190 = CARTESIAN_POINT ( 'NONE',  ( 0.000000000000000000, 0.000000000000000000, 0.000000000000000000 ) ) ;
#191 = APPROVAL_STATUS ( 'not_yet_approved' ) ;
#192 = PERSON_AND_ORGANIZATION ( #201, #139 ) ;
#193 = AXIS2_PLACEMENT_3D ( 'NONE', #217, #81, #248 ) ;
#194 = APPROVAL_ROLE ( '' ) ;
#195 = PERSON_AND_ORGANIZATION ( #201, #139 ) ;
#196 = AXIS2_PLACEMENT_3D ( 'NONE', #2, #165, #205 ) ;
#197 = LOCAL_TIME ( 13, 6, 43.00000000000000000, #96 ) ;
#198 = ORIENTED_EDGE ( 'NONE', *, *, #14, .T. ) ;
#199 = ORIENTED_EDGE ( 'NONE', *, *, #127, .T. ) ;
#200 = ORIENTED_EDGE ( 'NONE', *, *, #137, .F. ) ;
#201 = PERSON ( 'UNSPECIFIED', 'UNSPECIFIED', 'UNSPECIFIED', ('UNSPECIFIED'), ('UNSPECIFIED'), ('UNSPECIFIED') ) ;
#202 = AXIS2_PLACEMENT_3D ( 'NONE', #134, #168, #138 ) ;
#203 = VERTEX_POINT ( 'NONE', #54 ) ;
#204 = LOCAL_TIME ( 13, 6, 43.00000000000000000, #122 ) ;
#205 = DIRECTION ( 'NONE',  ( 0.000000000000000000, 0.000000000000000000, 1.000000000000000000 ) ) ;
#206 = FACE_OUTER_BOUND ( 'NONE', #47, .T. ) ;
#207 = PRODUCT_DEFINITION ( 'UNKNOWN', '', #232, #249 ) ;
#208 = DIRECTION ( 'NONE',  ( 0.000000000000000000, 0.000000000000000000, 1.000000000000000000 ) ) ;
#209 = AXIS2_PLACEMENT_3D ( 'NONE', #104, #149, #253 ) ;
#210 = CARTESIAN_POINT ( 'NONE',  ( 0.000000000000000000, 0.000000000000000000, 0.000000000000000000 ) ) ;
#211 = DIRECTION ( 'NONE',  ( 3.078612664085839642E-15, 0.000000000000000000, 1.000000000000000000 ) ) ;
#212 = AXIS2_PLACEMENT_3D ( 'NONE', #113, #91, #172 ) ;
#213 = PERSON_AND_ORGANIZATION_ROLE ( 'classification_officer' ) ;
#214 = PERSON_AND_ORGANIZATION_ROLE ( 'creator' ) ;
#215 = CIRCLE ( 'NONE', #143, 22.84999999999999432 ) ;
#216 = CC_DESIGN_APPROVAL ( #102, ( #238 ) ) ;
#217 = CARTESIAN_POINT ( 'NONE',  ( 0.000000000000000000, 0.000000000000000000, 0.000000000000000000 ) ) ;
#218 = PERSON_AND_ORGANIZATION ( #201, #139 ) ;
#219 = ORIENTED_EDGE ( 'NONE', *, *, #80, .F. ) ;
#220 = MANIFOLD_SOLID_BREP ( 'Wandung1', #22 ) ;
#221 = TOROIDAL_SURFACE ( 'NONE', #135, 51.00000000000000000, 28.15000000000000213 ) ;
#222 = ORIENTED_EDGE ( 'NONE', *, *, #99, .T. ) ;
#223 = ORIENTED_EDGE ( 'NONE', *, *, #180, .F. ) ;
#224 = ORIENTED_EDGE ( 'NONE', *, *, #80, .T. ) ;
#225 = APPROVAL_PERSON_ORGANIZATION ( #195, #36, #194 ) ;
#226 = DIRECTION ( 'NONE',  ( 0.000000000000000000, 0.000000000000000000, 1.000000000000000000 ) ) ;
#227 = DIRECTION ( 'NONE',  ( 1.000000000000000000, 0.000000000000000000, 9.124414482196662693E-17 ) ) ;
#228 = CARTESIAN_POINT ( 'NONE',  ( -1.522941492408208362E-13, 0.000000000000000000, -51.00000000000000000 ) ) ;
#229 = DIRECTION ( 'NONE',  ( 0.000000000000000000, 0.000000000000000000, 1.000000000000000000 ) ) ;
#230 = CARTESIAN_POINT ( 'NONE',  ( -1.522941492408208362E-13, 0.000000000000000000, -51.00000000000000000 ) ) ;
#231 = PERSON_AND_ORGANIZATION ( #201, #139 ) ;
#232 = PRODUCT_DEFINITION_FORMATION_WITH_SPECIFIED_SOURCE ( 'ANY', '', #70, .NOT_KNOWN. ) ;
#233 = CALENDAR_DATE ( 2024, 27, 8 ) ;
#234 = CIRCLE ( 'NONE', #120, 20.84999999999999787 ) ;
#235 = APPROVAL_PERSON_ORGANIZATION ( #117, #102, #64 ) ;
#236 = DIRECTION ( 'NONE',  ( 0.000000000000000000, 1.000000000000000000, 0.000000000000000000 ) ) ;
#237 = ORIENTED_EDGE ( 'NONE', *, *, #169, .F. ) ;
#238 = SECURITY_CLASSIFICATION ( '', '', #100 ) ;
#239 = EDGE_LOOP ( 'NONE', ( #223, #181, #148, #219 ) ) ;
#240 = EDGE_CURVE ( 'NONE', #184, #129, #67, .T. ) ;
#241 = ORIENTED_EDGE ( 'NONE', *, *, #178, .F. ) ;
#242 = DIRECTION ( 'NONE',  ( 3.078612664085839642E-15, 0.000000000000000000, 1.000000000000000000 ) ) ;
#243 = CARTESIAN_POINT ( 'NONE',  ( -51.00000000000000000, 0.000000000000000000, -9.368548013477262500E-15 ) ) ;
#244 = CARTESIAN_POINT ( 'NONE',  ( 0.000000000000000000, -3.447380739599799706E-15, 0.000000000000000000 ) ) ;
#245 = FACE_OUTER_BOUND ( 'NONE', #126, .T. ) ;
#246 = CC_DESIGN_APPROVAL ( #158, ( #232 ) ) ;
#247 = DIRECTION ( 'NONE',  ( -9.124414482196663926E-17, 0.000000000000000000, 1.000000000000000000 ) ) ;
#248 = DIRECTION ( 'NONE',  ( 1.000000000000000000, 0.000000000000000000, 0.000000000000000000 ) ) ;
#249 = DESIGN_CONTEXT ( 'detailed design', #24, 'design' ) ;
#250 = COORDINATED_UNIVERSAL_TIME_OFFSET ( 1, 0, .AHEAD. ) ;
#251 = PERSON_AND_ORGANIZATION_ROLE ( 'design_supplier' ) ;
#252 =( GEOMETRIC_REPRESENTATION_CONTEXT ( 3 ) GLOBAL_UNCERTAINTY_ASSIGNED_CONTEXT ( ( #167 ) ) GLOBAL_UNIT_ASSIGNED_CONTEXT ( ( #56, #10, #121 ) ) REPRESENTATION_CONTEXT ( 'NONE', 'WORKASPACE' ) );
#253 = DIRECTION ( 'NONE',  ( 0.000000000000000000, 0.000000000000000000, 1.000000000000000000 ) ) ;
ENDSEC;
END-ISO-10303-21;
