ISO-10303-21;
HEADER;
FILE_DESCRIPTION (( 'STEP AP203' ),
    '1' );
FILE_NAME ('3D_R169_ DN38-20_17323182.STEP',
    '2024-07-17T12:12:45',
    ( '' ),
    ( '' ),
    'SwSTEP 2.0',
    'SolidWorks 2024',
    '' );
FILE_SCHEMA (( 'CONFIG_CONTROL_DESIGN' ));
ENDSEC;

DATA;
#1 = FACE_BOUND ( 'NONE', #72, .T. ) ;
#2 = CARTESIAN_POINT ( 'NONE',  ( 0.000000000000000000, -1.163414459189985091E-15, 18.99999999999999645 ) ) ;
#3 = CIRCLE ( 'NONE', #18, 7.972412489900592369 ) ;
#4 = EDGE_CURVE ( 'NONE', #76, #210, #134, .T. ) ;
#5 = CARTESIAN_POINT ( 'NONE',  ( 0.000000000000000000, 0.000000000000000000, 0.000000000000000000 ) ) ;
#6 = DIRECTION ( 'NONE',  ( 1.000000000000000000, 0.000000000000000000, 0.000000000000000000 ) ) ;
#7 = AXIS2_PLACEMENT_3D ( 'NONE', #195, #247, #189 ) ;
#8 = PERSON_AND_ORGANIZATION ( #130, #65 ) ;
#9 = COORDINATED_UNIVERSAL_TIME_OFFSET ( 1, 0, .AHEAD. ) ;
#10 = DATE_TIME_ROLE ( 'creation_date' ) ;
#11 = LOCAL_TIME ( 14, 12, 45.00000000000000000, #29 ) ;
#12 = EDGE_CURVE ( 'NONE', #97, #146, #232, .T. ) ;
#13 = PRODUCT ( '3D_R169_ DN38-20_17323182', '3D_R169_ DN38-20_17323182', '', ( #22 ) ) ;
#14 = ORIENTED_EDGE ( 'NONE', *, *, #25, .F. ) ;
#15 = DIRECTION ( 'NONE',  ( -0.9863939238321437486, 2.013306935865721379E-17, -0.1643989873053572637 ) ) ;
#16 = ORIENTED_EDGE ( 'NONE', *, *, #111, .F. ) ;
#17 = CARTESIAN_POINT ( 'NONE',  ( 53.67120202538928453, 0.000000000000000000, 8.027212152335712503 ) ) ;
#18 = AXIS2_PLACEMENT_3D ( 'NONE', #249, #133, #131 ) ;
#19 = ORIENTED_EDGE ( 'NONE', *, *, #166, .T. ) ;
#20 = DESIGN_CONTEXT ( 'detailed design', #208, 'design' ) ;
#21 = CARTESIAN_POINT ( 'NONE',  ( 54.00000000000000000, 0.000000000000000000, 0.000000000000000000 ) ) ;
#22 = MECHANICAL_CONTEXT ( 'NONE', #231, 'mechanical' ) ;
#23 = AXIS2_PLACEMENT_3D ( 'NONE', #127, #132, #175 ) ;
#24 = DIRECTION ( 'NONE',  ( 0.000000000000000000, 0.000000000000000000, -1.000000000000000000 ) ) ;
#25 = EDGE_CURVE ( 'NONE', #245, #148, #70, .T. ) ;
#26 = FACE_OUTER_BOUND ( 'NONE', #209, .T. ) ;
#27 = PERSON_AND_ORGANIZATION_ROLE ( 'design_owner' ) ;
#28 = APPROVAL_DATE_TIME ( #120, #116 ) ;
#29 = COORDINATED_UNIVERSAL_TIME_OFFSET ( 1, 0, .AHEAD. ) ;
#30 = EDGE_CURVE ( 'NONE', #146, #148, #128, .T. ) ;
#31 = APPROVAL_PERSON_ORGANIZATION ( #145, #116, #186 ) ;
#32 = PERSON_AND_ORGANIZATION ( #130, #65 ) ;
#33 = VERTEX_POINT ( 'NONE', #93 ) ;
#34 = DIRECTION ( 'NONE',  ( -0.9863939238321437486, 0.000000000000000000, 0.1643989873053572637 ) ) ;
#35 = ORIENTED_EDGE ( 'NONE', *, *, #94, .F. ) ;
#36 = CONICAL_SURFACE ( 'NONE', #241, 8.027212152335712503, 0.1651486774146267988 ) ;
#37 = ORIENTED_EDGE ( 'NONE', *, *, #25, .T. ) ;
#38 = CARTESIAN_POINT ( 'NONE',  ( 53.67120202538928453, 9.830499668434666417E-16, -8.027212152335712503 ) ) ;
#39 = EDGE_CURVE ( 'NONE', #97, #245, #150, .T. ) ;
#40 = DIRECTION ( 'NONE',  ( 0.000000000000000000, 0.000000000000000000, -1.000000000000000000 ) ) ;
#41 = CIRCLE ( 'NONE', #215, 10.00000000000000000 ) ;
#42 = DIRECTION ( 'NONE',  ( 1.000000000000000000, 0.000000000000000000, 0.000000000000000000 ) ) ;
#43 = DIRECTION ( 'NONE',  ( 0.000000000000000000, 0.000000000000000000, 1.000000000000000000 ) ) ;
#44 = DIRECTION ( 'NONE',  ( -1.000000000000000000, -0.000000000000000000, -0.000000000000000000 ) ) ;
#45 = VECTOR ( 'NONE', #218, 1000.000000000000000 ) ;
#46 = APPROVAL_PERSON_ORGANIZATION ( #204, #187, #49 ) ;
#47 = DIRECTION ( 'NONE',  ( -1.000000000000000000, -0.000000000000000000, -0.000000000000000000 ) ) ;
#48 = DIRECTION ( 'NONE',  ( 0.000000000000000000, 0.000000000000000000, 1.000000000000000000 ) ) ;
#49 = APPROVAL_ROLE ( '' ) ;
#50 = CONICAL_SURFACE ( 'NONE', #223, 8.027212152335712503, 0.1651486774146267988 ) ;
#51 = EDGE_CURVE ( 'NONE', #146, #97, #3, .T. ) ;
#52 = VERTEX_POINT ( 'NONE', #98 ) ;
#53 = ORIENTED_EDGE ( 'NONE', *, *, #12, .F. ) ;
#54 = CC_DESIGN_DATE_AND_TIME_ASSIGNMENT ( #90, #243, ( #248 ) ) ;
#55 = ORIENTED_EDGE ( 'NONE', *, *, #39, .T. ) ;
#56 = AXIS2_PLACEMENT_3D ( 'NONE', #61, #159, #24 ) ;
#57 = DIRECTION ( 'NONE',  ( 0.000000000000000000, 0.000000000000000000, -1.000000000000000000 ) ) ;
#58 = ADVANCED_FACE ( 'NONE', ( #153, #172 ), #229, .F. ) ;
#59 = CARTESIAN_POINT ( 'NONE',  ( 0.000000000000000000, 0.000000000000000000, 0.000000000000000000 ) ) ;
#60 = UNCERTAINTY_MEASURE_WITH_UNIT (LENGTH_MEASURE( 1.000000000000000082E-05 ), #197, 'distance_accuracy_value', 'NONE');
#61 = CARTESIAN_POINT ( 'NONE',  ( 54.00000000000000000, 0.000000000000000000, 0.000000000000000000 ) ) ;
#62 = CC_DESIGN_APPROVAL ( #154, ( #234 ) ) ;
#63 = FACE_OUTER_BOUND ( 'NONE', #213, .T. ) ;
#64 = DIRECTION ( 'NONE',  ( 0.000000000000000000, 0.000000000000000000, -1.000000000000000000 ) ) ;
#65 = ORGANIZATION ( 'UNSPECIFIED', 'UNSPECIFIED', '' ) ;
#66 = CARTESIAN_POINT ( 'NONE',  ( 54.00000000000000000, 1.224646799147353256E-15, -10.00000000000000000 ) ) ;
#67 = CALENDAR_DATE ( 2024, 17, 7 ) ;
#68 = CC_DESIGN_PERSON_AND_ORGANIZATION_ASSIGNMENT ( #86, #169, ( #248 ) ) ;
#69 = PERSON_AND_ORGANIZATION_ROLE ( 'creator' ) ;
#70 = CIRCLE ( 'NONE', #23, 16.97241248990059148 ) ;
#71 = APPROVAL_DATE_TIME ( #201, #187 ) ;
#72 = EDGE_LOOP ( 'NONE', ( #53, #149 ) ) ;
#73 = AXIS2_PLACEMENT_3D ( 'NONE', #5, #235, #135 ) ;
#74 = ORIENTED_EDGE ( 'NONE', *, *, #39, .F. ) ;
#75 = CC_DESIGN_PERSON_AND_ORGANIZATION_ASSIGNMENT ( #8, #123, ( #219 ) ) ;
#76 = VERTEX_POINT ( 'NONE', #113 ) ;
#77 = AXIS2_PLACEMENT_3D ( 'NONE', #21, #42, #64 ) ;
#78 = CARTESIAN_POINT ( 'NONE',  ( 54.00000000000000000, 0.000000000000000000, 0.000000000000000000 ) ) ;
#79 = ORIENTED_EDGE ( 'NONE', *, *, #111, .T. ) ;
#80 = CARTESIAN_POINT ( 'NONE',  ( 54.00000000000000000, 0.000000000000000000, 10.00000000000000000 ) ) ;
#81 = DIRECTION ( 'NONE',  ( 1.000000000000000000, 0.000000000000000000, 0.000000000000000000 ) ) ;
#82 = LINE ( 'NONE', #66, #45 ) ;
#83 = CARTESIAN_POINT ( 'NONE',  ( 54.00000000000000000, 0.000000000000000000, 7.972412489900592369 ) ) ;
#84 = ADVANCED_FACE ( 'NONE', ( #1, #107 ), #188, .T. ) ;
#85 = CARTESIAN_POINT ( 'NONE',  ( 53.67120202538928453, 0.000000000000000000, 0.000000000000000000 ) ) ;
#86 = PERSON_AND_ORGANIZATION ( #130, #65 ) ;
#87 = APPROVAL_DATE_TIME ( #183, #154 ) ;
#88 = DATE_AND_TIME ( #222, #151 ) ;
#89 = CONICAL_SURFACE ( 'NONE', #96, 10.00000000000000000, 0.1651486774146267988 ) ;
#90 = DATE_AND_TIME ( #67, #140 ) ;
#91 = AXIS2_PLACEMENT_3D ( 'NONE', #78, #228, #57 ) ;
#92 = ORIENTED_EDGE ( 'NONE', *, *, #198, .T. ) ;
#93 = CARTESIAN_POINT ( 'NONE',  ( 54.00000000000000000, 6.123233995736766282E-16, 10.00000000000000000 ) ) ;
#94 = EDGE_CURVE ( 'NONE', #33, #52, #41, .T. ) ;
#95 = EDGE_LOOP ( 'NONE', ( #16, #225 ) ) ;
#96 = AXIS2_PLACEMENT_3D ( 'NONE', #181, #44, #43 ) ;
#97 = VERTEX_POINT ( 'NONE', #83 ) ;
#98 = CARTESIAN_POINT ( 'NONE',  ( 54.00000000000000000, 6.123233995736766282E-16, -10.00000000000000000 ) ) ;
#99 = CARTESIAN_POINT ( 'NONE',  ( 0.000000000000000000, 2.078521062956531856E-15, -16.97241248990059148 ) ) ;
#100 = CIRCLE ( 'NONE', #77, 10.00000000000000000 ) ;
#101 = CC_DESIGN_DATE_AND_TIME_ASSIGNMENT ( #88, #10, ( #234 ) ) ;
#102 = DIRECTION ( 'NONE',  ( 0.000000000000000000, 0.000000000000000000, -1.000000000000000000 ) ) ;
#103 = APPROVAL_STATUS ( 'not_yet_approved' ) ;
#104 = COORDINATED_UNIVERSAL_TIME_OFFSET ( 1, 0, .AHEAD. ) ;
#105 = LOCAL_TIME ( 14, 12, 45.00000000000000000, #9 ) ;
#106 = APPROVAL_STATUS ( 'not_yet_approved' ) ;
#107 = FACE_OUTER_BOUND ( 'NONE', #171, .T. ) ;
#108 = AXIS2_PLACEMENT_3D ( 'NONE', #138, #47, #158 ) ;
#109 = ORIENTED_EDGE ( 'NONE', *, *, #12, .T. ) ;
#110 = ORIENTED_EDGE ( 'NONE', *, *, #94, .T. ) ;
#111 = EDGE_CURVE ( 'NONE', #210, #76, #182, .T. ) ;
#112 = CLOSED_SHELL ( 'NONE', ( #212, #221, #84, #58, #174, #144 ) ) ;
#113 = CARTESIAN_POINT ( 'NONE',  ( 0.000000000000000000, 3.490243377569955667E-15, -18.99999999999999645 ) ) ;
#114 = CARTESIAN_POINT ( 'NONE',  ( 0.000000000000000000, 0.000000000000000000, 0.000000000000000000 ) ) ;
#115 = DIRECTION ( 'NONE',  ( 0.000000000000000000, 0.000000000000000000, -1.000000000000000000 ) ) ;
#116 = APPROVAL ( #167, 'UNSPECIFIED' ) ;
#117 = FACE_OUTER_BOUND ( 'NONE', #168, .T. ) ;
#118 = APPROVAL_PERSON_ORGANIZATION ( #184, #154, #224 ) ;
#119 = EDGE_CURVE ( 'NONE', #148, #245, #156, .T. ) ;
#120 = DATE_AND_TIME ( #203, #205 ) ;
#121 = ADVANCED_BREP_SHAPE_REPRESENTATION ( '3D_R169_ DN38-20_17323182', ( #200, #170 ), #178 ) ;
#122 = AXIS2_PLACEMENT_3D ( 'NONE', #59, #214, #40 ) ;
#123 = PERSON_AND_ORGANIZATION_ROLE ( 'design_supplier' ) ;
#124 = EDGE_CURVE ( 'NONE', #52, #33, #100, .T. ) ;
#125 = PERSON_AND_ORGANIZATION ( #130, #65 ) ;
#126 = ORIENTED_EDGE ( 'NONE', *, *, #119, .F. ) ;
#127 = CARTESIAN_POINT ( 'NONE',  ( 0.000000000000000000, 0.000000000000000000, 0.000000000000000000 ) ) ;
#128 = LINE ( 'NONE', #38, #147 ) ;
#129 = PRODUCT_DEFINITION_SHAPE ( 'NONE', 'NONE',  #234 ) ;
#130 = PERSON ( 'UNSPECIFIED', 'UNSPECIFIED', 'UNSPECIFIED', ('UNSPECIFIED'), ('UNSPECIFIED'), ('UNSPECIFIED') ) ;
#131 = DIRECTION ( 'NONE',  ( 0.000000000000000000, 0.000000000000000000, -1.000000000000000000 ) ) ;
#132 = DIRECTION ( 'NONE',  ( 1.000000000000000000, 0.000000000000000000, 0.000000000000000000 ) ) ;
#133 = DIRECTION ( 'NONE',  ( 1.000000000000000000, 0.000000000000000000, 0.000000000000000000 ) ) ;
#134 = CIRCLE ( 'NONE', #7, 19.00000000000000000 ) ;
#135 = DIRECTION ( 'NONE',  ( 0.000000000000000000, 0.000000000000000000, -1.000000000000000000 ) ) ;
#136 = PRODUCT_RELATED_PRODUCT_CATEGORY ( 'detail', '', ( #13 ) ) ;
#137 =( NAMED_UNIT ( * ) SI_UNIT ( $, .STERADIAN. ) SOLID_ANGLE_UNIT ( ) );
#138 = CARTESIAN_POINT ( 'NONE',  ( 54.00000000000000000, 0.000000000000000000, 0.000000000000000000 ) ) ;
#139 = LINE ( 'NONE', #80, #202 ) ;
#140 = LOCAL_TIME ( 14, 12, 45.00000000000000000, #104 ) ;
#141 = APPLICATION_PROTOCOL_DEFINITION ( 'international standard', 'config_control_design', 1994, #208 ) ;
#142 = AXIS2_PLACEMENT_3D ( 'NONE', #114, #237, #115 ) ;
#143 = SHAPE_DEFINITION_REPRESENTATION ( #129, #121 ) ;
#144 = ADVANCED_FACE ( 'NONE', ( #63 ), #50, .F. ) ;
#145 = PERSON_AND_ORGANIZATION ( #130, #65 ) ;
#146 = VERTEX_POINT ( 'NONE', #157 ) ;
#147 = VECTOR ( 'NONE', #15, 1000.000000000000000 ) ;
#148 = VERTEX_POINT ( 'NONE', #99 ) ;
#149 = ORIENTED_EDGE ( 'NONE', *, *, #51, .F. ) ;
#150 = LINE ( 'NONE', #17, #165 ) ;
#151 = LOCAL_TIME ( 14, 12, 45.00000000000000000, #206 ) ;
#152 = ORIENTED_EDGE ( 'NONE', *, *, #124, .F. ) ;
#153 = FACE_BOUND ( 'NONE', #193, .T. ) ;
#154 = APPROVAL ( #106, 'UNSPECIFIED' ) ;
#155 = CARTESIAN_POINT ( 'NONE',  ( 0.000000000000000000, 0.000000000000000000, 16.97241248990059148 ) ) ;
#156 = CIRCLE ( 'NONE', #73, 16.97241248990059148 ) ;
#157 = CARTESIAN_POINT ( 'NONE',  ( 54.00000000000000000, 1.527430003340223098E-15, -7.972412489900592369 ) ) ;
#158 = DIRECTION ( 'NONE',  ( 0.000000000000000000, 0.000000000000000000, 1.000000000000000000 ) ) ;
#159 = DIRECTION ( 'NONE',  ( 1.000000000000000000, 0.000000000000000000, 0.000000000000000000 ) ) ;
#160 = FACE_OUTER_BOUND ( 'NONE', #246, .T. ) ;
#161 = CC_DESIGN_APPROVAL ( #116, ( #248 ) ) ;
#162 = CALENDAR_DATE ( 2024, 17, 7 ) ;
#163 = PERSON_AND_ORGANIZATION_ROLE ( 'creator' ) ;
#164 = CALENDAR_DATE ( 2024, 17, 7 ) ;
#165 = VECTOR ( 'NONE', #34, 1000.000000000000000 ) ;
#166 = EDGE_CURVE ( 'NONE', #33, #210, #139, .T. ) ;
#167 = APPROVAL_STATUS ( 'not_yet_approved' ) ;
#168 = EDGE_LOOP ( 'NONE', ( #152, #92, #226, #207 ) ) ;
#169 = PERSON_AND_ORGANIZATION_ROLE ( 'classification_officer' ) ;
#170 = AXIS2_PLACEMENT_3D ( 'NONE', #180, #48, #6 ) ;
#171 = EDGE_LOOP ( 'NONE', ( #110, #211 ) ) ;
#172 = FACE_OUTER_BOUND ( 'NONE', #95, .T. ) ;
#173 = ORIENTED_EDGE ( 'NONE', *, *, #198, .F. ) ;
#174 = ADVANCED_FACE ( 'NONE', ( #160 ), #236, .T. ) ;
#175 = DIRECTION ( 'NONE',  ( 0.000000000000000000, 0.000000000000000000, -1.000000000000000000 ) ) ;
#176 = ORIENTED_EDGE ( 'NONE', *, *, #51, .T. ) ;
#177 =( NAMED_UNIT ( * ) PLANE_ANGLE_UNIT ( ) SI_UNIT ( $, .RADIAN. ) );
#178 =( GEOMETRIC_REPRESENTATION_CONTEXT ( 3 ) GLOBAL_UNCERTAINTY_ASSIGNED_CONTEXT ( ( #60 ) ) GLOBAL_UNIT_ASSIGNED_CONTEXT ( ( #197, #177, #137 ) ) REPRESENTATION_CONTEXT ( 'NONE', 'WORKASPACE' ) );
#179 = DIRECTION ( 'NONE',  ( -1.000000000000000000, -0.000000000000000000, -0.000000000000000000 ) ) ;
#180 = CARTESIAN_POINT ( 'NONE',  ( 0.000000000000000000, 0.000000000000000000, 0.000000000000000000 ) ) ;
#181 = CARTESIAN_POINT ( 'NONE',  ( 54.00000000000000000, 0.000000000000000000, 0.000000000000000000 ) ) ;
#182 = CIRCLE ( 'NONE', #142, 19.00000000000000000 ) ;
#183 = DATE_AND_TIME ( #162, #11 ) ;
#184 = PERSON_AND_ORGANIZATION ( #130, #65 ) ;
#185 = CC_DESIGN_APPROVAL ( #187, ( #219 ) ) ;
#186 = APPROVAL_ROLE ( '' ) ;
#187 = APPROVAL ( #103, 'UNSPECIFIED' ) ;
#188 = PLANE ( 'NONE',  #56 ) ;
#189 = DIRECTION ( 'NONE',  ( 0.000000000000000000, 0.000000000000000000, -1.000000000000000000 ) ) ;
#190 = CC_DESIGN_PERSON_AND_ORGANIZATION_ASSIGNMENT ( #32, #69, ( #219 ) ) ;
#191 = ORIENTED_EDGE ( 'NONE', *, *, #30, .T. ) ;
#192 = CC_DESIGN_PERSON_AND_ORGANIZATION_ASSIGNMENT ( #125, #163, ( #234 ) ) ;
#193 = EDGE_LOOP ( 'NONE', ( #37, #242 ) ) ;
#194 = CC_DESIGN_SECURITY_CLASSIFICATION ( #248, ( #219 ) ) ;
#195 = CARTESIAN_POINT ( 'NONE',  ( 0.000000000000000000, 0.000000000000000000, 0.000000000000000000 ) ) ;
#196 = DIRECTION ( 'NONE',  ( 0.000000000000000000, 0.000000000000000000, 1.000000000000000000 ) ) ;
#197 =( LENGTH_UNIT ( ) NAMED_UNIT ( * ) SI_UNIT ( .MILLI., .METRE. ) );
#198 = EDGE_CURVE ( 'NONE', #52, #76, #82, .T. ) ;
#199 = APPLICATION_PROTOCOL_DEFINITION ( 'international standard', 'config_control_design', 1994, #231 ) ;
#200 = MANIFOLD_SOLID_BREP ( 'Wandung2', #112 ) ;
#201 = DATE_AND_TIME ( #164, #105 ) ;
#202 = VECTOR ( 'NONE', #220, 1000.000000000000000 ) ;
#203 = CALENDAR_DATE ( 2024, 17, 7 ) ;
#204 = PERSON_AND_ORGANIZATION ( #130, #65 ) ;
#205 = LOCAL_TIME ( 14, 12, 45.00000000000000000, #238 ) ;
#206 = COORDINATED_UNIVERSAL_TIME_OFFSET ( 1, 0, .AHEAD. ) ;
#207 = ORIENTED_EDGE ( 'NONE', *, *, #166, .F. ) ;
#208 = APPLICATION_CONTEXT ( 'configuration controlled 3d designs of mechanical parts and assemblies' ) ;
#209 = EDGE_LOOP ( 'NONE', ( #109, #191, #14, #74 ) ) ;
#210 = VERTEX_POINT ( 'NONE', #2 ) ;
#211 = ORIENTED_EDGE ( 'NONE', *, *, #124, .T. ) ;
#212 = ADVANCED_FACE ( 'NONE', ( #26 ), #36, .F. ) ;
#213 = EDGE_LOOP ( 'NONE', ( #227, #176, #55, #126 ) ) ;
#214 = DIRECTION ( 'NONE',  ( 1.000000000000000000, 0.000000000000000000, 0.000000000000000000 ) ) ;
#215 = AXIS2_PLACEMENT_3D ( 'NONE', #216, #81, #102 ) ;
#216 = CARTESIAN_POINT ( 'NONE',  ( 54.00000000000000000, 0.000000000000000000, 0.000000000000000000 ) ) ;
#217 = DIRECTION ( 'NONE',  ( 0.000000000000000000, 0.000000000000000000, 1.000000000000000000 ) ) ;
#218 = DIRECTION ( 'NONE',  ( -0.9863939238321437486, 2.013306935865721379E-17, -0.1643989873053572637 ) ) ;
#219 = PRODUCT_DEFINITION_FORMATION_WITH_SPECIFIED_SOURCE ( 'ANY', '', #13, .NOT_KNOWN. ) ;
#220 = DIRECTION ( 'NONE',  ( -0.9863939238321437486, 0.000000000000000000, 0.1643989873053572637 ) ) ;
#221 = ADVANCED_FACE ( 'NONE', ( #117 ), #89, .T. ) ;
#222 = CALENDAR_DATE ( 2024, 17, 7 ) ;
#223 = AXIS2_PLACEMENT_3D ( 'NONE', #85, #179, #196 ) ;
#224 = APPROVAL_ROLE ( '' ) ;
#225 = ORIENTED_EDGE ( 'NONE', *, *, #4, .F. ) ;
#226 = ORIENTED_EDGE ( 'NONE', *, *, #4, .T. ) ;
#227 = ORIENTED_EDGE ( 'NONE', *, *, #30, .F. ) ;
#228 = DIRECTION ( 'NONE',  ( 1.000000000000000000, 0.000000000000000000, 0.000000000000000000 ) ) ;
#229 = PLANE ( 'NONE',  #122 ) ;
#230 = CARTESIAN_POINT ( 'NONE',  ( 53.67120202538928453, 0.000000000000000000, 0.000000000000000000 ) ) ;
#231 = APPLICATION_CONTEXT ( 'configuration controlled 3d designs of mechanical parts and assemblies' ) ;
#232 = CIRCLE ( 'NONE', #91, 7.972412489900592369 ) ;
#233 = DIRECTION ( 'NONE',  ( -1.000000000000000000, -0.000000000000000000, -0.000000000000000000 ) ) ;
#234 = PRODUCT_DEFINITION ( 'UNKNOWN', '', #219, #20 ) ;
#235 = DIRECTION ( 'NONE',  ( 1.000000000000000000, 0.000000000000000000, 0.000000000000000000 ) ) ;
#236 = CONICAL_SURFACE ( 'NONE', #108, 10.00000000000000000, 0.1651486774146267988 ) ;
#237 = DIRECTION ( 'NONE',  ( 1.000000000000000000, 0.000000000000000000, 0.000000000000000000 ) ) ;
#238 = COORDINATED_UNIVERSAL_TIME_OFFSET ( 1, 0, .AHEAD. ) ;
#239 = SECURITY_CLASSIFICATION_LEVEL ( 'unclassified' ) ;
#240 = PERSON_AND_ORGANIZATION ( #130, #65 ) ;
#241 = AXIS2_PLACEMENT_3D ( 'NONE', #230, #233, #217 ) ;
#242 = ORIENTED_EDGE ( 'NONE', *, *, #119, .T. ) ;
#243 = DATE_TIME_ROLE ( 'classification_date' ) ;
#244 = CC_DESIGN_PERSON_AND_ORGANIZATION_ASSIGNMENT ( #240, #27, ( #13 ) ) ;
#245 = VERTEX_POINT ( 'NONE', #155 ) ;
#246 = EDGE_LOOP ( 'NONE', ( #173, #35, #19, #79 ) ) ;
#247 = DIRECTION ( 'NONE',  ( 1.000000000000000000, 0.000000000000000000, 0.000000000000000000 ) ) ;
#248 = SECURITY_CLASSIFICATION ( '', '', #239 ) ;
#249 = CARTESIAN_POINT ( 'NONE',  ( 54.00000000000000000, 0.000000000000000000, 0.000000000000000000 ) ) ;
ENDSEC;
END-ISO-10303-21;
