ISO-10303-21;
HEADER;
FILE_DESCRIPTION (( 'STEP AP203' ),
    '1' );
FILE_NAME ('11-0232-01_outokumpu.step',
    '2015-08-11T14:05:48',
    ( '' ),
    ( '' ),
    'SwSTEP 2.0',
    'SolidWorks 2008',
    '' );
FILE_SCHEMA (( 'CONFIG_CONTROL_DESIGN' ));
ENDSEC;

DATA;
#1 = APPROVAL_DATE_TIME ( #223, #229 ) ;
#2 = CARTESIAN_POINT ( 'NONE',  ( 8.878396065212236100E-016, 7.250000000000000000, -3.073290945650392800E-016 ) ) ;
#3 = LINE ( 'NONE', #2, #5 ) ;
#4 = DIRECTION ( 'NONE',  ( -0.0000000000000000000, 4.239021994000541500E-017, 1.000000000000000000 ) ) ;
#5 = VECTOR ( 'NONE', #4, 1000.000000000000000 ) ;
#6 = CC_DESIGN_APPROVAL ( #229, ( #232 ) ) ;
#7 = CARTESIAN_POINT ( 'NONE',  ( 8.878396065212236100E-016, 7.250000000000000000, -6.500000000000000000 ) ) ;
#8 = CARTESIAN_POINT ( 'NONE',  ( 0.0000000000000000000, -7.250000000000000000, -6.500000000000000000 ) ) ;
#9 = DIRECTION ( 'NONE',  ( 0.0000000000000000000, -1.000000000000000000, 0.0000000000000000000 ) ) ;
#10 = DIRECTION ( 'NONE',  ( -0.0000000000000000000, 4.239021994000541500E-017, 1.000000000000000000 ) ) ;
#11 = CARTESIAN_POINT ( 'NONE',  ( 0.0000000000000000000, -2.755364296100351800E-016, -6.500000000000000000 ) ) ;
#12 = AXIS2_PLACEMENT_3D ( 'NONE', #11, #10, #9 ) ;
#13 = CIRCLE ( 'NONE', #12, 7.250000000000000000 ) ;
#14 = DIRECTION ( 'NONE',  ( 0.0000000000000000000, -1.000000000000000000, 4.239021994000541500E-017 ) ) ;
#15 = DIRECTION ( 'NONE',  ( -0.0000000000000000000, 4.239021994000541500E-017, 1.000000000000000000 ) ) ;
#16 = CARTESIAN_POINT ( 'NONE',  ( 0.0000000000000000000, 0.0000000000000000000, 0.0000000000000000000 ) ) ;
#17 = AXIS2_PLACEMENT_3D ( 'NONE', #16, #15, #14 ) ;
#18 = CYLINDRICAL_SURFACE ( 'NONE', #17, 7.250000000000000000 ) ;
#19 = FACE_OUTER_BOUND ( 'NONE', #73, .T. ) ;
#20 = DIRECTION ( 'NONE',  ( -0.0000000000000000000, 4.239021994000541500E-017, 1.000000000000000000 ) ) ;
#21 = VECTOR ( 'NONE', #20, 1000.000000000000000 ) ;
#22 = CARTESIAN_POINT ( 'NONE',  ( 0.0000000000000000000, -4.863999999999999900, 2.061860297881863400E-016 ) ) ;
#23 = LINE ( 'NONE', #22, #21 ) ;
#24 = DIRECTION ( 'NONE',  ( -0.0000000000000000000, 4.239021994000541500E-017, 1.000000000000000000 ) ) ;
#25 = VECTOR ( 'NONE', #24, 1000.000000000000000 ) ;
#26 = CARTESIAN_POINT ( 'NONE',  ( 5.956485304992042900E-016, 4.863999999999999900, -2.061860297881863400E-016 ) ) ;
#27 = ORIENTED_EDGE ( 'NONE', *, *, #77, .F. ) ;
#28 = EDGE_CURVE ( 'NONE', #78, #101, #91, .T. ) ;
#29 = VERTEX_POINT ( 'NONE', #86 ) ;
#30 = EDGE_CURVE ( 'NONE', #29, #32, #84, .T. ) ;
#31 = ADVANCED_FACE ( 'NONE', ( #85 ), #70, .F. ) ;
#32 = VERTEX_POINT ( 'NONE', #69 ) ;
#33 = EDGE_LOOP ( 'NONE', ( #35, #34, #79, #27 ) ) ;
#34 = ORIENTED_EDGE ( 'NONE', *, *, #105, .T. ) ;
#35 = ORIENTED_EDGE ( 'NONE', *, *, #30, .T. ) ;
#36 = EDGE_CURVE ( 'NONE', #55, #103, #64, .T. ) ;
#37 = ORIENTED_EDGE ( 'NONE', *, *, #102, .F. ) ;
#38 = VERTEX_POINT ( 'NONE', #60 ) ;
#39 = ORIENTED_EDGE ( 'NONE', *, *, #124, .T. ) ;
#40 = ORIENTED_EDGE ( 'NONE', *, *, #36, .T. ) ;
#41 = ORIENTED_EDGE ( 'NONE', *, *, #94, .F. ) ;
#42 = ORIENTED_EDGE ( 'NONE', *, *, #114, .T. ) ;
#43 = ORIENTED_EDGE ( 'NONE', *, *, #77, .T. ) ;
#44 = EDGE_LOOP ( 'NONE', ( #134, #123 ) ) ;
#45 = ORIENTED_EDGE ( 'NONE', *, *, #47, .T. ) ;
#46 = VERTEX_POINT ( 'NONE', #59 ) ;
#47 = EDGE_CURVE ( 'NONE', #29, #46, #58, .T. ) ;
#48 = ORIENTED_EDGE ( 'NONE', *, *, #117, .T. ) ;
#49 = ORIENTED_EDGE ( 'NONE', *, *, #50, .F. ) ;
#50 = EDGE_CURVE ( 'NONE', #32, #38, #23, .T. ) ;
#51 = MANIFOLD_SOLID_BREP ( 'NONE', #99 ) ;
#52 = ADVANCED_FACE ( 'NONE', ( #19 ), #18, .T. ) ;
#53 = ORIENTED_EDGE ( 'NONE', *, *, #54, .T. ) ;
#54 = EDGE_CURVE ( 'NONE', #55, #56, #13, .T. ) ;
#55 = VERTEX_POINT ( 'NONE', #8 ) ;
#56 = VERTEX_POINT ( 'NONE', #7 ) ;
#57 = ORIENTED_EDGE ( 'NONE', *, *, #71, .T. ) ;
#58 = LINE ( 'NONE', #26, #25 ) ;
#59 = CARTESIAN_POINT ( 'NONE',  ( 5.956485304992041900E-016, 4.863999999999999000, 2.999999999999999100 ) ) ;
#60 = CARTESIAN_POINT ( 'NONE',  ( 0.0000000000000000000, -4.863999999999999000, 2.999999999999999100 ) ) ;
#61 = DIRECTION ( 'NONE',  ( -0.0000000000000000000, 4.239021994000541500E-017, 1.000000000000000000 ) ) ;
#62 = VECTOR ( 'NONE', #61, 1000.000000000000000 ) ;
#63 = CARTESIAN_POINT ( 'NONE',  ( 0.0000000000000000000, -7.250000000000000000, 3.073290945650392800E-016 ) ) ;
#64 = LINE ( 'NONE', #63, #62 ) ;
#65 = DIRECTION ( 'NONE',  ( 0.0000000000000000000, 1.000000000000000000, 0.0000000000000000000 ) ) ;
#66 = DIRECTION ( 'NONE',  ( 0.0000000000000000000, -4.239021994000541500E-017, -1.000000000000000000 ) ) ;
#67 = CARTESIAN_POINT ( 'NONE',  ( 0.0000000000000000000, -2.683362547913847700E-016, -6.330145377192173400 ) ) ;
#68 = AXIS2_PLACEMENT_3D ( 'NONE', #67, #66, #65 ) ;
#69 = CARTESIAN_POINT ( 'NONE',  ( 0.0000000000000000000, -4.863999999999999900, -6.330145377192173400 ) ) ;
#70 = CONICAL_SURFACE ( 'NONE', #68, 4.863999999999999900, 0.7853981633974482800 ) ;
#71 = EDGE_CURVE ( 'NONE', #56, #72, #3, .T. ) ;
#72 = VERTEX_POINT ( 'NONE', #146 ) ;
#73 = EDGE_LOOP ( 'NONE', ( #53, #57, #37, #104 ) ) ;
#74 = ADVANCED_FACE ( 'NONE', ( #179 ), #247, .F. ) ;
#75 = EDGE_LOOP ( 'NONE', ( #76, #45, #48, #49 ) ) ;
#76 = ORIENTED_EDGE ( 'NONE', *, *, #30, .F. ) ;
#77 = EDGE_CURVE ( 'NONE', #29, #78, #180, .T. ) ;
#78 = VERTEX_POINT ( 'NONE', #244 ) ;
#79 = ORIENTED_EDGE ( 'NONE', *, *, #28, .F. ) ;
#80 = DIRECTION ( 'NONE',  ( 0.0000000000000000000, -1.000000000000000000, 0.0000000000000000000 ) ) ;
#81 = DIRECTION ( 'NONE',  ( -0.0000000000000000000, 4.239021994000541500E-017, 1.000000000000000000 ) ) ;
#82 = CARTESIAN_POINT ( 'NONE',  ( 0.0000000000000000000, -2.683362547913847700E-016, -6.330145377192173400 ) ) ;
#83 = AXIS2_PLACEMENT_3D ( 'NONE', #82, #81, #80 ) ;
#84 = CIRCLE ( 'NONE', #83, 4.863999999999999900 ) ;
#85 = FACE_OUTER_BOUND ( 'NONE', #33, .T. ) ;
#86 = CARTESIAN_POINT ( 'NONE',  ( 5.956485304992042900E-016, 4.863999999999999900, -6.330145377192173400 ) ) ;
#87 = DIRECTION ( 'NONE',  ( 0.0000000000000000000, -1.000000000000000000, 0.0000000000000000000 ) ) ;
#88 = DIRECTION ( 'NONE',  ( -0.0000000000000000000, 4.239021994000541500E-017, 1.000000000000000000 ) ) ;
#89 = CARTESIAN_POINT ( 'NONE',  ( 0.0000000000000000000, -2.755364296100351800E-016, -6.500000000000000000 ) ) ;
#90 = AXIS2_PLACEMENT_3D ( 'NONE', #89, #88, #87 ) ;
#91 = CIRCLE ( 'NONE', #90, 5.033854622807827400 ) ;
#92 = LOCAL_TIME ( 16, 5, 48.00000000000000000, #93 ) ;
#93 = COORDINATED_UNIVERSAL_TIME_OFFSET ( 1, 0, .AHEAD. ) ;
#94 = EDGE_CURVE ( 'NONE', #72, #103, #177, .T. ) ;
#95 = EDGE_LOOP ( 'NONE', ( #97, #98 ) ) ;
#96 = ADVANCED_FACE ( 'NONE', ( #178 ), #207, .F. ) ;
#97 = ORIENTED_EDGE ( 'NONE', *, *, #102, .T. ) ;
#98 = ORIENTED_EDGE ( 'NONE', *, *, #94, .T. ) ;
#99 = CLOSED_SHELL ( 'NONE', ( #52, #31, #74, #111, #119, #100, #133, #128, #96 ) ) ;
#100 = ADVANCED_FACE ( 'NONE', ( #213 ), #212, .F. ) ;
#101 = VERTEX_POINT ( 'NONE', #138 ) ;
#102 = EDGE_CURVE ( 'NONE', #103, #72, #144, .T. ) ;
#103 = VERTEX_POINT ( 'NONE', #145 ) ;
#104 = ORIENTED_EDGE ( 'NONE', *, *, #36, .F. ) ;
#105 = EDGE_CURVE ( 'NONE', #32, #101, #222, .T. ) ;
#106 = CC_DESIGN_PERSON_AND_ORGANIZATION_ASSIGNMENT ( #108, #107, ( #232 ) ) ;
#107 = PERSON_AND_ORGANIZATION_ROLE ( 'creator' ) ;
#108 = PERSON_AND_ORGANIZATION ( #240, #239 ) ;
#109 = EDGE_CURVE ( 'NONE', #38, #46, #257, .T. ) ;
#110 = EDGE_LOOP ( 'NONE', ( #120, #113, #115, #116 ) ) ;
#111 = ADVANCED_FACE ( 'NONE', ( #252 ), #250, .F. ) ;
#112 = EDGE_LOOP ( 'NONE', ( #135, #118 ) ) ;
#113 = ORIENTED_EDGE ( 'NONE', *, *, #114, .F. ) ;
#114 = EDGE_CURVE ( 'NONE', #32, #29, #206, .T. ) ;
#115 = ORIENTED_EDGE ( 'NONE', *, *, #50, .T. ) ;
#116 = ORIENTED_EDGE ( 'NONE', *, *, #109, .T. ) ;
#117 = EDGE_CURVE ( 'NONE', #46, #38, #198, .T. ) ;
#118 = ORIENTED_EDGE ( 'NONE', *, *, #117, .F. ) ;
#119 = ADVANCED_FACE ( 'NONE', ( #193 ), #192, .F. ) ;
#120 = ORIENTED_EDGE ( 'NONE', *, *, #47, .F. ) ;
#121 = EDGE_LOOP ( 'NONE', ( #122, #42, #43, #131 ) ) ;
#122 = ORIENTED_EDGE ( 'NONE', *, *, #105, .F. ) ;
#123 = ORIENTED_EDGE ( 'NONE', *, *, #124, .F. ) ;
#124 = EDGE_CURVE ( 'NONE', #56, #55, #191, .T. ) ;
#125 = EDGE_LOOP ( 'NONE', ( #126, #127 ) ) ;
#126 = ORIENTED_EDGE ( 'NONE', *, *, #28, .T. ) ;
#127 = ORIENTED_EDGE ( 'NONE', *, *, #132, .T. ) ;
#128 = ADVANCED_FACE ( 'NONE', ( #182 ), #181, .T. ) ;
#129 = EDGE_LOOP ( 'NONE', ( #130, #39, #40, #41 ) ) ;
#130 = ORIENTED_EDGE ( 'NONE', *, *, #71, .F. ) ;
#131 = ORIENTED_EDGE ( 'NONE', *, *, #132, .F. ) ;
#132 = EDGE_CURVE ( 'NONE', #101, #78, #154, .T. ) ;
#133 = ADVANCED_FACE ( 'NONE', ( #149, #148 ), #147, .F. ) ;
#134 = ORIENTED_EDGE ( 'NONE', *, *, #54, .F. ) ;
#135 = ORIENTED_EDGE ( 'NONE', *, *, #109, .F. ) ;
#136 = DIRECTION ( 'NONE',  ( 0.0000000000000000000, 1.000000000000000000, 0.0000000000000000000 ) ) ;
#137 = DIRECTION ( 'NONE',  ( 0.0000000000000000000, -4.239021994000541500E-017, -1.000000000000000000 ) ) ;
#138 = CARTESIAN_POINT ( 'NONE',  ( 6.164490355308610500E-016, -5.033854622807827400, -6.500000000000000000 ) ) ;
#139 = AXIS2_PLACEMENT_3D ( 'NONE', #218, #137, #136 ) ;
#140 = DIRECTION ( 'NONE',  ( 0.0000000000000000000, -1.000000000000000000, 0.0000000000000000000 ) ) ;
#141 = DIRECTION ( 'NONE',  ( -0.0000000000000000000, 4.239021994000541500E-017, 1.000000000000000000 ) ) ;
#142 = CARTESIAN_POINT ( 'NONE',  ( 0.0000000000000000000, 2.755364296100351800E-016, 6.500000000000000000 ) ) ;
#143 = AXIS2_PLACEMENT_3D ( 'NONE', #142, #141, #140 ) ;
#144 = CIRCLE ( 'NONE', #143, 7.250000000000000000 ) ;
#145 = CARTESIAN_POINT ( 'NONE',  ( 0.0000000000000000000, -7.250000000000000000, 6.500000000000000000 ) ) ;
#146 = CARTESIAN_POINT ( 'NONE',  ( 8.878396065212236100E-016, 7.250000000000000000, 6.500000000000000000 ) ) ;
#147 = PLANE ( 'NONE',  #175 ) ;
#148 = FACE_BOUND ( 'NONE', #125, .T. ) ;
#149 = FACE_OUTER_BOUND ( 'NONE', #44, .T. ) ;
#150 = DIRECTION ( 'NONE',  ( 0.0000000000000000000, -1.000000000000000000, 0.0000000000000000000 ) ) ;
#151 = DIRECTION ( 'NONE',  ( -0.0000000000000000000, 4.239021994000541500E-017, 1.000000000000000000 ) ) ;
#152 = CARTESIAN_POINT ( 'NONE',  ( 0.0000000000000000000, -2.755364296100351800E-016, -6.500000000000000000 ) ) ;
#153 = AXIS2_PLACEMENT_3D ( 'NONE', #152, #151, #150 ) ;
#154 = CIRCLE ( 'NONE', #153, 5.033854622807827400 ) ;
#155 = DIRECTION ( 'NONE',  ( 0.0000000000000000000, -1.000000000000000000, 4.239021994000541500E-017 ) ) ;
#156 = DIRECTION ( 'NONE',  ( -0.0000000000000000000, 4.239021994000541500E-017, 1.000000000000000000 ) ) ;
#157 = CARTESIAN_POINT ( 'NONE',  ( 0.0000000000000000000, 0.0000000000000000000, 0.0000000000000000000 ) ) ;
#158 = AXIS2_PLACEMENT_3D ( 'NONE', #157, #156, #155 ) ;
#159 = CARTESIAN_POINT ( 'NONE',  ( 0.0000000000000000000, 0.0000000000000000000, 0.0000000000000000000 ) ) ;
#160 = AXIS2_PLACEMENT_3D ( 'NONE', #159, #246, #211 ) ;
#161 = APPLICATION_CONTEXT ( 'configuration controlled 3d designs of mechanical parts and assemblies' ) ;
#162 = DIRECTION ( 'NONE',  ( 1.000000000000000000, 0.0000000000000000000, 0.0000000000000000000 ) ) ;
#163 = DIRECTION ( 'NONE',  ( 0.0000000000000000000, 0.0000000000000000000, 1.000000000000000000 ) ) ;
#164 = AXIS2_PLACEMENT_3D ( 'NONE', #174, #163, #162 ) ;
#165 = ADVANCED_BREP_SHAPE_REPRESENTATION ( '11-0232-01_outokumpu', ( #51, #164 ), #166 ) ;
#166 =( GEOMETRIC_REPRESENTATION_CONTEXT ( 3 ) GLOBAL_UNCERTAINTY_ASSIGNED_CONTEXT ( ( #167 ) ) GLOBAL_UNIT_ASSIGNED_CONTEXT ( ( #170, #169, #168 ) ) REPRESENTATION_CONTEXT ( 'NONE', 'WORKASPACE' ) );
#167 = UNCERTAINTY_MEASURE_WITH_UNIT (LENGTH_MEASURE( 1.000000000000000100E-005 ), #170, 'distance_accuracy_value', 'NONE');
#168 =( NAMED_UNIT ( * ) SI_UNIT ( $, .STERADIAN. ) SOLID_ANGLE_UNIT ( ) );
#169 =( NAMED_UNIT ( * ) PLANE_ANGLE_UNIT ( ) SI_UNIT ( $, .RADIAN. ) );
#170 =( LENGTH_UNIT ( ) NAMED_UNIT ( * ) SI_UNIT ( .MILLI., .METRE. ) );
#171 = DIRECTION ( 'NONE',  ( 0.0000000000000000000, -1.000000000000000000, 4.239021994000541500E-017 ) ) ;
#172 = DIRECTION ( 'NONE',  ( -0.0000000000000000000, 4.239021994000541500E-017, 1.000000000000000000 ) ) ;
#173 = CARTESIAN_POINT ( 'NONE',  ( 0.0000000000000000000, 7.250000000000000000, -6.500000000000000000 ) ) ;
#174 = CARTESIAN_POINT ( 'NONE',  ( 0.0000000000000000000, 0.0000000000000000000, 0.0000000000000000000 ) ) ;
#175 = AXIS2_PLACEMENT_3D ( 'NONE', #173, #172, #171 ) ;
#176 = AXIS2_PLACEMENT_3D ( 'NONE', #210, #209, #208 ) ;
#177 = CIRCLE ( 'NONE', #176, 7.250000000000000000 ) ;
#178 = FACE_OUTER_BOUND ( 'NONE', #95, .T. ) ;
#179 = FACE_OUTER_BOUND ( 'NONE', #75, .T. ) ;
#180 = LINE ( 'NONE', #249, #245 ) ;
#181 = CYLINDRICAL_SURFACE ( 'NONE', #158, 7.250000000000000000 ) ;
#182 = FACE_OUTER_BOUND ( 'NONE', #129, .T. ) ;
#183 = DIRECTION ( 'NONE',  ( 0.0000000000000000000, -1.000000000000000000, 0.0000000000000000000 ) ) ;
#184 = DIRECTION ( 'NONE',  ( -0.0000000000000000000, 4.239021994000541500E-017, 1.000000000000000000 ) ) ;
#185 = CARTESIAN_POINT ( 'NONE',  ( 0.0000000000000000000, -2.755364296100351800E-016, -6.500000000000000000 ) ) ;
#186 = AXIS2_PLACEMENT_3D ( 'NONE', #185, #184, #183 ) ;
#187 = DIRECTION ( 'NONE',  ( 0.0000000000000000000, -1.000000000000000000, 4.239021994000541500E-017 ) ) ;
#188 = DIRECTION ( 'NONE',  ( -0.0000000000000000000, 4.239021994000541500E-017, 1.000000000000000000 ) ) ;
#189 = CARTESIAN_POINT ( 'NONE',  ( 0.0000000000000000000, 0.0000000000000000000, 0.0000000000000000000 ) ) ;
#190 = AXIS2_PLACEMENT_3D ( 'NONE', #189, #188, #187 ) ;
#191 = CIRCLE ( 'NONE', #186, 7.250000000000000000 ) ;
#192 = CYLINDRICAL_SURFACE ( 'NONE', #190, 4.863999999999999900 ) ;
#193 = FACE_OUTER_BOUND ( 'NONE', #110, .T. ) ;
#194 = DIRECTION ( 'NONE',  ( 0.0000000000000000000, -1.000000000000000000, 0.0000000000000000000 ) ) ;
#195 = DIRECTION ( 'NONE',  ( -0.0000000000000000000, 4.239021994000541500E-017, 1.000000000000000000 ) ) ;
#196 = CARTESIAN_POINT ( 'NONE',  ( 0.0000000000000000000, 1.271706598200162200E-016, 2.999999999999999100 ) ) ;
#197 = AXIS2_PLACEMENT_3D ( 'NONE', #196, #195, #194 ) ;
#198 = CIRCLE ( 'NONE', #197, 4.863999999999999000 ) ;
#199 = DIRECTION ( 'NONE',  ( 0.0000000000000000000, -1.000000000000000000, 0.0000000000000000000 ) ) ;
#200 = DIRECTION ( 'NONE',  ( -0.0000000000000000000, 4.239021994000541500E-017, 1.000000000000000000 ) ) ;
#201 = CARTESIAN_POINT ( 'NONE',  ( 0.0000000000000000000, -2.683362547913847700E-016, -6.330145377192173400 ) ) ;
#202 = AXIS2_PLACEMENT_3D ( 'NONE', #201, #200, #199 ) ;
#203 = DIRECTION ( 'NONE',  ( 0.0000000000000000000, -1.000000000000000000, 4.239021994000541500E-017 ) ) ;
#204 = DIRECTION ( 'NONE',  ( -0.0000000000000000000, 4.239021994000541500E-017, 1.000000000000000000 ) ) ;
#205 = CARTESIAN_POINT ( 'NONE',  ( 0.0000000000000000000, 4.863999999999999000, 2.999999999999999100 ) ) ;
#206 = CIRCLE ( 'NONE', #202, 4.863999999999999900 ) ;
#207 = PLANE ( 'NONE',  #217 ) ;
#208 = DIRECTION ( 'NONE',  ( 0.0000000000000000000, -1.000000000000000000, 0.0000000000000000000 ) ) ;
#209 = DIRECTION ( 'NONE',  ( -0.0000000000000000000, 4.239021994000541500E-017, 1.000000000000000000 ) ) ;
#210 = CARTESIAN_POINT ( 'NONE',  ( 0.0000000000000000000, 2.755364296100351800E-016, 6.500000000000000000 ) ) ;
#211 = DIRECTION ( 'NONE',  ( 0.0000000000000000000, -1.000000000000000000, 4.239021994000541500E-017 ) ) ;
#212 = CONICAL_SURFACE ( 'NONE', #139, 4.863999999999999900, 0.7853981633974482800 ) ;
#213 = FACE_OUTER_BOUND ( 'NONE', #121, .T. ) ;
#214 = DIRECTION ( 'NONE',  ( 0.0000000000000000000, 1.000000000000000000, -4.239021994000541500E-017 ) ) ;
#215 = DIRECTION ( 'NONE',  ( 0.0000000000000000000, -4.239021994000541500E-017, -1.000000000000000000 ) ) ;
#216 = CARTESIAN_POINT ( 'NONE',  ( 0.0000000000000000000, -2.755364296100351300E-016, 6.500000000000000000 ) ) ;
#217 = AXIS2_PLACEMENT_3D ( 'NONE', #216, #215, #214 ) ;
#218 = CARTESIAN_POINT ( 'NONE',  ( 0.0000000000000000000, -2.683362547913847700E-016, -6.330145377192173400 ) ) ;
#219 = DIRECTION ( 'NONE',  ( 8.659274570719355400E-017, -0.7071067811865474600, -0.7071067811865475700 ) ) ;
#220 = VECTOR ( 'NONE', #219, 1000.000000000000000 ) ;
#221 = CARTESIAN_POINT ( 'NONE',  ( 5.956485304992042900E-016, -4.863999999999999900, -6.330145377192173400 ) ) ;
#222 = LINE ( 'NONE', #221, #220 ) ;
#223 = DATE_AND_TIME ( #224, #225 ) ;
#224 = CALENDAR_DATE ( 2015, 11, 8 ) ;
#225 = LOCAL_TIME ( 16, 5, 48.00000000000000000, #226 ) ;
#226 = COORDINATED_UNIVERSAL_TIME_OFFSET ( 1, 0, .AHEAD. ) ;
#227 = APPROVAL_PERSON_ORGANIZATION ( #231, #229, #228 ) ;
#228 = APPROVAL_ROLE ( '' ) ;
#229 = APPROVAL ( #230, 'UNSPECIFIED' ) ;
#230 = APPROVAL_STATUS ( 'not_yet_approved' ) ;
#231 = PERSON_AND_ORGANIZATION ( #240, #239 ) ;
#232 = PRODUCT_DEFINITION ( 'UNKNOWN', '', #280, #233 ) ;
#233 = DESIGN_CONTEXT ( 'detailed design', #235, 'design' ) ;
#234 = APPLICATION_PROTOCOL_DEFINITION ( 'international standard', 'config_control_design', 1994, #235 ) ;
#235 = APPLICATION_CONTEXT ( 'configuration controlled 3d designs of mechanical parts and assemblies' ) ;
#236 = CC_DESIGN_PERSON_AND_ORGANIZATION_ASSIGNMENT ( #238, #237, ( #241 ) ) ;
#237 = PERSON_AND_ORGANIZATION_ROLE ( 'design_owner' ) ;
#238 = PERSON_AND_ORGANIZATION ( #240, #239 ) ;
#239 = ORGANIZATION ( 'UNSPECIFIED', 'UNSPECIFIED', '' ) ;
#240 = PERSON ( 'UNSPECIFIED', 'UNSPECIFIED', 'UNSPECIFIED', ('UNSPECIFIED'), ('UNSPECIFIED'), ('UNSPECIFIED') ) ;
#241 = PRODUCT ( '11-0232-01_outokumpu', '11-0232-01_outokumpu', '', ( #242 ) ) ;
#242 = MECHANICAL_CONTEXT ( 'NONE', #161, 'mechanical' ) ;
#243 = APPLICATION_PROTOCOL_DEFINITION ( 'international standard', 'config_control_design', 1994, #161 ) ;
#244 = CARTESIAN_POINT ( 'NONE',  ( 0.0000000000000000000, 5.033854622807827400, -6.500000000000000000 ) ) ;
#245 = VECTOR ( 'NONE', #248, 1000.000000000000000 ) ;
#246 = DIRECTION ( 'NONE',  ( -0.0000000000000000000, 4.239021994000541500E-017, 1.000000000000000000 ) ) ;
#247 = CYLINDRICAL_SURFACE ( 'NONE', #160, 4.863999999999999900 ) ;
#248 = DIRECTION ( 'NONE',  ( 0.0000000000000000000, 0.7071067811865474600, -0.7071067811865475700 ) ) ;
#249 = CARTESIAN_POINT ( 'NONE',  ( 0.0000000000000000000, 4.863999999999999900, -6.330145377192173400 ) ) ;
#250 = PLANE ( 'NONE',  #251 ) ;
#251 = AXIS2_PLACEMENT_3D ( 'NONE', #205, #204, #203 ) ;
#252 = FACE_OUTER_BOUND ( 'NONE', #112, .T. ) ;
#253 = DIRECTION ( 'NONE',  ( 0.0000000000000000000, -1.000000000000000000, 0.0000000000000000000 ) ) ;
#254 = DIRECTION ( 'NONE',  ( -0.0000000000000000000, 4.239021994000541500E-017, 1.000000000000000000 ) ) ;
#255 = CARTESIAN_POINT ( 'NONE',  ( 0.0000000000000000000, 1.271706598200162200E-016, 2.999999999999999100 ) ) ;
#256 = AXIS2_PLACEMENT_3D ( 'NONE', #255, #254, #253 ) ;
#257 = CIRCLE ( 'NONE', #256, 4.863999999999999000 ) ;
#258 = PRODUCT_DEFINITION_SHAPE ( 'NONE', 'NONE',  #232 ) ;
#259 = APPROVAL_STATUS ( 'not_yet_approved' ) ;
#260 = PERSON_AND_ORGANIZATION ( #240, #239 ) ;
#261 = SHAPE_DEFINITION_REPRESENTATION ( #258, #165 ) ;
#262 = CC_DESIGN_PERSON_AND_ORGANIZATION_ASSIGNMENT ( #264, #263, ( #280 ) ) ;
#263 = PERSON_AND_ORGANIZATION_ROLE ( 'design_supplier' ) ;
#264 = PERSON_AND_ORGANIZATION ( #240, #239 ) ;
#265 = CC_DESIGN_PERSON_AND_ORGANIZATION_ASSIGNMENT ( #270, #269, ( #280 ) ) ;
#266 = PRODUCT_RELATED_PRODUCT_CATEGORY ( 'detail', '', ( #241 ) ) ;
#267 = CC_DESIGN_SECURITY_CLASSIFICATION ( #285, ( #280 ) ) ;
#268 = CC_DESIGN_APPROVAL ( #294, ( #285 ) ) ;
#269 = PERSON_AND_ORGANIZATION_ROLE ( 'creator' ) ;
#270 = PERSON_AND_ORGANIZATION ( #240, #239 ) ;
#271 = CALENDAR_DATE ( 2015, 11, 8 ) ;
#272 = LOCAL_TIME ( 16, 5, 48.00000000000000000, #296 ) ;
#273 = APPROVAL_ROLE ( '' ) ;
#274 = APPROVAL ( #259, 'UNSPECIFIED' ) ;
#275 = CALENDAR_DATE ( 2015, 11, 8 ) ;
#276 = CC_DESIGN_APPROVAL ( #274, ( #280 ) ) ;
#277 = APPROVAL_DATE_TIME ( #278, #274 ) ;
#278 = DATE_AND_TIME ( #271, #272 ) ;
#279 = CC_DESIGN_DATE_AND_TIME_ASSIGNMENT ( #305, #281, ( #232 ) ) ;
#280 = PRODUCT_DEFINITION_FORMATION_WITH_SPECIFIED_SOURCE ( 'ANY', '', #241, .NOT_KNOWN. ) ;
#281 = DATE_TIME_ROLE ( 'creation_date' ) ;
#282 = CC_DESIGN_PERSON_AND_ORGANIZATION_ASSIGNMENT ( #284, #283, ( #285 ) ) ;
#283 = PERSON_AND_ORGANIZATION_ROLE ( 'classification_officer' ) ;
#284 = PERSON_AND_ORGANIZATION ( #240, #239 ) ;
#285 = SECURITY_CLASSIFICATION ( '', '', #286 ) ;
#286 = SECURITY_CLASSIFICATION_LEVEL ( 'unclassified' ) ;
#287 = APPROVAL_DATE_TIME ( #288, #294 ) ;
#288 = DATE_AND_TIME ( #289, #290 ) ;
#289 = CALENDAR_DATE ( 2015, 11, 8 ) ;
#290 = LOCAL_TIME ( 16, 5, 48.00000000000000000, #291 ) ;
#291 = COORDINATED_UNIVERSAL_TIME_OFFSET ( 1, 0, .AHEAD. ) ;
#292 = APPROVAL_PERSON_ORGANIZATION ( #298, #294, #293 ) ;
#293 = APPROVAL_ROLE ( '' ) ;
#294 = APPROVAL ( #295, 'UNSPECIFIED' ) ;
#295 = APPROVAL_STATUS ( 'not_yet_approved' ) ;
#296 = COORDINATED_UNIVERSAL_TIME_OFFSET ( 1, 0, .AHEAD. ) ;
#297 = APPROVAL_PERSON_ORGANIZATION ( #260, #274, #273 ) ;
#298 = PERSON_AND_ORGANIZATION ( #240, #239 ) ;
#299 = CC_DESIGN_DATE_AND_TIME_ASSIGNMENT ( #301, #300, ( #285 ) ) ;
#300 = DATE_TIME_ROLE ( 'classification_date' ) ;
#301 = DATE_AND_TIME ( #302, #303 ) ;
#302 = CALENDAR_DATE ( 2015, 11, 8 ) ;
#303 = LOCAL_TIME ( 16, 5, 48.00000000000000000, #304 ) ;
#304 = COORDINATED_UNIVERSAL_TIME_OFFSET ( 1, 0, .AHEAD. ) ;
#305 = DATE_AND_TIME ( #275, #92 ) ;
ENDSEC;
END-ISO-10303-21;
