ISO-10303-21;
HEADER;
FILE_DESCRIPTION (( 'STEP AP203' ),
    '1' );
FILE_NAME ('12-0201-11_outokumpu.step',
    '2015-08-12T08:15:15',
    ( '' ),
    ( '' ),
    'SwSTEP 2.0',
    'SolidWorks 2008',
    '' );
FILE_SCHEMA (( 'CONFIG_CONTROL_DESIGN' ));
ENDSEC;

DATA;
#1 = EDGE_LOOP ( 'NONE', ( #65, #61, #18, #6 ) ) ;
#2 = ADVANCED_FACE ( 'NONE', ( #125 ), #124, .F. ) ;
#3 = ORIENTED_EDGE ( 'NONE', *, *, #69, .T. ) ;
#4 = EDGE_LOOP ( 'NONE', ( #7, #5 ) ) ;
#5 = ORIENTED_EDGE ( 'NONE', *, *, #20, .F. ) ;
#6 = ORIENTED_EDGE ( 'NONE', *, *, #17, .F. ) ;
#7 = ORIENTED_EDGE ( 'NONE', *, *, #76, .F. ) ;
#8 = ORIENTED_EDGE ( 'NONE', *, *, #33, .F. ) ;
#9 = EDGE_LOOP ( 'NONE', ( #15, #27 ) ) ;
#10 = ORIENTED_EDGE ( 'NONE', *, *, #83, .F. ) ;
#11 = ORIENTED_EDGE ( 'NONE', *, *, #90, .F. ) ;
#12 = ORIENTED_EDGE ( 'NONE', *, *, #24, .F. ) ;
#13 = MANIFOLD_SOLID_BREP ( 'NONE', #142 ) ;
#14 = ADVANCED_FACE ( 'NONE', ( #123, #122 ), #155, .F. ) ;
#15 = ORIENTED_EDGE ( 'NONE', *, *, #28, .T. ) ;
#16 = EDGE_LOOP ( 'NONE', ( #103, #96, #95, #99 ) ) ;
#17 = EDGE_CURVE ( 'NONE', #72, #70, #143, .T. ) ;
#18 = ORIENTED_EDGE ( 'NONE', *, *, #66, .T. ) ;
#19 = EDGE_LOOP ( 'NONE', ( #11, #8, #119, #31 ) ) ;
#20 = EDGE_CURVE ( 'NONE', #63, #75, #174, .T. ) ;
#21 = ADVANCED_FACE ( 'NONE', ( #175 ), #170, .F. ) ;
#22 = ORIENTED_EDGE ( 'NONE', *, *, #17, .T. ) ;
#23 = ADVANCED_FACE ( 'NONE', ( #163, #168 ), #167, .F. ) ;
#24 = EDGE_CURVE ( 'NONE', #81, #89, #157, .T. ) ;
#25 = EDGE_LOOP ( 'NONE', ( #12, #10 ) ) ;
#26 = EDGE_LOOP ( 'NONE', ( #3, #22 ) ) ;
#27 = ORIENTED_EDGE ( 'NONE', *, *, #100, .T. ) ;
#28 = EDGE_CURVE ( 'NONE', #102, #101, #112, .T. ) ;
#29 = ORIENTED_EDGE ( 'NONE', *, *, #49, .F. ) ;
#30 = ORIENTED_EDGE ( 'NONE', *, *, #33, .T. ) ;
#31 = ORIENTED_EDGE ( 'NONE', *, *, #24, .T. ) ;
#32 = ADVANCED_FACE ( 'NONE', ( #113, #108 ), #107, .F. ) ;
#33 = EDGE_CURVE ( 'NONE', #88, #85, #132, .T. ) ;
#34 = ORIENTED_EDGE ( 'NONE', *, *, #152, .F. ) ;
#35 = EDGE_LOOP ( 'NONE', ( #118, #176 ) ) ;
#36 = EDGE_LOOP ( 'NONE', ( #41, #117 ) ) ;
#37 = EDGE_CURVE ( 'NONE', #94, #97, #178, .T. ) ;
#38 = ORIENTED_EDGE ( 'NONE', *, *, #152, .T. ) ;
#39 = ADVANCED_FACE ( 'NONE', ( #251, #234 ), #214, .F. ) ;
#40 = ORIENTED_EDGE ( 'NONE', *, *, #48, .T. ) ;
#41 = ORIENTED_EDGE ( 'NONE', *, *, #37, .F. ) ;
#42 = EDGE_CURVE ( 'NONE', #56, #47, #189, .T. ) ;
#43 = ORIENTED_EDGE ( 'NONE', *, *, #42, .F. ) ;
#44 = ORIENTED_EDGE ( 'NONE', *, *, #54, .F. ) ;
#45 = EDGE_LOOP ( 'NONE', ( #44, #43, #40, #38 ) ) ;
#46 = ADVANCED_FACE ( 'NONE', ( #259 ), #260, .F. ) ;
#47 = VERTEX_POINT ( 'NONE', #218 ) ;
#48 = EDGE_CURVE ( 'NONE', #56, #52, #188, .T. ) ;
#49 = EDGE_CURVE ( 'NONE', #55, #52, #212, .T. ) ;
#50 = ORIENTED_EDGE ( 'NONE', *, *, #48, .F. ) ;
#51 = ORIENTED_EDGE ( 'NONE', *, *, #49, .T. ) ;
#52 = VERTEX_POINT ( 'NONE', #236 ) ;
#53 = ORIENTED_EDGE ( 'NONE', *, *, #54, .T. ) ;
#54 = EDGE_CURVE ( 'NONE', #47, #55, #250, .T. ) ;
#55 = VERTEX_POINT ( 'NONE', #246 ) ;
#56 = VERTEX_POINT ( 'NONE', #245 ) ;
#57 = ORIENTED_EDGE ( 'NONE', *, *, #93, .F. ) ;
#58 = ADVANCED_FACE ( 'NONE', ( #244 ), #233, .F. ) ;
#59 = EDGE_CURVE ( 'NONE', #102, #94, #254, .T. ) ;
#60 = EDGE_LOOP ( 'NONE', ( #57, #53, #51, #50 ) ) ;
#61 = ORIENTED_EDGE ( 'NONE', *, *, #20, .T. ) ;
#62 = EDGE_LOOP ( 'NONE', ( #91, #87, #84, #80 ) ) ;
#63 = VERTEX_POINT ( 'NONE', #183 ) ;
#64 = EDGE_CURVE ( 'NONE', #97, #94, #181, .T. ) ;
#65 = ORIENTED_EDGE ( 'NONE', *, *, #71, .F. ) ;
#66 = EDGE_CURVE ( 'NONE', #75, #70, #182, .T. ) ;
#67 = ADVANCED_FACE ( 'NONE', ( #221 ), #219, .T. ) ;
#68 = ORIENTED_EDGE ( 'NONE', *, *, #66, .F. ) ;
#69 = EDGE_CURVE ( 'NONE', #70, #72, #207, .T. ) ;
#70 = VERTEX_POINT ( 'NONE', #202 ) ;
#71 = EDGE_CURVE ( 'NONE', #63, #72, #201, .T. ) ;
#72 = VERTEX_POINT ( 'NONE', #197 ) ;
#73 = ORIENTED_EDGE ( 'NONE', *, *, #71, .T. ) ;
#74 = ORIENTED_EDGE ( 'NONE', *, *, #69, .F. ) ;
#75 = VERTEX_POINT ( 'NONE', #196 ) ;
#76 = EDGE_CURVE ( 'NONE', #75, #63, #194, .T. ) ;
#77 = ORIENTED_EDGE ( 'NONE', *, *, #76, .T. ) ;
#78 = ADVANCED_FACE ( 'NONE', ( #195 ), #271, .T. ) ;
#79 = EDGE_LOOP ( 'NONE', ( #77, #73, #74, #68 ) ) ;
#80 = ORIENTED_EDGE ( 'NONE', *, *, #82, .F. ) ;
#81 = VERTEX_POINT ( 'NONE', #270 ) ;
#82 = EDGE_CURVE ( 'NONE', #88, #81, #265, .T. ) ;
#83 = EDGE_CURVE ( 'NONE', #89, #81, #261, .T. ) ;
#84 = ORIENTED_EDGE ( 'NONE', *, *, #83, .T. ) ;
#85 = VERTEX_POINT ( 'NONE', #279 ) ;
#86 = EDGE_CURVE ( 'NONE', #85, #88, #273, .T. ) ;
#87 = ORIENTED_EDGE ( 'NONE', *, *, #90, .T. ) ;
#88 = VERTEX_POINT ( 'NONE', #281 ) ;
#89 = VERTEX_POINT ( 'NONE', #289 ) ;
#90 = EDGE_CURVE ( 'NONE', #85, #89, #295, .T. ) ;
#91 = ORIENTED_EDGE ( 'NONE', *, *, #86, .F. ) ;
#92 = ADVANCED_FACE ( 'NONE', ( #288 ), #309, .F. ) ;
#93 = EDGE_CURVE ( 'NONE', #47, #56, #305, .T. ) ;
#94 = VERTEX_POINT ( 'NONE', #292 ) ;
#95 = ORIENTED_EDGE ( 'NONE', *, *, #64, .T. ) ;
#96 = ORIENTED_EDGE ( 'NONE', *, *, #98, .T. ) ;
#97 = VERTEX_POINT ( 'NONE', #280 ) ;
#98 = EDGE_CURVE ( 'NONE', #101, #97, #286, .T. ) ;
#99 = ORIENTED_EDGE ( 'NONE', *, *, #59, .F. ) ;
#100 = EDGE_CURVE ( 'NONE', #101, #102, #282, .T. ) ;
#101 = VERTEX_POINT ( 'NONE', #311 ) ;
#102 = VERTEX_POINT ( 'NONE', #352 ) ;
#103 = ORIENTED_EDGE ( 'NONE', *, *, #100, .F. ) ;
#104 = ORIENTED_EDGE ( 'NONE', *, *, #28, .F. ) ;
#105 = EDGE_LOOP ( 'NONE', ( #106, #104, #140, #141 ) ) ;
#106 = ORIENTED_EDGE ( 'NONE', *, *, #98, .F. ) ;
#107 = PLANE ( 'NONE',  #137 ) ;
#108 = FACE_OUTER_BOUND ( 'NONE', #154, .T. ) ;
#109 = DIRECTION ( 'NONE',  ( 0.0000000000000000000, 1.000000000000000000, 1.331970471275043300E-016 ) ) ;
#110 = DIRECTION ( 'NONE',  ( -0.0000000000000000000, 1.331970471275043100E-016, -1.000000000000000000 ) ) ;
#111 = AXIS2_PLACEMENT_3D ( 'NONE', #158, #110, #109 ) ;
#112 = CIRCLE ( 'NONE', #111, 17.00000000000000400 ) ;
#113 = FACE_BOUND ( 'NONE', #127, .T. ) ;
#114 = DIRECTION ( 'NONE',  ( 0.0000000000000000000, 1.000000000000000000, 0.0000000000000000000 ) ) ;
#115 = DIRECTION ( 'NONE',  ( -0.0000000000000000000, 1.331970471275043100E-016, -1.000000000000000000 ) ) ;
#116 = CARTESIAN_POINT ( 'NONE',  ( 0.0000000000000000000, 1.592040838891549400E-015, -38.00000000000000000 ) ) ;
#117 = ORIENTED_EDGE ( 'NONE', *, *, #64, .F. ) ;
#118 = ORIENTED_EDGE ( 'NONE', *, *, #42, .T. ) ;
#119 = ORIENTED_EDGE ( 'NONE', *, *, #82, .T. ) ;
#120 = ORIENTED_EDGE ( 'NONE', *, *, #86, .T. ) ;
#121 = AXIS2_PLACEMENT_3D ( 'NONE', #177, #153, #139 ) ;
#122 = FACE_OUTER_BOUND ( 'NONE', #26, .T. ) ;
#123 = FACE_BOUND ( 'NONE', #9, .T. ) ;
#124 = CYLINDRICAL_SURFACE ( 'NONE', #121, 17.00000000000000000 ) ;
#125 = FACE_OUTER_BOUND ( 'NONE', #16, .T. ) ;
#126 = ADVANCED_FACE ( 'NONE', ( #310 ), #375, .F. ) ;
#127 = EDGE_LOOP ( 'NONE', ( #34, #29 ) ) ;
#128 = DIRECTION ( 'NONE',  ( 0.0000000000000000000, 1.000000000000000000, 2.040851148208009200E-016 ) ) ;
#129 = DIRECTION ( 'NONE',  ( -0.0000000000000000000, 1.331970471275043100E-016, -1.000000000000000000 ) ) ;
#130 = CARTESIAN_POINT ( 'NONE',  ( 0.0000000000000000000, -9.956165962775518200E-017, -25.30000000000000400 ) ) ;
#131 = AXIS2_PLACEMENT_3D ( 'NONE', #130, #129, #128 ) ;
#132 = CIRCLE ( 'NONE', #131, 16.99999999999999300 ) ;
#133 = DIRECTION ( 'NONE',  ( 0.0000000000000000000, 1.000000000000000000, 1.331970471275043300E-016 ) ) ;
#134 = DIRECTION ( 'NONE',  ( 0.0000000000000000000, -1.000000000000000000, -1.331970471275043100E-016 ) ) ;
#135 = DIRECTION ( 'NONE',  ( 0.0000000000000000000, -1.331970471275043100E-016, 1.000000000000000000 ) ) ;
#136 = CARTESIAN_POINT ( 'NONE',  ( 0.0000000000000000000, 15.60000000000000000, -25.30000000000000100 ) ) ;
#137 = AXIS2_PLACEMENT_3D ( 'NONE', #136, #135, #134 ) ;
#138 = CARTESIAN_POINT ( 'NONE',  ( 0.0000000000000000000, 20.00000000000000000, -2.168404344971008900E-016 ) ) ;
#139 = DIRECTION ( 'NONE',  ( 0.0000000000000000000, 1.000000000000000000, 0.0000000000000000000 ) ) ;
#140 = ORIENTED_EDGE ( 'NONE', *, *, #59, .T. ) ;
#141 = ORIENTED_EDGE ( 'NONE', *, *, #37, .T. ) ;
#142 = CLOSED_SHELL ( 'NONE', ( #2, #58, #92, #78, #67, #23, #14, #21, #32, #46, #39, #126 ) ) ;
#143 = CIRCLE ( 'NONE', #150, 20.00000000000000000 ) ;
#144 = DIRECTION ( 'NONE',  ( -1.000000000000000000, 0.0000000000000000000, -0.0000000000000000000 ) ) ;
#145 = DIRECTION ( 'NONE',  ( 0.0000000000000000000, 0.0000000000000000000, -1.000000000000000000 ) ) ;
#146 = AXIS2_PLACEMENT_3D ( 'NONE', #138, #145, #144 ) ;
#147 = DIRECTION ( 'NONE',  ( 1.000000000000000000, 0.0000000000000000000, 0.0000000000000000000 ) ) ;
#148 = DIRECTION ( 'NONE',  ( -0.0000000000000000000, -0.0000000000000000000, 1.000000000000000000 ) ) ;
#149 = CARTESIAN_POINT ( 'NONE',  ( 0.0000000000000000000, 0.0000000000000000000, 0.0000000000000000000 ) ) ;
#150 = AXIS2_PLACEMENT_3D ( 'NONE', #149, #148, #147 ) ;
#151 = CARTESIAN_POINT ( 'NONE',  ( 0.0000000000000000000, 0.0000000000000000000, -38.00000000000000000 ) ) ;
#152 = EDGE_CURVE ( 'NONE', #52, #55, #370, .T. ) ;
#153 = DIRECTION ( 'NONE',  ( -0.0000000000000000000, 1.331970471275043100E-016, -1.000000000000000000 ) ) ;
#154 = EDGE_LOOP ( 'NONE', ( #30, #120 ) ) ;
#155 = PLANE ( 'NONE',  #146 ) ;
#156 = AXIS2_PLACEMENT_3D ( 'NONE', #116, #115, #114 ) ;
#157 = CIRCLE ( 'NONE', #156, 17.00000000000000000 ) ;
#158 = CARTESIAN_POINT ( 'NONE',  ( 0.0000000000000000000, -3.469446951953614200E-015, 0.0000000000000000000 ) ) ;
#159 = DIRECTION ( 'NONE',  ( 1.000000000000000000, 0.0000000000000000000, 0.0000000000000000000 ) ) ;
#160 = DIRECTION ( 'NONE',  ( 0.0000000000000000000, -0.0000000000000000000, 1.000000000000000000 ) ) ;
#161 = CARTESIAN_POINT ( 'NONE',  ( 0.0000000000000000000, 20.00000000000000000, -38.00000000000000000 ) ) ;
#162 = AXIS2_PLACEMENT_3D ( 'NONE', #161, #160, #159 ) ;
#163 = FACE_BOUND ( 'NONE', #25, .T. ) ;
#164 = DIRECTION ( 'NONE',  ( 0.0000000000000000000, 1.000000000000000000, 0.0000000000000000000 ) ) ;
#165 = DIRECTION ( 'NONE',  ( -0.0000000000000000000, 1.331970471275043100E-016, -1.000000000000000000 ) ) ;
#166 = AXIS2_PLACEMENT_3D ( 'NONE', #169, #165, #164 ) ;
#167 = PLANE ( 'NONE',  #162 ) ;
#168 = FACE_OUTER_BOUND ( 'NONE', #4, .T. ) ;
#169 = CARTESIAN_POINT ( 'NONE',  ( 0.0000000000000000000, 1.592040838891555700E-015, -38.00000000000005000 ) ) ;
#170 = CYLINDRICAL_SURFACE ( 'NONE', #166, 16.99999999999999600 ) ;
#171 = DIRECTION ( 'NONE',  ( 1.000000000000000000, 0.0000000000000000000, 0.0000000000000000000 ) ) ;
#172 = DIRECTION ( 'NONE',  ( -0.0000000000000000000, -0.0000000000000000000, 1.000000000000000000 ) ) ;
#173 = AXIS2_PLACEMENT_3D ( 'NONE', #151, #172, #171 ) ;
#174 = CIRCLE ( 'NONE', #173, 20.00000000000000000 ) ;
#175 = FACE_OUTER_BOUND ( 'NONE', #19, .T. ) ;
#176 = ORIENTED_EDGE ( 'NONE', *, *, #93, .T. ) ;
#177 = CARTESIAN_POINT ( 'NONE',  ( 0.0000000000000000000, 1.592040838891555700E-015, -38.00000000000005000 ) ) ;
#178 = CIRCLE ( 'NONE', #243, 16.99999999999999600 ) ;
#179 = AXIS2_PLACEMENT_3D ( 'NONE', #242, #185, #272 ) ;
#180 = AXIS2_PLACEMENT_3D ( 'NONE', #227, #226, #225 ) ;
#181 = CIRCLE ( 'NONE', #180, 16.99999999999999600 ) ;
#182 = LINE ( 'NONE', #224, #223 ) ;
#183 = CARTESIAN_POINT ( 'NONE',  ( -20.00000000000000000, 2.449212707644754500E-015, -38.00000000000000000 ) ) ;
#184 = DIRECTION ( 'NONE',  ( -0.0000000000000000000, 1.331970471275043100E-016, -1.000000000000000000 ) ) ;
#185 = DIRECTION ( 'NONE',  ( -0.0000000000000000000, 1.331970471275043100E-016, -1.000000000000000000 ) ) ;
#186 = VECTOR ( 'NONE', #213, 1000.000000000000000 ) ;
#187 = CARTESIAN_POINT ( 'NONE',  ( 0.0000000000000000000, 15.60000000000000100, -38.00000000000005000 ) ) ;
#188 = LINE ( 'NONE', #187, #186 ) ;
#189 = CIRCLE ( 'NONE', #241, 15.60000000000000100 ) ;
#190 = DIRECTION ( 'NONE',  ( 1.000000000000000000, 0.0000000000000000000, 0.0000000000000000000 ) ) ;
#191 = DIRECTION ( 'NONE',  ( -0.0000000000000000000, -0.0000000000000000000, 1.000000000000000000 ) ) ;
#192 = CARTESIAN_POINT ( 'NONE',  ( 0.0000000000000000000, 0.0000000000000000000, -38.00000000000000000 ) ) ;
#193 = AXIS2_PLACEMENT_3D ( 'NONE', #192, #191, #190 ) ;
#194 = CIRCLE ( 'NONE', #193, 20.00000000000000000 ) ;
#195 = FACE_OUTER_BOUND ( 'NONE', #79, .T. ) ;
#196 = CARTESIAN_POINT ( 'NONE',  ( 20.00000000000000000, 0.0000000000000000000, -38.00000000000000000 ) ) ;
#197 = CARTESIAN_POINT ( 'NONE',  ( -20.00000000000000000, 2.449212707644754500E-015, 0.0000000000000000000 ) ) ;
#198 = VECTOR ( 'NONE', #199, 1000.000000000000000 ) ;
#199 = DIRECTION ( 'NONE',  ( -0.0000000000000000000, -0.0000000000000000000, 1.000000000000000000 ) ) ;
#200 = CARTESIAN_POINT ( 'NONE',  ( -20.00000000000000000, 2.449212707644754500E-015, -4.336808689942017700E-016 ) ) ;
#201 = LINE ( 'NONE', #200, #198 ) ;
#202 = CARTESIAN_POINT ( 'NONE',  ( 20.00000000000000000, 0.0000000000000000000, 0.0000000000000000000 ) ) ;
#203 = DIRECTION ( 'NONE',  ( 1.000000000000000000, 0.0000000000000000000, 0.0000000000000000000 ) ) ;
#204 = DIRECTION ( 'NONE',  ( -0.0000000000000000000, -0.0000000000000000000, 1.000000000000000000 ) ) ;
#205 = CARTESIAN_POINT ( 'NONE',  ( 0.0000000000000000000, 0.0000000000000000000, 0.0000000000000000000 ) ) ;
#206 = AXIS2_PLACEMENT_3D ( 'NONE', #205, #204, #203 ) ;
#207 = CIRCLE ( 'NONE', #206, 20.00000000000000000 ) ;
#208 = DIRECTION ( 'NONE',  ( 1.000000000000000000, 0.0000000000000000000, 0.0000000000000000000 ) ) ;
#209 = DIRECTION ( 'NONE',  ( -0.0000000000000000000, -0.0000000000000000000, 1.000000000000000000 ) ) ;
#210 = CARTESIAN_POINT ( 'NONE',  ( 0.0000000000000000000, 0.0000000000000000000, -4.336808689942017700E-016 ) ) ;
#211 = AXIS2_PLACEMENT_3D ( 'NONE', #239, #238, #237 ) ;
#212 = CIRCLE ( 'NONE', #211, 15.60000000000000000 ) ;
#213 = DIRECTION ( 'NONE',  ( -0.0000000000000000000, 1.331970471275043100E-016, -1.000000000000000000 ) ) ;
#214 = PLANE ( 'NONE',  #179 ) ;
#215 = DIRECTION ( 'NONE',  ( 0.0000000000000000000, 1.000000000000000000, 0.0000000000000000000 ) ) ;
#216 = DIRECTION ( 'NONE',  ( -0.0000000000000000000, 1.331970471275043100E-016, -1.000000000000000000 ) ) ;
#217 = CARTESIAN_POINT ( 'NONE',  ( 0.0000000000000000000, 1.592040838891555700E-015, -38.00000000000005000 ) ) ;
#218 = CARTESIAN_POINT ( 'NONE',  ( 1.910385911962909000E-015, -15.60000000000000300, -12.70000000000000500 ) ) ;
#219 = CYLINDRICAL_SURFACE ( 'NONE', #220, 20.00000000000000000 ) ;
#220 = AXIS2_PLACEMENT_3D ( 'NONE', #210, #209, #208 ) ;
#221 = FACE_OUTER_BOUND ( 'NONE', #1, .T. ) ;
#222 = DIRECTION ( 'NONE',  ( -0.0000000000000000000, -0.0000000000000000000, 1.000000000000000000 ) ) ;
#223 = VECTOR ( 'NONE', #222, 1000.000000000000000 ) ;
#224 = CARTESIAN_POINT ( 'NONE',  ( 20.00000000000000000, 0.0000000000000000000, -4.336808689942017700E-016 ) ) ;
#225 = DIRECTION ( 'NONE',  ( 0.0000000000000000000, 1.000000000000000000, 1.020425574104004400E-016 ) ) ;
#226 = DIRECTION ( 'NONE',  ( -0.0000000000000000000, 1.331970471275043100E-016, -1.000000000000000000 ) ) ;
#227 = CARTESIAN_POINT ( 'NONE',  ( 0.0000000000000000000, -1.777844453434309200E-015, -12.70000000000000300 ) ) ;
#228 = AXIS2_PLACEMENT_3D ( 'NONE', #217, #216, #215 ) ;
#229 = DIRECTION ( 'NONE',  ( 0.0000000000000000000, 1.000000000000000000, 1.112002228190261000E-016 ) ) ;
#230 = DIRECTION ( 'NONE',  ( -0.0000000000000000000, 1.331970471275043100E-016, -1.000000000000000000 ) ) ;
#231 = CARTESIAN_POINT ( 'NONE',  ( 0.0000000000000000000, 1.592040838891555700E-015, -38.00000000000005000 ) ) ;
#232 = AXIS2_PLACEMENT_3D ( 'NONE', #231, #256, #255 ) ;
#233 = CYLINDRICAL_SURFACE ( 'NONE', #232, 15.60000000000000000 ) ;
#234 = FACE_BOUND ( 'NONE', #35, .T. ) ;
#235 = CARTESIAN_POINT ( 'NONE',  ( 0.0000000000000000000, -1.777844453434309200E-015, -12.70000000000000300 ) ) ;
#236 = CARTESIAN_POINT ( 'NONE',  ( 0.0000000000000000000, 15.60000000000000000, -25.30000000000000100 ) ) ;
#237 = DIRECTION ( 'NONE',  ( 0.0000000000000000000, 1.000000000000000000, 2.224004456380521900E-016 ) ) ;
#238 = DIRECTION ( 'NONE',  ( -0.0000000000000000000, 1.331970471275043100E-016, -1.000000000000000000 ) ) ;
#239 = CARTESIAN_POINT ( 'NONE',  ( 0.0000000000000000000, -9.956165962775518200E-017, -25.30000000000000400 ) ) ;
#240 = DIRECTION ( 'NONE',  ( 0.0000000000000000000, 1.000000000000000000, 1.020425574104004400E-016 ) ) ;
#241 = AXIS2_PLACEMENT_3D ( 'NONE', #258, #230, #229 ) ;
#242 = CARTESIAN_POINT ( 'NONE',  ( 0.0000000000000000000, 15.60000000000000000, -12.69999999999999900 ) ) ;
#243 = AXIS2_PLACEMENT_3D ( 'NONE', #235, #257, #240 ) ;
#244 = FACE_OUTER_BOUND ( 'NONE', #60, .T. ) ;
#245 = CARTESIAN_POINT ( 'NONE',  ( 0.0000000000000000000, 15.60000000000000000, -12.70000000000000100 ) ) ;
#246 = CARTESIAN_POINT ( 'NONE',  ( 1.910385911962908600E-015, -15.60000000000000000, -25.30000000000000800 ) ) ;
#247 = DIRECTION ( 'NONE',  ( -0.0000000000000000000, 1.331970471275043100E-016, -1.000000000000000000 ) ) ;
#248 = VECTOR ( 'NONE', #247, 1000.000000000000000 ) ;
#249 = CARTESIAN_POINT ( 'NONE',  ( 1.910385911962908600E-015, -15.59999999999999800, -38.00000000000005000 ) ) ;
#250 = LINE ( 'NONE', #249, #248 ) ;
#251 = FACE_OUTER_BOUND ( 'NONE', #36, .T. ) ;
#252 = VECTOR ( 'NONE', #184, 1000.000000000000000 ) ;
#253 = CARTESIAN_POINT ( 'NONE',  ( 0.0000000000000000000, 17.00000000000000000, -38.00000000000005000 ) ) ;
#254 = LINE ( 'NONE', #253, #252 ) ;
#255 = DIRECTION ( 'NONE',  ( 0.0000000000000000000, 1.000000000000000000, 0.0000000000000000000 ) ) ;
#256 = DIRECTION ( 'NONE',  ( -0.0000000000000000000, 1.331970471275043100E-016, -1.000000000000000000 ) ) ;
#257 = DIRECTION ( 'NONE',  ( -0.0000000000000000000, 1.331970471275043100E-016, -1.000000000000000000 ) ) ;
#258 = CARTESIAN_POINT ( 'NONE',  ( 0.0000000000000000000, -1.777844453434309200E-015, -12.70000000000000300 ) ) ;
#259 = FACE_OUTER_BOUND ( 'NONE', #45, .T. ) ;
#260 = CYLINDRICAL_SURFACE ( 'NONE', #228, 15.60000000000000000 ) ;
#261 = CIRCLE ( 'NONE', #300, 17.00000000000000000 ) ;
#262 = DIRECTION ( 'NONE',  ( -0.0000000000000000000, 1.331970471275043100E-016, -1.000000000000000000 ) ) ;
#263 = VECTOR ( 'NONE', #262, 1000.000000000000000 ) ;
#264 = CARTESIAN_POINT ( 'NONE',  ( 0.0000000000000000000, 16.99999999999999600, -38.00000000000005000 ) ) ;
#265 = LINE ( 'NONE', #264, #263 ) ;
#266 = DIRECTION ( 'NONE',  ( 1.000000000000000000, 0.0000000000000000000, 0.0000000000000000000 ) ) ;
#267 = DIRECTION ( 'NONE',  ( -0.0000000000000000000, -0.0000000000000000000, 1.000000000000000000 ) ) ;
#268 = CARTESIAN_POINT ( 'NONE',  ( 0.0000000000000000000, 0.0000000000000000000, -4.336808689942017700E-016 ) ) ;
#269 = AXIS2_PLACEMENT_3D ( 'NONE', #268, #267, #266 ) ;
#270 = CARTESIAN_POINT ( 'NONE',  ( 0.0000000000000000000, 17.00000000000000000, -38.00000000000000000 ) ) ;
#271 = CYLINDRICAL_SURFACE ( 'NONE', #269, 20.00000000000000000 ) ;
#272 = DIRECTION ( 'NONE',  ( 0.0000000000000000000, 1.000000000000000000, 1.331970471275043100E-016 ) ) ;
#273 = CIRCLE ( 'NONE', #291, 16.99999999999999300 ) ;
#274 = DIRECTION ( 'NONE',  ( 0.0000000000000000000, 1.000000000000000000, 0.0000000000000000000 ) ) ;
#275 = DIRECTION ( 'NONE',  ( 0.0000000000000000000, 1.000000000000000000, 0.0000000000000000000 ) ) ;
#276 = DIRECTION ( 'NONE',  ( -0.0000000000000000000, 1.331970471275043100E-016, -1.000000000000000000 ) ) ;
#277 = CARTESIAN_POINT ( 'NONE',  ( 0.0000000000000000000, 1.592040838891555700E-015, -38.00000000000005000 ) ) ;
#278 = CARTESIAN_POINT ( 'NONE',  ( 0.0000000000000000000, -9.956165962775518200E-017, -25.30000000000000400 ) ) ;
#279 = CARTESIAN_POINT ( 'NONE',  ( 2.081830801498040900E-015, -16.99999999999999300, -25.30000000000000800 ) ) ;
#280 = CARTESIAN_POINT ( 'NONE',  ( 2.081830801498041700E-015, -17.00000000000000000, -12.70000000000000500 ) ) ;
#281 = CARTESIAN_POINT ( 'NONE',  ( 0.0000000000000000000, 16.99999999999999300, -25.30000000000000100 ) ) ;
#282 = CIRCLE ( 'NONE', #308, 17.00000000000000400 ) ;
#283 = DIRECTION ( 'NONE',  ( -0.0000000000000000000, 1.331970471275043100E-016, -1.000000000000000000 ) ) ;
#284 = VECTOR ( 'NONE', #283, 1000.000000000000000 ) ;
#285 = CARTESIAN_POINT ( 'NONE',  ( 2.081830801498041700E-015, -17.00000000000000000, -38.00000000000005000 ) ) ;
#286 = LINE ( 'NONE', #285, #284 ) ;
#287 = AXIS2_PLACEMENT_3D ( 'NONE', #277, #276, #275 ) ;
#288 = FACE_OUTER_BOUND ( 'NONE', #62, .T. ) ;
#289 = CARTESIAN_POINT ( 'NONE',  ( 2.081830801498041300E-015, -17.00000000000000000, -38.00000000000000000 ) ) ;
#290 = DIRECTION ( 'NONE',  ( -0.0000000000000000000, 1.331970471275043100E-016, -1.000000000000000000 ) ) ;
#291 = AXIS2_PLACEMENT_3D ( 'NONE', #278, #293, #296 ) ;
#292 = CARTESIAN_POINT ( 'NONE',  ( 0.0000000000000000000, 16.99999999999999300, -12.70000000000000100 ) ) ;
#293 = DIRECTION ( 'NONE',  ( -0.0000000000000000000, 1.331970471275043100E-016, -1.000000000000000000 ) ) ;
#294 = CARTESIAN_POINT ( 'NONE',  ( 2.081830801498040900E-015, -16.99999999999999600, -38.00000000000005000 ) ) ;
#295 = LINE ( 'NONE', #294, #298 ) ;
#296 = DIRECTION ( 'NONE',  ( 0.0000000000000000000, 1.000000000000000000, 2.040851148208009200E-016 ) ) ;
#297 = DIRECTION ( 'NONE',  ( -0.0000000000000000000, 1.331970471275043100E-016, -1.000000000000000000 ) ) ;
#298 = VECTOR ( 'NONE', #297, 1000.000000000000000 ) ;
#299 = CARTESIAN_POINT ( 'NONE',  ( 0.0000000000000000000, 1.592040838891549400E-015, -38.00000000000000000 ) ) ;
#300 = AXIS2_PLACEMENT_3D ( 'NONE', #299, #290, #274 ) ;
#301 = DIRECTION ( 'NONE',  ( 0.0000000000000000000, 1.000000000000000000, 1.112002228190261000E-016 ) ) ;
#302 = DIRECTION ( 'NONE',  ( -0.0000000000000000000, 1.331970471275043100E-016, -1.000000000000000000 ) ) ;
#303 = CARTESIAN_POINT ( 'NONE',  ( 0.0000000000000000000, -1.777844453434309200E-015, -12.70000000000000300 ) ) ;
#304 = AXIS2_PLACEMENT_3D ( 'NONE', #303, #302, #301 ) ;
#305 = CIRCLE ( 'NONE', #304, 15.60000000000000100 ) ;
#306 = DIRECTION ( 'NONE',  ( -0.0000000000000000000, 1.331970471275043100E-016, -1.000000000000000000 ) ) ;
#307 = CARTESIAN_POINT ( 'NONE',  ( 0.0000000000000000000, -3.469446951953614200E-015, 0.0000000000000000000 ) ) ;
#308 = AXIS2_PLACEMENT_3D ( 'NONE', #307, #306, #133 ) ;
#309 = CYLINDRICAL_SURFACE ( 'NONE', #287, 16.99999999999999600 ) ;
#310 = FACE_OUTER_BOUND ( 'NONE', #105, .T. ) ;
#311 = CARTESIAN_POINT ( 'NONE',  ( 2.081830801498042100E-015, -17.00000000000000700, -2.264349801167573500E-015 ) ) ;
#312 = SECURITY_CLASSIFICATION ( '', '', #313 ) ;
#313 = SECURITY_CLASSIFICATION_LEVEL ( 'unclassified' ) ;
#314 = CC_DESIGN_PERSON_AND_ORGANIZATION_ASSIGNMENT ( #316, #315, ( #331 ) ) ;
#315 = PERSON_AND_ORGANIZATION_ROLE ( 'design_supplier' ) ;
#316 = PERSON_AND_ORGANIZATION ( #345, #344 ) ;
#317 = CC_DESIGN_PERSON_AND_ORGANIZATION_ASSIGNMENT ( #319, #318, ( #331 ) ) ;
#318 = PERSON_AND_ORGANIZATION_ROLE ( 'creator' ) ;
#319 = PERSON_AND_ORGANIZATION ( #345, #344 ) ;
#320 = CC_DESIGN_APPROVAL ( #328, ( #331 ) ) ;
#321 = APPROVAL_DATE_TIME ( #322, #328 ) ;
#322 = DATE_AND_TIME ( #323, #324 ) ;
#323 = CALENDAR_DATE ( 2015, 12, 8 ) ;
#324 = LOCAL_TIME ( 10, 15, 15.00000000000000000, #325 ) ;
#325 = COORDINATED_UNIVERSAL_TIME_OFFSET ( 1, 0, .AHEAD. ) ;
#326 = APPROVAL_PERSON_ORGANIZATION ( #330, #328, #327 ) ;
#327 = APPROVAL_ROLE ( '' ) ;
#328 = APPROVAL ( #329, 'UNSPECIFIED' ) ;
#329 = APPROVAL_STATUS ( 'not_yet_approved' ) ;
#330 = PERSON_AND_ORGANIZATION ( #345, #344 ) ;
#331 = PRODUCT_DEFINITION_FORMATION_WITH_SPECIFIED_SOURCE ( 'ANY', '', #381, .NOT_KNOWN. ) ;
#332 = CC_DESIGN_DATE_AND_TIME_ASSIGNMENT ( #334, #333, ( #364 ) ) ;
#333 = DATE_TIME_ROLE ( 'creation_date' ) ;
#334 = DATE_AND_TIME ( #335, #336 ) ;
#335 = CALENDAR_DATE ( 2015, 12, 8 ) ;
#336 = LOCAL_TIME ( 10, 15, 15.00000000000000000, #337 ) ;
#337 = COORDINATED_UNIVERSAL_TIME_OFFSET ( 1, 0, .AHEAD. ) ;
#338 = CC_DESIGN_PERSON_AND_ORGANIZATION_ASSIGNMENT ( #340, #339, ( #364 ) ) ;
#339 = PERSON_AND_ORGANIZATION_ROLE ( 'creator' ) ;
#340 = PERSON_AND_ORGANIZATION ( #345, #344 ) ;
#341 = CC_DESIGN_PERSON_AND_ORGANIZATION_ASSIGNMENT ( #343, #342, ( #381 ) ) ;
#342 = PERSON_AND_ORGANIZATION_ROLE ( 'design_owner' ) ;
#343 = PERSON_AND_ORGANIZATION ( #345, #344 ) ;
#344 = ORGANIZATION ( 'UNSPECIFIED', 'UNSPECIFIED', '' ) ;
#345 = PERSON ( 'UNSPECIFIED', 'UNSPECIFIED', 'UNSPECIFIED', ('UNSPECIFIED'), ('UNSPECIFIED'), ('UNSPECIFIED') ) ;
#346 = SHAPE_DEFINITION_REPRESENTATION ( #373, #347 ) ;
#347 = ADVANCED_BREP_SHAPE_REPRESENTATION ( '12-0201-11_outokumpu', ( #13, #384 ), #348 ) ;
#348 =( GEOMETRIC_REPRESENTATION_CONTEXT ( 3 ) GLOBAL_UNCERTAINTY_ASSIGNED_CONTEXT ( ( #351 ) ) GLOBAL_UNIT_ASSIGNED_CONTEXT ( ( #387, #369, #368 ) ) REPRESENTATION_CONTEXT ( 'NONE', 'WORKASPACE' ) );
#349 = CARTESIAN_POINT ( 'NONE',  ( 0.0000000000000000000, 1.592040838891555700E-015, -38.00000000000005000 ) ) ;
#350 = AXIS2_PLACEMENT_3D ( 'NONE', #349, #372, #371 ) ;
#351 = UNCERTAINTY_MEASURE_WITH_UNIT (LENGTH_MEASURE( 1.000000000000000100E-005 ), #387, 'distance_accuracy_value', 'NONE');
#352 = CARTESIAN_POINT ( 'NONE',  ( 0.0000000000000000000, 17.00000000000000000, 2.264349801167573900E-015 ) ) ;
#353 = CC_DESIGN_APPROVAL ( #361, ( #364 ) ) ;
#354 = APPROVAL_DATE_TIME ( #355, #361 ) ;
#355 = DATE_AND_TIME ( #356, #357 ) ;
#356 = CALENDAR_DATE ( 2015, 12, 8 ) ;
#357 = LOCAL_TIME ( 10, 15, 15.00000000000000000, #358 ) ;
#358 = COORDINATED_UNIVERSAL_TIME_OFFSET ( 1, 0, .AHEAD. ) ;
#359 = APPROVAL_PERSON_ORGANIZATION ( #363, #361, #360 ) ;
#360 = APPROVAL_ROLE ( '' ) ;
#361 = APPROVAL ( #362, 'UNSPECIFIED' ) ;
#362 = APPROVAL_STATUS ( 'not_yet_approved' ) ;
#363 = PERSON_AND_ORGANIZATION ( #345, #344 ) ;
#364 = PRODUCT_DEFINITION ( 'UNKNOWN', '', #331, #365 ) ;
#365 = DESIGN_CONTEXT ( 'detailed design', #367, 'design' ) ;
#366 = APPLICATION_PROTOCOL_DEFINITION ( 'international standard', 'config_control_design', 1994, #367 ) ;
#367 = APPLICATION_CONTEXT ( 'configuration controlled 3d designs of mechanical parts and assemblies' ) ;
#368 =( NAMED_UNIT ( * ) SI_UNIT ( $, .STERADIAN. ) SOLID_ANGLE_UNIT ( ) );
#369 =( NAMED_UNIT ( * ) PLANE_ANGLE_UNIT ( ) SI_UNIT ( $, .RADIAN. ) );
#370 = CIRCLE ( 'NONE', #379, 15.60000000000000000 ) ;
#371 = DIRECTION ( 'NONE',  ( 0.0000000000000000000, 1.000000000000000000, 0.0000000000000000000 ) ) ;
#372 = DIRECTION ( 'NONE',  ( -0.0000000000000000000, 1.331970471275043100E-016, -1.000000000000000000 ) ) ;
#373 = PRODUCT_DEFINITION_SHAPE ( 'NONE', 'NONE',  #364 ) ;
#374 = PRODUCT_RELATED_PRODUCT_CATEGORY ( 'detail', '', ( #381 ) ) ;
#375 = CYLINDRICAL_SURFACE ( 'NONE', #350, 17.00000000000000000 ) ;
#376 = DIRECTION ( 'NONE',  ( 0.0000000000000000000, 1.000000000000000000, 2.224004456380521900E-016 ) ) ;
#377 = DIRECTION ( 'NONE',  ( -0.0000000000000000000, 1.331970471275043100E-016, -1.000000000000000000 ) ) ;
#378 = CARTESIAN_POINT ( 'NONE',  ( 0.0000000000000000000, -9.956165962775518200E-017, -25.30000000000000400 ) ) ;
#379 = AXIS2_PLACEMENT_3D ( 'NONE', #378, #377, #376 ) ;
#380 = CARTESIAN_POINT ( 'NONE',  ( 0.0000000000000000000, 0.0000000000000000000, 0.0000000000000000000 ) ) ;
#381 = PRODUCT ( '12-0201-11_outokumpu', '12-0201-11_outokumpu', '', ( #382 ) ) ;
#382 = MECHANICAL_CONTEXT ( 'NONE', #386, 'mechanical' ) ;
#383 = APPLICATION_PROTOCOL_DEFINITION ( 'international standard', 'config_control_design', 1994, #386 ) ;
#384 = AXIS2_PLACEMENT_3D ( 'NONE', #380, #385, #388 ) ;
#385 = DIRECTION ( 'NONE',  ( 0.0000000000000000000, 0.0000000000000000000, 1.000000000000000000 ) ) ;
#386 = APPLICATION_CONTEXT ( 'configuration controlled 3d designs of mechanical parts and assemblies' ) ;
#387 =( LENGTH_UNIT ( ) NAMED_UNIT ( * ) SI_UNIT ( .MILLI., .METRE. ) );
#388 = DIRECTION ( 'NONE',  ( 1.000000000000000000, 0.0000000000000000000, 0.0000000000000000000 ) ) ;
#389 = CC_DESIGN_SECURITY_CLASSIFICATION ( #312, ( #331 ) ) ;
#390 = CC_DESIGN_APPROVAL ( #398, ( #312 ) ) ;
#391 = APPROVAL_DATE_TIME ( #392, #398 ) ;
#392 = DATE_AND_TIME ( #393, #394 ) ;
#393 = CALENDAR_DATE ( 2015, 12, 8 ) ;
#394 = LOCAL_TIME ( 10, 15, 15.00000000000000000, #395 ) ;
#395 = COORDINATED_UNIVERSAL_TIME_OFFSET ( 1, 0, .AHEAD. ) ;
#396 = APPROVAL_PERSON_ORGANIZATION ( #400, #398, #397 ) ;
#397 = APPROVAL_ROLE ( '' ) ;
#398 = APPROVAL ( #399, 'UNSPECIFIED' ) ;
#399 = APPROVAL_STATUS ( 'not_yet_approved' ) ;
#400 = PERSON_AND_ORGANIZATION ( #345, #344 ) ;
#401 = CC_DESIGN_DATE_AND_TIME_ASSIGNMENT ( #403, #402, ( #312 ) ) ;
#402 = DATE_TIME_ROLE ( 'classification_date' ) ;
#403 = DATE_AND_TIME ( #404, #405 ) ;
#404 = CALENDAR_DATE ( 2015, 12, 8 ) ;
#405 = LOCAL_TIME ( 10, 15, 15.00000000000000000, #406 ) ;
#406 = COORDINATED_UNIVERSAL_TIME_OFFSET ( 1, 0, .AHEAD. ) ;
#407 = CC_DESIGN_PERSON_AND_ORGANIZATION_ASSIGNMENT ( #409, #408, ( #312 ) ) ;
#408 = PERSON_AND_ORGANIZATION_ROLE ( 'classification_officer' ) ;
#409 = PERSON_AND_ORGANIZATION ( #345, #344 ) ;
ENDSEC;
END-ISO-10303-21;
