ISO-10303-21;
HEADER;
FILE_DESCRIPTION (( 'STEP AP203' ),
    '1' );
FILE_NAME ('11-0201-03_outokumpu.step',
    '2015-08-10T12:16:21',
    ( '' ),
    ( '' ),
    'SwSTEP 2.0',
    'SolidWorks 2008',
    '' );
FILE_SCHEMA (( 'CONFIG_CONTROL_DESIGN' ));
ENDSEC;

DATA;
#1 = VERTEX_POINT ( 'NONE', #99 ) ;
#2 = VERTEX_POINT ( 'NONE', #96 ) ;
#3 = EDGE_CURVE ( 'NONE', #1, #2, #116, .T. ) ;
#4 = EDGE_LOOP ( 'NONE', ( #5, #39, #37, #36, #32 ) ) ;
#5 = ORIENTED_EDGE ( 'NONE', *, *, #3, .F. ) ;
#6 = EDGE_CURVE ( 'NONE', #10, #15, #123, .T. ) ;
#7 = ADVANCED_FACE ( 'NONE', ( #124 ), #128, .F. ) ;
#8 = ORIENTED_EDGE ( 'NONE', *, *, #6, .T. ) ;
#9 = EDGE_CURVE ( 'NONE', #10, #71, #169, .T. ) ;
#10 = VERTEX_POINT ( 'NONE', #133 ) ;
#11 = VERTEX_POINT ( 'NONE', #167 ) ;
#12 = ORIENTED_EDGE ( 'NONE', *, *, #17, .T. ) ;
#13 = ORIENTED_EDGE ( 'NONE', *, *, #9, .F. ) ;
#14 = VERTEX_POINT ( 'NONE', #166 ) ;
#15 = VERTEX_POINT ( 'NONE', #206 ) ;
#16 = ADVANCED_FACE ( 'NONE', ( #205 ), #165, .F. ) ;
#17 = EDGE_CURVE ( 'NONE', #15, #14, #178, .T. ) ;
#18 = EDGE_CURVE ( 'NONE', #14, #11, #194, .T. ) ;
#19 = EDGE_LOOP ( 'NONE', ( #105, #117 ) ) ;
#20 = ORIENTED_EDGE ( 'NONE', *, *, #18, .T. ) ;
#21 = DIRECTION ( 'NONE',  ( -0.0000000000000000000, 1.758318873533163600E-016, -1.000000000000000000 ) ) ;
#22 = EDGE_CURVE ( 'NONE', #24, #26, #203, .T. ) ;
#23 = VERTEX_POINT ( 'NONE', #185 ) ;
#24 = VERTEX_POINT ( 'NONE', #184 ) ;
#25 = ORIENTED_EDGE ( 'NONE', *, *, #43, .F. ) ;
#26 = VERTEX_POINT ( 'NONE', #183 ) ;
#27 = EDGE_LOOP ( 'NONE', ( #28, #66, #25, #62 ) ) ;
#28 = ORIENTED_EDGE ( 'NONE', *, *, #29, .T. ) ;
#29 = EDGE_CURVE ( 'NONE', #23, #24, #177, .T. ) ;
#30 = VERTEX_POINT ( 'NONE', #189 ) ;
#31 = ADVANCED_FACE ( 'NONE', ( #188 ), #132, .T. ) ;
#32 = ORIENTED_EDGE ( 'NONE', *, *, #34, .F. ) ;
#33 = EDGE_CURVE ( 'NONE', #30, #35, #162, .T. ) ;
#34 = EDGE_CURVE ( 'NONE', #2, #30, #176, .T. ) ;
#35 = VERTEX_POINT ( 'NONE', #171 ) ;
#36 = ORIENTED_EDGE ( 'NONE', *, *, #33, .F. ) ;
#37 = ORIENTED_EDGE ( 'NONE', *, *, #38, .T. ) ;
#38 = EDGE_CURVE ( 'NONE', #41, #35, #157, .T. ) ;
#39 = ORIENTED_EDGE ( 'NONE', *, *, #40, .T. ) ;
#40 = EDGE_CURVE ( 'NONE', #1, #41, #158, .T. ) ;
#41 = VERTEX_POINT ( 'NONE', #197 ) ;
#42 = EDGE_LOOP ( 'NONE', ( #47, #46, #44, #77, #76, #74 ) ) ;
#43 = EDGE_CURVE ( 'NONE', #61, #26, #145, .T. ) ;
#44 = ORIENTED_EDGE ( 'NONE', *, *, #45, .T. ) ;
#45 = EDGE_CURVE ( 'NONE', #30, #59, #141, .T. ) ;
#46 = ORIENTED_EDGE ( 'NONE', *, *, #34, .T. ) ;
#47 = ORIENTED_EDGE ( 'NONE', *, *, #49, .F. ) ;
#48 = EDGE_CURVE ( 'NONE', #59, #50, #136, .T. ) ;
#49 = EDGE_CURVE ( 'NONE', #2, #15, #219, .T. ) ;
#50 = VERTEX_POINT ( 'NONE', #220 ) ;
#51 = ORIENTED_EDGE ( 'NONE', *, *, #52, .F. ) ;
#52 = EDGE_CURVE ( 'NONE', #50, #10, #218, .T. ) ;
#53 = ORIENTED_EDGE ( 'NONE', *, *, #48, .F. ) ;
#54 = ADVANCED_FACE ( 'NONE', ( #260 ), #208, .F. ) ;
#55 = ORIENTED_EDGE ( 'NONE', *, *, #6, .F. ) ;
#56 = ORIENTED_EDGE ( 'NONE', *, *, #3, .T. ) ;
#57 = ORIENTED_EDGE ( 'NONE', *, *, #49, .T. ) ;
#58 = ORIENTED_EDGE ( 'NONE', *, *, #60, .T. ) ;
#59 = VERTEX_POINT ( 'NONE', #236 ) ;
#60 = EDGE_CURVE ( 'NONE', #59, #1, #256, .T. ) ;
#61 = VERTEX_POINT ( 'NONE', #257 ) ;
#62 = ORIENTED_EDGE ( 'NONE', *, *, #64, .F. ) ;
#63 = ADVANCED_FACE ( 'NONE', ( #267 ), #265, .F. ) ;
#64 = EDGE_CURVE ( 'NONE', #23, #61, #264, .T. ) ;
#65 = EDGE_LOOP ( 'NONE', ( #58, #56, #57, #55, #51, #53 ) ) ;
#66 = ORIENTED_EDGE ( 'NONE', *, *, #22, .T. ) ;
#67 = MANIFOLD_SOLID_BREP ( 'NONE', #110 ) ;
#68 = EDGE_LOOP ( 'NONE', ( #12, #20, #69, #13, #8 ) ) ;
#69 = ORIENTED_EDGE ( 'NONE', *, *, #70, .F. ) ;
#70 = EDGE_CURVE ( 'NONE', #71, #11, #214, .T. ) ;
#71 = VERTEX_POINT ( 'NONE', #231 ) ;
#72 = ADVANCED_FACE ( 'NONE', ( #230, #229 ), #228, .F. ) ;
#73 = EDGE_CURVE ( 'NONE', #14, #50, #222, .T. ) ;
#74 = ORIENTED_EDGE ( 'NONE', *, *, #17, .F. ) ;
#75 = EDGE_LOOP ( 'NONE', ( #84, #125 ) ) ;
#76 = ORIENTED_EDGE ( 'NONE', *, *, #73, .F. ) ;
#77 = ORIENTED_EDGE ( 'NONE', *, *, #48, .T. ) ;
#78 = ADVANCED_FACE ( 'NONE', ( #245 ), #244, .F. ) ;
#79 = EDGE_LOOP ( 'NONE', ( #81, #82, #83, #91, #109 ) ) ;
#80 = ADVANCED_FACE ( 'NONE', ( #243, #254 ), #253, .F. ) ;
#81 = ORIENTED_EDGE ( 'NONE', *, *, #18, .F. ) ;
#82 = ORIENTED_EDGE ( 'NONE', *, *, #73, .T. ) ;
#83 = ORIENTED_EDGE ( 'NONE', *, *, #52, .T. ) ;
#84 = ORIENTED_EDGE ( 'NONE', *, *, #29, .F. ) ;
#85 = ORIENTED_EDGE ( 'NONE', *, *, #64, .T. ) ;
#86 = EDGE_LOOP ( 'NONE', ( #89, #102, #97, #98, #108 ) ) ;
#87 = EDGE_LOOP ( 'NONE', ( #103, #104 ) ) ;
#88 = EDGE_CURVE ( 'NONE', #24, #23, #278, .T. ) ;
#89 = ORIENTED_EDGE ( 'NONE', *, *, #40, .F. ) ;
#90 = EDGE_CURVE ( 'NONE', #35, #41, #272, .T. ) ;
#91 = ORIENTED_EDGE ( 'NONE', *, *, #9, .T. ) ;
#92 = ORIENTED_EDGE ( 'NONE', *, *, #22, .F. ) ;
#93 = ADVANCED_FACE ( 'NONE', ( #311 ), #294, .T. ) ;
#94 = ORIENTED_EDGE ( 'NONE', *, *, #95, .T. ) ;
#95 = EDGE_CURVE ( 'NONE', #11, #71, #309, .T. ) ;
#96 = CARTESIAN_POINT ( 'NONE',  ( 1.020219553369422700E-015, -8.330999999999997700, -0.2909249306356903600 ) ) ;
#97 = ORIENTED_EDGE ( 'NONE', *, *, #45, .F. ) ;
#98 = ORIENTED_EDGE ( 'NONE', *, *, #33, .T. ) ;
#99 = CARTESIAN_POINT ( 'NONE',  ( -8.330999999999997700, 1.038032979296512500E-015, -0.2909249306356903600 ) ) ;
#100 = EDGE_LOOP ( 'NONE', ( #101, #94 ) ) ;
#101 = ORIENTED_EDGE ( 'NONE', *, *, #70, .T. ) ;
#102 = ORIENTED_EDGE ( 'NONE', *, *, #60, .F. ) ;
#103 = ORIENTED_EDGE ( 'NONE', *, *, #43, .T. ) ;
#104 = ORIENTED_EDGE ( 'NONE', *, *, #111, .T. ) ;
#105 = ORIENTED_EDGE ( 'NONE', *, *, #90, .F. ) ;
#106 = ORIENTED_EDGE ( 'NONE', *, *, #111, .F. ) ;
#107 = ADVANCED_FACE ( 'NONE', ( #308 ), #274, .F. ) ;
#108 = ORIENTED_EDGE ( 'NONE', *, *, #90, .T. ) ;
#109 = ORIENTED_EDGE ( 'NONE', *, *, #95, .F. ) ;
#110 = CLOSED_SHELL ( 'NONE', ( #16, #7, #31, #63, #54, #72, #80, #93, #107, #78 ) ) ;
#111 = EDGE_CURVE ( 'NONE', #26, #61, #289, .T. ) ;
#112 = DIRECTION ( 'NONE',  ( 1.000000000000000000, 0.0000000000000000000, 0.0000000000000000000 ) ) ;
#113 = DIRECTION ( 'NONE',  ( -0.0000000000000000000, -0.0000000000000000000, 1.000000000000000000 ) ) ;
#114 = CARTESIAN_POINT ( 'NONE',  ( 0.0000000000000000000, 0.0000000000000000000, -0.2909249306356903600 ) ) ;
#115 = AXIS2_PLACEMENT_3D ( 'NONE', #114, #113, #112 ) ;
#116 = CIRCLE ( 'NONE', #115, 8.330999999999997700 ) ;
#117 = ORIENTED_EDGE ( 'NONE', *, *, #38, .F. ) ;
#118 = EDGE_LOOP ( 'NONE', ( #92, #126, #85, #106 ) ) ;
#119 = DIRECTION ( 'NONE',  ( 1.000000000000000000, 0.0000000000000000000, 0.0000000000000000000 ) ) ;
#120 = DIRECTION ( 'NONE',  ( -0.0000000000000000000, -0.0000000000000000000, 1.000000000000000000 ) ) ;
#121 = CARTESIAN_POINT ( 'NONE',  ( 0.0000000000000000000, 0.0000000000000000000, -25.70907506936430700 ) ) ;
#122 = AXIS2_PLACEMENT_3D ( 'NONE', #121, #120, #119 ) ;
#123 = CIRCLE ( 'NONE', #122, 8.330999999999999500 ) ;
#124 = FACE_OUTER_BOUND ( 'NONE', #4, .T. ) ;
#125 = ORIENTED_EDGE ( 'NONE', *, *, #88, .F. ) ;
#126 = ORIENTED_EDGE ( 'NONE', *, *, #88, .T. ) ;
#127 = DIRECTION ( 'NONE',  ( 1.000000000000000000, 0.0000000000000000000, 0.0000000000000000000 ) ) ;
#128 = CONICAL_SURFACE ( 'NONE', #204, 8.330999999999997700, 0.7853981633974501700 ) ;
#129 = DIRECTION ( 'NONE',  ( 1.000000000000000000, 0.0000000000000000000, 0.0000000000000000000 ) ) ;
#130 = DIRECTION ( 'NONE',  ( -0.0000000000000000000, -0.0000000000000000000, 1.000000000000000000 ) ) ;
#131 = AXIS2_PLACEMENT_3D ( 'NONE', #187, #130, #129 ) ;
#132 = CYLINDRICAL_SURFACE ( 'NONE', #131, 10.75000000000000000 ) ;
#133 = CARTESIAN_POINT ( 'NONE',  ( -8.330999999999999500, 0.0000000000000000000, -25.70907506936430700 ) ) ;
#134 = VECTOR ( 'NONE', #21, 1000.000000000000000 ) ;
#135 = CARTESIAN_POINT ( 'NONE',  ( 0.0000000000000000000, 8.331000000000003100, -26.00000000000002800 ) ) ;
#136 = LINE ( 'NONE', #135, #134 ) ;
#137 = DIRECTION ( 'NONE',  ( 1.000000000000000000, 0.0000000000000000000, 0.0000000000000000000 ) ) ;
#138 = DIRECTION ( 'NONE',  ( -0.0000000000000000000, -0.0000000000000000000, 1.000000000000000000 ) ) ;
#139 = CARTESIAN_POINT ( 'NONE',  ( 0.0000000000000000000, 0.0000000000000000000, -0.2909249306356903600 ) ) ;
#140 = AXIS2_PLACEMENT_3D ( 'NONE', #139, #138, #137 ) ;
#141 = CIRCLE ( 'NONE', #140, 8.330999999999997700 ) ;
#142 = DIRECTION ( 'NONE',  ( 1.000000000000000000, 0.0000000000000000000, 0.0000000000000000000 ) ) ;
#143 = DIRECTION ( 'NONE',  ( -0.0000000000000000000, -0.0000000000000000000, 1.000000000000000000 ) ) ;
#144 = AXIS2_PLACEMENT_3D ( 'NONE', #196, #143, #142 ) ;
#145 = CIRCLE ( 'NONE', #144, 10.75000000000000000 ) ;
#146 = CARTESIAN_POINT ( 'NONE',  ( 0.0000000000000000000, 0.0000000000000000000, -0.2909249306356903600 ) ) ;
#147 = CARTESIAN_POINT ( 'NONE',  ( -8.621924930635703500, 0.0000000000000000000, -26.00000000000000400 ) ) ;
#148 = DIRECTION ( 'NONE',  ( -0.0000000000000000000, -0.0000000000000000000, 1.000000000000000000 ) ) ;
#149 = CARTESIAN_POINT ( 'NONE',  ( 0.0000000000000000000, 0.0000000000000000000, -25.70907506936430700 ) ) ;
#150 = AXIS2_PLACEMENT_3D ( 'NONE', #149, #148, #195 ) ;
#151 = CARTESIAN_POINT ( 'NONE',  ( 8.621924930635703500, 1.055846405223604200E-015, -26.00000000000000400 ) ) ;
#152 = DIRECTION ( 'NONE',  ( -0.0000000000000000000, -0.0000000000000000000, 1.000000000000000000 ) ) ;
#153 = DIRECTION ( 'NONE',  ( 1.000000000000000000, 0.0000000000000000000, 0.0000000000000000000 ) ) ;
#154 = DIRECTION ( 'NONE',  ( -0.0000000000000000000, -0.0000000000000000000, 1.000000000000000000 ) ) ;
#155 = CARTESIAN_POINT ( 'NONE',  ( 0.0000000000000000000, 0.0000000000000000000, -9.629327220283130000E-019 ) ) ;
#156 = AXIS2_PLACEMENT_3D ( 'NONE', #155, #154, #153 ) ;
#157 = CIRCLE ( 'NONE', #156, 8.621924930635689300 ) ;
#158 = LINE ( 'NONE', #200, #199 ) ;
#159 = DIRECTION ( 'NONE',  ( 0.7071067811865489100, 0.0000000000000000000, 0.7071067811865462400 ) ) ;
#160 = VECTOR ( 'NONE', #159, 999.9999999999998900 ) ;
#161 = CARTESIAN_POINT ( 'NONE',  ( 8.330999999999997700, 0.0000000000000000000, -0.2909249306356903600 ) ) ;
#162 = LINE ( 'NONE', #161, #160 ) ;
#163 = CARTESIAN_POINT ( 'NONE',  ( 0.0000000000000000000, 0.0000000000000000000, -26.00000000000000400 ) ) ;
#164 = AXIS2_PLACEMENT_3D ( 'NONE', #163, #180, #179 ) ;
#165 = CONICAL_SURFACE ( 'NONE', #164, 8.621924930635703500, 0.7853981633974632700 ) ;
#166 = CARTESIAN_POINT ( 'NONE',  ( 8.330999999999999500, 1.038032979296513300E-015, -25.70907506936430700 ) ) ;
#167 = CARTESIAN_POINT ( 'NONE',  ( 8.621924930635703500, 1.055846405223604200E-015, -26.00000000000000400 ) ) ;
#168 = DIRECTION ( 'NONE',  ( -0.7071067811865581200, 0.0000000000000000000, -0.7071067811865369100 ) ) ;
#169 = LINE ( 'NONE', #147, #170 ) ;
#170 = VECTOR ( 'NONE', #168, 1000.000000000000000 ) ;
#171 = CARTESIAN_POINT ( 'NONE',  ( 8.621924930635689300, 0.0000000000000000000, -9.629327220283130000E-019 ) ) ;
#172 = DIRECTION ( 'NONE',  ( 1.000000000000000000, 0.0000000000000000000, 0.0000000000000000000 ) ) ;
#173 = DIRECTION ( 'NONE',  ( -0.0000000000000000000, -0.0000000000000000000, 1.000000000000000000 ) ) ;
#174 = CARTESIAN_POINT ( 'NONE',  ( 0.0000000000000000000, 0.0000000000000000000, -0.2909249306356903600 ) ) ;
#175 = AXIS2_PLACEMENT_3D ( 'NONE', #174, #173, #172 ) ;
#176 = CIRCLE ( 'NONE', #175, 8.330999999999997700 ) ;
#177 = CIRCLE ( 'NONE', #193, 10.75000000000000000 ) ;
#178 = CIRCLE ( 'NONE', #150, 8.330999999999999500 ) ;
#179 = DIRECTION ( 'NONE',  ( -1.000000000000000000, 0.0000000000000000000, 0.0000000000000000000 ) ) ;
#180 = DIRECTION ( 'NONE',  ( 0.0000000000000000000, 0.0000000000000000000, -1.000000000000000000 ) ) ;
#181 = DIRECTION ( 'NONE',  ( 0.7071067811865581200, 8.659274570719484800E-017, -0.7071067811865369100 ) ) ;
#182 = VECTOR ( 'NONE', #181, 1000.000000000000000 ) ;
#183 = CARTESIAN_POINT ( 'NONE',  ( -10.75000000000000000, 1.316451830359055400E-015, 0.0000000000000000000 ) ) ;
#184 = CARTESIAN_POINT ( 'NONE',  ( -10.75000000000000000, 1.316451830359055400E-015, -26.00000000000000400 ) ) ;
#185 = CARTESIAN_POINT ( 'NONE',  ( 10.75000000000000000, 0.0000000000000000000, -26.00000000000000400 ) ) ;
#186 = DIRECTION ( 'NONE',  ( -0.0000000000000000000, -0.0000000000000000000, 1.000000000000000000 ) ) ;
#187 = CARTESIAN_POINT ( 'NONE',  ( 0.0000000000000000000, 0.0000000000000000000, -4.336808689942017700E-016 ) ) ;
#188 = FACE_OUTER_BOUND ( 'NONE', #27, .T. ) ;
#189 = CARTESIAN_POINT ( 'NONE',  ( 8.330999999999997700, 0.0000000000000000000, -0.2909249306356903600 ) ) ;
#190 = DIRECTION ( 'NONE',  ( 1.000000000000000000, 0.0000000000000000000, 0.0000000000000000000 ) ) ;
#191 = DIRECTION ( 'NONE',  ( -0.0000000000000000000, -0.0000000000000000000, 1.000000000000000000 ) ) ;
#192 = CARTESIAN_POINT ( 'NONE',  ( 0.0000000000000000000, 0.0000000000000000000, -26.00000000000000400 ) ) ;
#193 = AXIS2_PLACEMENT_3D ( 'NONE', #192, #191, #190 ) ;
#194 = LINE ( 'NONE', #151, #182 ) ;
#195 = DIRECTION ( 'NONE',  ( 1.000000000000000000, 0.0000000000000000000, 0.0000000000000000000 ) ) ;
#196 = CARTESIAN_POINT ( 'NONE',  ( 0.0000000000000000000, 0.0000000000000000000, 0.0000000000000000000 ) ) ;
#197 = CARTESIAN_POINT ( 'NONE',  ( -8.621924930635689300, 1.055846405223602500E-015, -9.629327220283130000E-019 ) ) ;
#198 = DIRECTION ( 'NONE',  ( -0.7071067811865489100, 8.659274570719371400E-017, 0.7071067811865462400 ) ) ;
#199 = VECTOR ( 'NONE', #198, 999.9999999999998900 ) ;
#200 = CARTESIAN_POINT ( 'NONE',  ( -8.330999999999997700, 1.020219553369422300E-015, -0.2909249306356903600 ) ) ;
#201 = VECTOR ( 'NONE', #186, 1000.000000000000000 ) ;
#202 = CARTESIAN_POINT ( 'NONE',  ( -10.75000000000000000, 1.316451830359055400E-015, -4.336808689942017700E-016 ) ) ;
#203 = LINE ( 'NONE', #202, #201 ) ;
#204 = AXIS2_PLACEMENT_3D ( 'NONE', #146, #152, #127 ) ;
#205 = FACE_OUTER_BOUND ( 'NONE', #68, .T. ) ;
#206 = CARTESIAN_POINT ( 'NONE',  ( 1.020219553369422700E-015, -8.330999999999999500, -25.70907506936430700 ) ) ;
#207 = DIRECTION ( 'NONE',  ( -0.0000000000000000000, -0.0000000000000000000, 1.000000000000000000 ) ) ;
#208 = CYLINDRICAL_SURFACE ( 'NONE', #235, 8.331000000000001300 ) ;
#209 = AXIS2_PLACEMENT_3D ( 'NONE', #237, #207, #221 ) ;
#210 = VECTOR ( 'NONE', #259, 1000.000000000000000 ) ;
#211 = DIRECTION ( 'NONE',  ( -0.0000000000000000000, -0.0000000000000000000, 1.000000000000000000 ) ) ;
#212 = CARTESIAN_POINT ( 'NONE',  ( 0.0000000000000000000, 0.0000000000000000000, -26.00000000000000400 ) ) ;
#213 = AXIS2_PLACEMENT_3D ( 'NONE', #212, #211, #232 ) ;
#214 = CIRCLE ( 'NONE', #213, 8.621924930635703500 ) ;
#215 = DIRECTION ( 'NONE',  ( -0.0000000000000000000, -0.0000000000000000000, 1.000000000000000000 ) ) ;
#216 = VECTOR ( 'NONE', #215, 1000.000000000000000 ) ;
#217 = CARTESIAN_POINT ( 'NONE',  ( 10.75000000000000000, 0.0000000000000000000, -4.336808689942017700E-016 ) ) ;
#218 = CIRCLE ( 'NONE', #209, 8.330999999999999500 ) ;
#219 = LINE ( 'NONE', #238, #210 ) ;
#220 = CARTESIAN_POINT ( 'NONE',  ( 0.0000000000000000000, 8.330999999999999500, -25.70907506936430700 ) ) ;
#221 = DIRECTION ( 'NONE',  ( 1.000000000000000000, 0.0000000000000000000, 0.0000000000000000000 ) ) ;
#222 = CIRCLE ( 'NONE', #248, 8.330999999999999500 ) ;
#223 = DIRECTION ( 'NONE',  ( 1.000000000000000000, 0.0000000000000000000, 0.0000000000000000000 ) ) ;
#224 = DIRECTION ( 'NONE',  ( 0.0000000000000000000, -0.0000000000000000000, 1.000000000000000000 ) ) ;
#225 = CARTESIAN_POINT ( 'NONE',  ( 0.0000000000000000000, 10.75000000000000000, -26.00000000000000400 ) ) ;
#226 = AXIS2_PLACEMENT_3D ( 'NONE', #225, #224, #223 ) ;
#227 = CARTESIAN_POINT ( 'NONE',  ( 0.0000000000000000000, 0.0000000000000000000, -25.70907506936430700 ) ) ;
#228 = PLANE ( 'NONE',  #226 ) ;
#229 = FACE_BOUND ( 'NONE', #100, .T. ) ;
#230 = FACE_OUTER_BOUND ( 'NONE', #75, .T. ) ;
#231 = CARTESIAN_POINT ( 'NONE',  ( -8.621924930635703500, 0.0000000000000000000, -26.00000000000000400 ) ) ;
#232 = DIRECTION ( 'NONE',  ( 1.000000000000000000, 0.0000000000000000000, 0.0000000000000000000 ) ) ;
#233 = DIRECTION ( 'NONE',  ( -0.0000000000000000000, 1.758318873533163600E-016, -1.000000000000000000 ) ) ;
#234 = CARTESIAN_POINT ( 'NONE',  ( 0.0000000000000000000, 1.102182119232615500E-015, -26.00000000000002800 ) ) ;
#235 = AXIS2_PLACEMENT_3D ( 'NONE', #234, #233, #258 ) ;
#236 = CARTESIAN_POINT ( 'NONE',  ( 0.0000000000000000000, 8.330999999999997700, -0.2909249306356903600 ) ) ;
#237 = CARTESIAN_POINT ( 'NONE',  ( 0.0000000000000000000, 0.0000000000000000000, -25.70907506936430700 ) ) ;
#238 = CARTESIAN_POINT ( 'NONE',  ( 1.020219553369422700E-015, -8.330999999999999500, -26.00000000000002800 ) ) ;
#239 = DIRECTION ( 'NONE',  ( -1.000000000000000000, 0.0000000000000000000, 0.0000000000000000000 ) ) ;
#240 = DIRECTION ( 'NONE',  ( 0.0000000000000000000, 0.0000000000000000000, -1.000000000000000000 ) ) ;
#241 = CARTESIAN_POINT ( 'NONE',  ( 0.0000000000000000000, 0.0000000000000000000, -26.00000000000000400 ) ) ;
#242 = AXIS2_PLACEMENT_3D ( 'NONE', #241, #240, #239 ) ;
#243 = FACE_OUTER_BOUND ( 'NONE', #87, .T. ) ;
#244 = CONICAL_SURFACE ( 'NONE', #242, 8.621924930635703500, 0.7853981633974632700 ) ;
#245 = FACE_OUTER_BOUND ( 'NONE', #79, .T. ) ;
#246 = DIRECTION ( 'NONE',  ( 1.000000000000000000, 0.0000000000000000000, 0.0000000000000000000 ) ) ;
#247 = DIRECTION ( 'NONE',  ( -0.0000000000000000000, -0.0000000000000000000, 1.000000000000000000 ) ) ;
#248 = AXIS2_PLACEMENT_3D ( 'NONE', #227, #247, #246 ) ;
#249 = DIRECTION ( 'NONE',  ( -1.000000000000000000, 0.0000000000000000000, -0.0000000000000000000 ) ) ;
#250 = DIRECTION ( 'NONE',  ( 0.0000000000000000000, 0.0000000000000000000, -1.000000000000000000 ) ) ;
#251 = AXIS2_PLACEMENT_3D ( 'NONE', #252, #250, #249 ) ;
#252 = CARTESIAN_POINT ( 'NONE',  ( 0.0000000000000000000, 10.75000000000000000, -2.168404344971008900E-016 ) ) ;
#253 = PLANE ( 'NONE',  #251 ) ;
#254 = FACE_BOUND ( 'NONE', #19, .T. ) ;
#255 = AXIS2_PLACEMENT_3D ( 'NONE', #270, #269, #268 ) ;
#256 = CIRCLE ( 'NONE', #255, 8.330999999999997700 ) ;
#257 = CARTESIAN_POINT ( 'NONE',  ( 10.75000000000000000, 0.0000000000000000000, 0.0000000000000000000 ) ) ;
#258 = DIRECTION ( 'NONE',  ( 0.0000000000000000000, 1.000000000000000000, 0.0000000000000000000 ) ) ;
#259 = DIRECTION ( 'NONE',  ( -0.0000000000000000000, 1.758318873533163600E-016, -1.000000000000000000 ) ) ;
#260 = FACE_OUTER_BOUND ( 'NONE', #42, .T. ) ;
#261 = DIRECTION ( 'NONE',  ( 0.0000000000000000000, 1.000000000000000000, 0.0000000000000000000 ) ) ;
#262 = DIRECTION ( 'NONE',  ( -0.0000000000000000000, 1.758318873533163600E-016, -1.000000000000000000 ) ) ;
#263 = CARTESIAN_POINT ( 'NONE',  ( 0.0000000000000000000, 1.102182119232615500E-015, -26.00000000000002800 ) ) ;
#264 = LINE ( 'NONE', #217, #216 ) ;
#265 = CYLINDRICAL_SURFACE ( 'NONE', #266, 8.331000000000001300 ) ;
#266 = AXIS2_PLACEMENT_3D ( 'NONE', #263, #262, #261 ) ;
#267 = FACE_OUTER_BOUND ( 'NONE', #65, .T. ) ;
#268 = DIRECTION ( 'NONE',  ( 1.000000000000000000, 0.0000000000000000000, 0.0000000000000000000 ) ) ;
#269 = DIRECTION ( 'NONE',  ( -0.0000000000000000000, -0.0000000000000000000, 1.000000000000000000 ) ) ;
#270 = CARTESIAN_POINT ( 'NONE',  ( 0.0000000000000000000, 0.0000000000000000000, -0.2909249306356903600 ) ) ;
#271 = DIRECTION ( 'NONE',  ( 1.000000000000000000, 0.0000000000000000000, 0.0000000000000000000 ) ) ;
#272 = CIRCLE ( 'NONE', #312, 8.621924930635689300 ) ;
#273 = CARTESIAN_POINT ( 'NONE',  ( 0.0000000000000000000, 0.0000000000000000000, -0.2909249306356903600 ) ) ;
#274 = CONICAL_SURFACE ( 'NONE', #291, 8.330999999999997700, 0.7853981633974501700 ) ;
#275 = DIRECTION ( 'NONE',  ( -0.0000000000000000000, -0.0000000000000000000, 1.000000000000000000 ) ) ;
#276 = DIRECTION ( 'NONE',  ( 1.000000000000000000, 0.0000000000000000000, 0.0000000000000000000 ) ) ;
#277 = DIRECTION ( 'NONE',  ( -0.0000000000000000000, -0.0000000000000000000, 1.000000000000000000 ) ) ;
#278 = CIRCLE ( 'NONE', #279, 10.75000000000000000 ) ;
#279 = AXIS2_PLACEMENT_3D ( 'NONE', #305, #301, #280 ) ;
#280 = DIRECTION ( 'NONE',  ( 1.000000000000000000, 0.0000000000000000000, 0.0000000000000000000 ) ) ;
#281 = CARTESIAN_POINT ( 'NONE',  ( 0.0000000000000000000, 0.0000000000000000000, 0.0000000000000000000 ) ) ;
#282 = AXIS2_PLACEMENT_3D ( 'NONE', #281, #284, #283 ) ;
#283 = DIRECTION ( 'NONE',  ( 1.000000000000000000, 0.0000000000000000000, 0.0000000000000000000 ) ) ;
#284 = DIRECTION ( 'NONE',  ( 0.0000000000000000000, 0.0000000000000000000, 1.000000000000000000 ) ) ;
#285 = DIRECTION ( 'NONE',  ( 1.000000000000000000, 0.0000000000000000000, 0.0000000000000000000 ) ) ;
#286 = DIRECTION ( 'NONE',  ( -0.0000000000000000000, -0.0000000000000000000, 1.000000000000000000 ) ) ;
#287 = CARTESIAN_POINT ( 'NONE',  ( 0.0000000000000000000, 0.0000000000000000000, 0.0000000000000000000 ) ) ;
#288 = AXIS2_PLACEMENT_3D ( 'NONE', #287, #286, #285 ) ;
#289 = CIRCLE ( 'NONE', #288, 10.75000000000000000 ) ;
#290 = DIRECTION ( 'NONE',  ( 1.000000000000000000, 0.0000000000000000000, 0.0000000000000000000 ) ) ;
#291 = AXIS2_PLACEMENT_3D ( 'NONE', #273, #275, #290 ) ;
#292 = DIRECTION ( 'NONE',  ( -0.0000000000000000000, -0.0000000000000000000, 1.000000000000000000 ) ) ;
#293 = CARTESIAN_POINT ( 'NONE',  ( 0.0000000000000000000, 0.0000000000000000000, -9.629327220283130000E-019 ) ) ;
#294 = CYLINDRICAL_SURFACE ( 'NONE', #297, 10.75000000000000000 ) ;
#295 = DIRECTION ( 'NONE',  ( -0.0000000000000000000, -0.0000000000000000000, 1.000000000000000000 ) ) ;
#296 = CARTESIAN_POINT ( 'NONE',  ( 0.0000000000000000000, 0.0000000000000000000, -4.336808689942017700E-016 ) ) ;
#297 = AXIS2_PLACEMENT_3D ( 'NONE', #296, #295, #310 ) ;
#298 = ADVANCED_BREP_SHAPE_REPRESENTATION ( '11-0201-03_outokumpu', ( #67, #282 ), #299 ) ;
#299 =( GEOMETRIC_REPRESENTATION_CONTEXT ( 3 ) GLOBAL_UNCERTAINTY_ASSIGNED_CONTEXT ( ( #300 ) ) GLOBAL_UNIT_ASSIGNED_CONTEXT ( ( #304, #303, #302 ) ) REPRESENTATION_CONTEXT ( 'NONE', 'WORKASPACE' ) );
#300 = UNCERTAINTY_MEASURE_WITH_UNIT (LENGTH_MEASURE( 1.000000000000000100E-005 ), #304, 'distance_accuracy_value', 'NONE');
#301 = DIRECTION ( 'NONE',  ( -0.0000000000000000000, -0.0000000000000000000, 1.000000000000000000 ) ) ;
#302 =( NAMED_UNIT ( * ) SI_UNIT ( $, .STERADIAN. ) SOLID_ANGLE_UNIT ( ) );
#303 =( NAMED_UNIT ( * ) PLANE_ANGLE_UNIT ( ) SI_UNIT ( $, .RADIAN. ) );
#304 =( LENGTH_UNIT ( ) NAMED_UNIT ( * ) SI_UNIT ( .MILLI., .METRE. ) );
#305 = CARTESIAN_POINT ( 'NONE',  ( 0.0000000000000000000, 0.0000000000000000000, -26.00000000000000400 ) ) ;
#306 = CARTESIAN_POINT ( 'NONE',  ( 0.0000000000000000000, 0.0000000000000000000, -26.00000000000000400 ) ) ;
#307 = AXIS2_PLACEMENT_3D ( 'NONE', #306, #277, #276 ) ;
#308 = FACE_OUTER_BOUND ( 'NONE', #86, .T. ) ;
#309 = CIRCLE ( 'NONE', #307, 8.621924930635703500 ) ;
#310 = DIRECTION ( 'NONE',  ( 1.000000000000000000, 0.0000000000000000000, 0.0000000000000000000 ) ) ;
#311 = FACE_OUTER_BOUND ( 'NONE', #118, .T. ) ;
#312 = AXIS2_PLACEMENT_3D ( 'NONE', #293, #292, #271 ) ;
#313 = LOCAL_TIME ( 14, 16, 21.00000000000000000, #314 ) ;
#314 = COORDINATED_UNIVERSAL_TIME_OFFSET ( 1, 0, .AHEAD. ) ;
#315 = CC_DESIGN_PERSON_AND_ORGANIZATION_ASSIGNMENT ( #317, #316, ( #365 ) ) ;
#316 = PERSON_AND_ORGANIZATION_ROLE ( 'creator' ) ;
#317 = PERSON_AND_ORGANIZATION ( #387, #338 ) ;
#318 = CC_DESIGN_APPROVAL ( #362, ( #365 ) ) ;
#319 = PERSON_AND_ORGANIZATION_ROLE ( 'classification_officer' ) ;
#320 = PERSON_AND_ORGANIZATION ( #387, #338 ) ;
#321 = SECURITY_CLASSIFICATION ( '', '', #322 ) ;
#322 = SECURITY_CLASSIFICATION_LEVEL ( 'unclassified' ) ;
#323 = CC_DESIGN_PERSON_AND_ORGANIZATION_ASSIGNMENT ( #325, #324, ( #348 ) ) ;
#324 = PERSON_AND_ORGANIZATION_ROLE ( 'design_supplier' ) ;
#325 = PERSON_AND_ORGANIZATION ( #387, #338 ) ;
#326 = CC_DESIGN_PERSON_AND_ORGANIZATION_ASSIGNMENT ( #328, #327, ( #348 ) ) ;
#327 = PERSON_AND_ORGANIZATION_ROLE ( 'creator' ) ;
#328 = PERSON_AND_ORGANIZATION ( #387, #338 ) ;
#329 = CC_DESIGN_APPROVAL ( #345, ( #348 ) ) ;
#330 = APPROVAL_DATE_TIME ( #331, #345 ) ;
#331 = DATE_AND_TIME ( #332, #333 ) ;
#332 = CALENDAR_DATE ( 2015, 10, 8 ) ;
#333 = LOCAL_TIME ( 14, 16, 21.00000000000000000, #334 ) ;
#334 = COORDINATED_UNIVERSAL_TIME_OFFSET ( 1, 0, .AHEAD. ) ;
#335 = APPROVAL_PERSON_ORGANIZATION ( #347, #345, #344 ) ;
#336 = PERSON_AND_ORGANIZATION_ROLE ( 'design_owner' ) ;
#337 = PERSON_AND_ORGANIZATION ( #387, #338 ) ;
#338 = ORGANIZATION ( 'UNSPECIFIED', 'UNSPECIFIED', '' ) ;
#339 = APPLICATION_PROTOCOL_DEFINITION ( 'international standard', 'config_control_design', 1994, #340 ) ;
#340 = APPLICATION_CONTEXT ( 'configuration controlled 3d designs of mechanical parts and assemblies' ) ;
#341 = CC_DESIGN_PERSON_AND_ORGANIZATION_ASSIGNMENT ( #337, #336, ( #388 ) ) ;
#342 = APPLICATION_CONTEXT ( 'configuration controlled 3d designs of mechanical parts and assemblies' ) ;
#343 = PRODUCT_DEFINITION_SHAPE ( 'NONE', 'NONE',  #365 ) ;
#344 = APPROVAL_ROLE ( '' ) ;
#345 = APPROVAL ( #346, 'UNSPECIFIED' ) ;
#346 = APPROVAL_STATUS ( 'not_yet_approved' ) ;
#347 = PERSON_AND_ORGANIZATION ( #387, #338 ) ;
#348 = PRODUCT_DEFINITION_FORMATION_WITH_SPECIFIED_SOURCE ( 'ANY', '', #388, .NOT_KNOWN. ) ;
#349 = CC_DESIGN_DATE_AND_TIME_ASSIGNMENT ( #351, #350, ( #365 ) ) ;
#350 = DATE_TIME_ROLE ( 'creation_date' ) ;
#351 = DATE_AND_TIME ( #352, #313 ) ;
#352 = CALENDAR_DATE ( 2015, 10, 8 ) ;
#353 = APPLICATION_PROTOCOL_DEFINITION ( 'international standard', 'config_control_design', 1994, #342 ) ;
#354 = SHAPE_DEFINITION_REPRESENTATION ( #343, #298 ) ;
#355 = APPROVAL_DATE_TIME ( #356, #362 ) ;
#356 = DATE_AND_TIME ( #357, #358 ) ;
#357 = CALENDAR_DATE ( 2015, 10, 8 ) ;
#358 = LOCAL_TIME ( 14, 16, 21.00000000000000000, #359 ) ;
#359 = COORDINATED_UNIVERSAL_TIME_OFFSET ( 1, 0, .AHEAD. ) ;
#360 = APPROVAL_PERSON_ORGANIZATION ( #364, #362, #361 ) ;
#361 = APPROVAL_ROLE ( '' ) ;
#362 = APPROVAL ( #363, 'UNSPECIFIED' ) ;
#363 = APPROVAL_STATUS ( 'not_yet_approved' ) ;
#364 = PERSON_AND_ORGANIZATION ( #387, #338 ) ;
#365 = PRODUCT_DEFINITION ( 'UNKNOWN', '', #348, #366 ) ;
#366 = DESIGN_CONTEXT ( 'detailed design', #340, 'design' ) ;
#367 = PRODUCT_RELATED_PRODUCT_CATEGORY ( 'detail', '', ( #388 ) ) ;
#368 = CC_DESIGN_SECURITY_CLASSIFICATION ( #321, ( #348 ) ) ;
#369 = CC_DESIGN_APPROVAL ( #377, ( #321 ) ) ;
#370 = APPROVAL_DATE_TIME ( #371, #377 ) ;
#371 = DATE_AND_TIME ( #372, #373 ) ;
#372 = CALENDAR_DATE ( 2015, 10, 8 ) ;
#373 = LOCAL_TIME ( 14, 16, 21.00000000000000000, #374 ) ;
#374 = COORDINATED_UNIVERSAL_TIME_OFFSET ( 1, 0, .AHEAD. ) ;
#375 = APPROVAL_PERSON_ORGANIZATION ( #379, #377, #376 ) ;
#376 = APPROVAL_ROLE ( '' ) ;
#377 = APPROVAL ( #378, 'UNSPECIFIED' ) ;
#378 = APPROVAL_STATUS ( 'not_yet_approved' ) ;
#379 = PERSON_AND_ORGANIZATION ( #387, #338 ) ;
#380 = CC_DESIGN_DATE_AND_TIME_ASSIGNMENT ( #382, #381, ( #321 ) ) ;
#381 = DATE_TIME_ROLE ( 'classification_date' ) ;
#382 = DATE_AND_TIME ( #383, #384 ) ;
#383 = CALENDAR_DATE ( 2015, 10, 8 ) ;
#384 = LOCAL_TIME ( 14, 16, 21.00000000000000000, #385 ) ;
#385 = COORDINATED_UNIVERSAL_TIME_OFFSET ( 1, 0, .AHEAD. ) ;
#386 = CC_DESIGN_PERSON_AND_ORGANIZATION_ASSIGNMENT ( #320, #319, ( #321 ) ) ;
#387 = PERSON ( 'UNSPECIFIED', 'UNSPECIFIED', 'UNSPECIFIED', ('UNSPECIFIED'), ('UNSPECIFIED'), ('UNSPECIFIED') ) ;
#388 = PRODUCT ( '11-0201-03_outokumpu', '11-0201-03_outokumpu', '', ( #389 ) ) ;
#389 = MECHANICAL_CONTEXT ( 'NONE', #342, 'mechanical' ) ;
ENDSEC;
END-ISO-10303-21;
