ISO-10303-21;
HEADER;
FILE_DESCRIPTION (( 'STEP AP203' ),
    '1' );
FILE_NAME ('11-0232-04_outokumpu.step',
    '2015-08-11T14:06:28',
    ( '' ),
    ( '' ),
    'SwSTEP 2.0',
    'SolidWorks 2008',
    '' );
FILE_SCHEMA (( 'CONFIG_CONTROL_DESIGN' ));
ENDSEC;

DATA;
#1 = APPROVAL ( #3, 'UNSPECIFIED' ) ;
#2 = PERSON_AND_ORGANIZATION ( #124, #123 ) ;
#3 = APPROVAL_STATUS ( 'not_yet_approved' ) ;
#4 = DIRECTION ( 'NONE',  ( 0.0000000000000000000, -1.000000000000000000, 8.906522175617115400E-017 ) ) ;
#5 = APPROVAL_ROLE ( '' ) ;
#6 = DATE_AND_TIME ( #258, #259 ) ;
#7 = COORDINATED_UNIVERSAL_TIME_OFFSET ( 1, 0, .AHEAD. ) ;
#8 = APPROVAL_PERSON_ORGANIZATION ( #2, #1, #5 ) ;
#9 = APPROVAL_DATE_TIME ( #12, #1 ) ;
#10 = LOCAL_TIME ( 16, 6, 28.00000000000000000, #7 ) ;
#11 = CALENDAR_DATE ( 2015, 11, 8 ) ;
#12 = DATE_AND_TIME ( #11, #10 ) ;
#13 = CC_DESIGN_APPROVAL ( #1, ( #85 ) ) ;
#14 = DATE_TIME_ROLE ( 'creation_date' ) ;
#15 = CC_DESIGN_DATE_AND_TIME_ASSIGNMENT ( #6, #14, ( #85 ) ) ;
#16 = ORIENTED_EDGE ( 'NONE', *, *, #90, .F. ) ;
#17 = ORIENTED_EDGE ( 'NONE', *, *, #31, .F. ) ;
#18 = ORIENTED_EDGE ( 'NONE', *, *, #19, .F. ) ;
#19 = EDGE_CURVE ( 'NONE', #104, #103, #84, .T. ) ;
#20 = EDGE_LOOP ( 'NONE', ( #21, #38 ) ) ;
#21 = ORIENTED_EDGE ( 'NONE', *, *, #23, .T. ) ;
#22 = VERTEX_POINT ( 'NONE', #79 ) ;
#23 = EDGE_CURVE ( 'NONE', #24, #22, #78, .T. ) ;
#24 = VERTEX_POINT ( 'NONE', #118 ) ;
#25 = ORIENTED_EDGE ( 'NONE', *, *, #23, .F. ) ;
#26 = EDGE_CURVE ( 'NONE', #89, #22, #117, .T. ) ;
#27 = EDGE_LOOP ( 'NONE', ( #30, #100, #96, #102 ) ) ;
#28 = MANIFOLD_SOLID_BREP ( 'NONE', #50 ) ;
#29 = ADVANCED_FACE ( 'NONE', ( #113 ), #112, .T. ) ;
#30 = ORIENTED_EDGE ( 'NONE', *, *, #31, .T. ) ;
#31 = EDGE_CURVE ( 'NONE', #103, #104, #141, .T. ) ;
#32 = VERTEX_POINT ( 'NONE', #242 ) ;
#33 = ORIENTED_EDGE ( 'NONE', *, *, #74, .F. ) ;
#34 = ORIENTED_EDGE ( 'NONE', *, *, #74, .T. ) ;
#35 = ORIENTED_EDGE ( 'NONE', *, *, #56, .T. ) ;
#36 = EDGE_LOOP ( 'NONE', ( #37, #59, #34, #35 ) ) ;
#37 = ORIENTED_EDGE ( 'NONE', *, *, #64, .F. ) ;
#38 = ORIENTED_EDGE ( 'NONE', *, *, #53, .T. ) ;
#39 = ADVANCED_FACE ( 'NONE', ( #153 ), #218, .T. ) ;
#40 = EDGE_LOOP ( 'NONE', ( #41, #42, #43, #44 ) ) ;
#41 = ORIENTED_EDGE ( 'NONE', *, *, #99, .F. ) ;
#42 = ORIENTED_EDGE ( 'NONE', *, *, #19, .T. ) ;
#43 = ORIENTED_EDGE ( 'NONE', *, *, #93, .T. ) ;
#44 = ORIENTED_EDGE ( 'NONE', *, *, #45, .F. ) ;
#45 = EDGE_CURVE ( 'NONE', #98, #95, #239, .T. ) ;
#46 = ADVANCED_FACE ( 'NONE', ( #148 ), #240, .F. ) ;
#47 = EDGE_LOOP ( 'NONE', ( #48, #49 ) ) ;
#48 = ORIENTED_EDGE ( 'NONE', *, *, #97, .T. ) ;
#49 = ORIENTED_EDGE ( 'NONE', *, *, #45, .T. ) ;
#50 = CLOSED_SHELL ( 'NONE', ( #29, #92, #65, #75, #73, #68, #54, #39, #46 ) ) ;
#51 = ORIENTED_EDGE ( 'NONE', *, *, #62, .T. ) ;
#52 = ORIENTED_EDGE ( 'NONE', *, *, #53, .F. ) ;
#53 = EDGE_CURVE ( 'NONE', #22, #24, #140, .T. ) ;
#54 = ADVANCED_FACE ( 'NONE', ( #135, #134 ), #133, .F. ) ;
#55 = EDGE_LOOP ( 'NONE', ( #17, #18 ) ) ;
#56 = EDGE_CURVE ( 'NONE', #77, #58, #131, .T. ) ;
#57 = ORIENTED_EDGE ( 'NONE', *, *, #76, .F. ) ;
#58 = VERTEX_POINT ( 'NONE', #216 ) ;
#59 = ORIENTED_EDGE ( 'NONE', *, *, #60, .F. ) ;
#60 = EDGE_CURVE ( 'NONE', #89, #32, #214, .T. ) ;
#61 = ORIENTED_EDGE ( 'NONE', *, *, #76, .T. ) ;
#62 = EDGE_CURVE ( 'NONE', #32, #24, #215, .T. ) ;
#63 = ORIENTED_EDGE ( 'NONE', *, *, #64, .T. ) ;
#64 = EDGE_CURVE ( 'NONE', #32, #58, #194, .T. ) ;
#65 = ADVANCED_FACE ( 'NONE', ( #203 ), #201, .F. ) ;
#66 = EDGE_LOOP ( 'NONE', ( #67, #57 ) ) ;
#67 = ORIENTED_EDGE ( 'NONE', *, *, #56, .F. ) ;
#68 = ADVANCED_FACE ( 'NONE', ( #202 ), #188, .F. ) ;
#69 = EDGE_LOOP ( 'NONE', ( #70, #71, #51, #52 ) ) ;
#70 = ORIENTED_EDGE ( 'NONE', *, *, #26, .F. ) ;
#71 = ORIENTED_EDGE ( 'NONE', *, *, #60, .T. ) ;
#72 = EDGE_LOOP ( 'NONE', ( #16, #63, #61, #33 ) ) ;
#73 = ADVANCED_FACE ( 'NONE', ( #187 ), #186, .F. ) ;
#74 = EDGE_CURVE ( 'NONE', #89, #77, #251, .T. ) ;
#75 = ADVANCED_FACE ( 'NONE', ( #247 ), #246, .F. ) ;
#76 = EDGE_CURVE ( 'NONE', #58, #77, #178, .T. ) ;
#77 = VERTEX_POINT ( 'NONE', #174 ) ;
#78 = CIRCLE ( 'NONE', #122, 10.84338236234971100 ) ;
#79 = CARTESIAN_POINT ( 'NONE',  ( 1.327887493785895800E-015, -10.84338236234971300, -10.99999999999999300 ) ) ;
#80 = DIRECTION ( 'NONE',  ( 0.0000000000000000000, -1.000000000000000000, 1.284980352575412700E-016 ) ) ;
#81 = DIRECTION ( 'NONE',  ( -0.0000000000000000000, 8.906522175617115400E-017, 1.000000000000000000 ) ) ;
#82 = CARTESIAN_POINT ( 'NONE',  ( 0.0000000000000000000, -9.797174393178823700E-016, -10.99999999999999600 ) ) ;
#83 = AXIS2_PLACEMENT_3D ( 'NONE', #82, #81, #80 ) ;
#84 = CIRCLE ( 'NONE', #83, 13.50000000000000000 ) ;
#85 = PRODUCT_DEFINITION ( 'UNKNOWN', '', #284, #86 ) ;
#86 = DESIGN_CONTEXT ( 'detailed design', #111, 'design' ) ;
#87 = APPLICATION_PROTOCOL_DEFINITION ( 'international standard', 'config_control_design', 1994, #111 ) ;
#88 = ORIENTED_EDGE ( 'NONE', *, *, #90, .T. ) ;
#89 = VERTEX_POINT ( 'NONE', #173 ) ;
#90 = EDGE_CURVE ( 'NONE', #32, #89, #171, .T. ) ;
#91 = ORIENTED_EDGE ( 'NONE', *, *, #26, .T. ) ;
#92 = ADVANCED_FACE ( 'NONE', ( #172 ), #165, .F. ) ;
#93 = EDGE_CURVE ( 'NONE', #103, #95, #161, .T. ) ;
#94 = EDGE_LOOP ( 'NONE', ( #88, #91, #25, #101 ) ) ;
#95 = VERTEX_POINT ( 'NONE', #238 ) ;
#96 = ORIENTED_EDGE ( 'NONE', *, *, #97, .F. ) ;
#97 = EDGE_CURVE ( 'NONE', #95, #98, #237, .T. ) ;
#98 = VERTEX_POINT ( 'NONE', #232 ) ;
#99 = EDGE_CURVE ( 'NONE', #104, #98, #231, .T. ) ;
#100 = ORIENTED_EDGE ( 'NONE', *, *, #99, .T. ) ;
#101 = ORIENTED_EDGE ( 'NONE', *, *, #62, .F. ) ;
#102 = ORIENTED_EDGE ( 'NONE', *, *, #93, .F. ) ;
#103 = VERTEX_POINT ( 'NONE', #227 ) ;
#104 = VERTEX_POINT ( 'NONE', #226 ) ;
#105 = CC_DESIGN_PERSON_AND_ORGANIZATION_ASSIGNMENT ( #107, #106, ( #125 ) ) ;
#106 = PERSON_AND_ORGANIZATION_ROLE ( 'design_owner' ) ;
#107 = PERSON_AND_ORGANIZATION ( #124, #123 ) ;
#108 = DIRECTION ( 'NONE',  ( -0.0000000000000000000, 8.906522175617115400E-017, 1.000000000000000000 ) ) ;
#109 = CARTESIAN_POINT ( 'NONE',  ( 0.0000000000000000000, 0.0000000000000000000, 0.0000000000000000000 ) ) ;
#110 = AXIS2_PLACEMENT_3D ( 'NONE', #109, #108, #4 ) ;
#111 = APPLICATION_CONTEXT ( 'configuration controlled 3d designs of mechanical parts and assemblies' ) ;
#112 = CYLINDRICAL_SURFACE ( 'NONE', #110, 13.49999999999999800 ) ;
#113 = FACE_OUTER_BOUND ( 'NONE', #27, .T. ) ;
#114 = DIRECTION ( 'NONE',  ( 8.659274570719355400E-017, -0.7071067811865475700, -0.7071067811865474600 ) ) ;
#115 = VECTOR ( 'NONE', #114, 1000.000000000000000 ) ;
#116 = CARTESIAN_POINT ( 'NONE',  ( 1.283081307217396000E-015, -10.47750000000000300, -10.63411763765028300 ) ) ;
#117 = LINE ( 'NONE', #116, #115 ) ;
#118 = CARTESIAN_POINT ( 'NONE',  ( 0.0000000000000000000, 10.84338236234970800, -10.99999999999999600 ) ) ;
#119 = DIRECTION ( 'NONE',  ( 0.0000000000000000000, -1.000000000000000000, 1.599799230542766300E-016 ) ) ;
#120 = DIRECTION ( 'NONE',  ( -0.0000000000000000000, 8.906522175617115400E-017, 1.000000000000000000 ) ) ;
#121 = CARTESIAN_POINT ( 'NONE',  ( 0.0000000000000000000, -9.797174393178821700E-016, -10.99999999999999500 ) ) ;
#122 = AXIS2_PLACEMENT_3D ( 'NONE', #121, #120, #119 ) ;
#123 = ORGANIZATION ( 'UNSPECIFIED', 'UNSPECIFIED', '' ) ;
#124 = PERSON ( 'UNSPECIFIED', 'UNSPECIFIED', 'UNSPECIFIED', ('UNSPECIFIED'), ('UNSPECIFIED'), ('UNSPECIFIED') ) ;
#125 = PRODUCT ( '11-0232-04_outokumpu', '11-0232-04_outokumpu', '', ( #126 ) ) ;
#126 = MECHANICAL_CONTEXT ( 'NONE', #219, 'mechanical' ) ;
#127 = APPLICATION_PROTOCOL_DEFINITION ( 'international standard', 'config_control_design', 1994, #219 ) ;
#128 = DIRECTION ( 'NONE',  ( 0.0000000000000000000, -1.000000000000000000, 8.906522175617115400E-017 ) ) ;
#129 = DIRECTION ( 'NONE',  ( -0.0000000000000000000, 8.906522175617115400E-017, 1.000000000000000000 ) ) ;
#130 = AXIS2_PLACEMENT_3D ( 'NONE', #132, #129, #128 ) ;
#131 = CIRCLE ( 'NONE', #157, 10.47749999999999700 ) ;
#132 = CARTESIAN_POINT ( 'NONE',  ( 0.0000000000000000000, 13.49999999999999800, -10.99999999999999600 ) ) ;
#133 = PLANE ( 'NONE',  #130 ) ;
#134 = FACE_BOUND ( 'NONE', #20, .T. ) ;
#135 = FACE_OUTER_BOUND ( 'NONE', #55, .T. ) ;
#136 = DIRECTION ( 'NONE',  ( 0.0000000000000000000, -1.000000000000000000, 1.599799230542766300E-016 ) ) ;
#137 = DIRECTION ( 'NONE',  ( -0.0000000000000000000, 8.906522175617115400E-017, 1.000000000000000000 ) ) ;
#138 = CARTESIAN_POINT ( 'NONE',  ( 0.0000000000000000000, -9.797174393178821700E-016, -10.99999999999999500 ) ) ;
#139 = AXIS2_PLACEMENT_3D ( 'NONE', #138, #137, #136 ) ;
#140 = CIRCLE ( 'NONE', #139, 10.84338236234971100 ) ;
#141 = CIRCLE ( 'NONE', #209, 13.50000000000000000 ) ;
#142 = DIRECTION ( 'NONE',  ( -0.0000000000000000000, 8.906522175617115400E-017, 1.000000000000000000 ) ) ;
#143 = CARTESIAN_POINT ( 'NONE',  ( 0.0000000000000000000, 0.0000000000000000000, 0.0000000000000000000 ) ) ;
#144 = AXIS2_PLACEMENT_3D ( 'NONE', #143, #146, #145 ) ;
#145 = DIRECTION ( 'NONE',  ( 1.000000000000000000, 0.0000000000000000000, 0.0000000000000000000 ) ) ;
#146 = DIRECTION ( 'NONE',  ( 0.0000000000000000000, 0.0000000000000000000, 1.000000000000000000 ) ) ;
#147 = CARTESIAN_POINT ( 'NONE',  ( 0.0000000000000000000, -9.797174393178823700E-016, -10.99999999999999600 ) ) ;
#148 = FACE_OUTER_BOUND ( 'NONE', #47, .T. ) ;
#149 = DIRECTION ( 'NONE',  ( 0.0000000000000000000, -1.000000000000000000, 1.284980352575412900E-016 ) ) ;
#150 = DIRECTION ( 'NONE',  ( -0.0000000000000000000, 8.906522175617115400E-017, 1.000000000000000000 ) ) ;
#151 = CARTESIAN_POINT ( 'NONE',  ( 0.0000000000000000000, 9.797174393178827600E-016, 11.00000000000000000 ) ) ;
#152 = AXIS2_PLACEMENT_3D ( 'NONE', #151, #150, #149 ) ;
#153 = FACE_OUTER_BOUND ( 'NONE', #40, .T. ) ;
#154 = DIRECTION ( 'NONE',  ( 0.0000000000000000000, -1.000000000000000000, 8.278327253528072000E-017 ) ) ;
#155 = DIRECTION ( 'NONE',  ( -0.0000000000000000000, 8.906522175617115400E-017, 1.000000000000000000 ) ) ;
#156 = CARTESIAN_POINT ( 'NONE',  ( 0.0000000000000000000, 6.234565522931982500E-016, 7.000000000000001800 ) ) ;
#157 = AXIS2_PLACEMENT_3D ( 'NONE', #156, #155, #154 ) ;
#158 = DIRECTION ( 'NONE',  ( -0.0000000000000000000, 8.906522175617115400E-017, 1.000000000000000000 ) ) ;
#159 = VECTOR ( 'NONE', #158, 1000.000000000000000 ) ;
#160 = CARTESIAN_POINT ( 'NONE',  ( 0.0000000000000000000, -13.49999999999999800, 1.202380493708310400E-015 ) ) ;
#161 = LINE ( 'NONE', #160, #159 ) ;
#162 = DIRECTION ( 'NONE',  ( 0.0000000000000000000, 1.000000000000000000, -1.655665450705613900E-016 ) ) ;
#163 = DIRECTION ( 'NONE',  ( 0.0000000000000000000, -8.906522175617115400E-017, -1.000000000000000000 ) ) ;
#164 = AXIS2_PLACEMENT_3D ( 'NONE', #166, #163, #162 ) ;
#165 = CONICAL_SURFACE ( 'NONE', #164, 10.47750000000000100, 0.7853981633974482800 ) ;
#166 = CARTESIAN_POINT ( 'NONE',  ( 0.0000000000000000000, -9.471300455785332900E-016, -10.63411763765028300 ) ) ;
#167 = DIRECTION ( 'NONE',  ( 0.0000000000000000000, -1.000000000000000000, 1.655665450705613900E-016 ) ) ;
#168 = DIRECTION ( 'NONE',  ( -0.0000000000000000000, 8.906522175617115400E-017, 1.000000000000000000 ) ) ;
#169 = CARTESIAN_POINT ( 'NONE',  ( 0.0000000000000000000, -9.471300455785332900E-016, -10.63411763765028300 ) ) ;
#170 = AXIS2_PLACEMENT_3D ( 'NONE', #169, #168, #167 ) ;
#171 = CIRCLE ( 'NONE', #170, 10.47750000000000100 ) ;
#172 = FACE_OUTER_BOUND ( 'NONE', #94, .T. ) ;
#173 = CARTESIAN_POINT ( 'NONE',  ( 0.0000000000000000000, -10.47750000000000300, -10.63411763765028300 ) ) ;
#174 = CARTESIAN_POINT ( 'NONE',  ( 0.0000000000000000000, -10.47749999999999700, 7.000000000000002700 ) ) ;
#175 = DIRECTION ( 'NONE',  ( 0.0000000000000000000, -1.000000000000000000, 8.278327253528072000E-017 ) ) ;
#176 = DIRECTION ( 'NONE',  ( -0.0000000000000000000, 8.906522175617115400E-017, 1.000000000000000000 ) ) ;
#177 = AXIS2_PLACEMENT_3D ( 'NONE', #244, #176, #175 ) ;
#178 = CIRCLE ( 'NONE', #177, 10.47749999999999700 ) ;
#179 = DIRECTION ( 'NONE',  ( 0.0000000000000000000, -1.000000000000000000, 8.906522175617115400E-017 ) ) ;
#180 = DIRECTION ( 'NONE',  ( -0.0000000000000000000, 8.906522175617115400E-017, 1.000000000000000000 ) ) ;
#181 = AXIS2_PLACEMENT_3D ( 'NONE', #245, #180, #179 ) ;
#182 = DIRECTION ( 'NONE',  ( 0.0000000000000000000, 1.000000000000000000, -1.655665450705613900E-016 ) ) ;
#183 = DIRECTION ( 'NONE',  ( 0.0000000000000000000, -8.906522175617115400E-017, -1.000000000000000000 ) ) ;
#184 = CARTESIAN_POINT ( 'NONE',  ( 0.0000000000000000000, -9.471300455785332900E-016, -10.63411763765028300 ) ) ;
#185 = AXIS2_PLACEMENT_3D ( 'NONE', #184, #183, #182 ) ;
#186 = CYLINDRICAL_SURFACE ( 'NONE', #255, 10.47749999999999900 ) ;
#187 = FACE_OUTER_BOUND ( 'NONE', #36, .T. ) ;
#188 = CONICAL_SURFACE ( 'NONE', #185, 10.47750000000000100, 0.7853981633974482800 ) ;
#189 = DIRECTION ( 'NONE',  ( 0.0000000000000000000, -1.000000000000000000, 8.906522175617114100E-017 ) ) ;
#190 = DIRECTION ( 'NONE',  ( 0.0000000000000000000, 1.000000000000000000, -8.906522175617115400E-017 ) ) ;
#191 = DIRECTION ( 'NONE',  ( -0.0000000000000000000, 8.906522175617115400E-017, 1.000000000000000000 ) ) ;
#192 = AXIS2_PLACEMENT_3D ( 'NONE', #217, #191, #241 ) ;
#193 = CARTESIAN_POINT ( 'NONE',  ( 1.283081307217395600E-015, 10.47749999999999900, -9.331808609502831000E-016 ) ) ;
#194 = LINE ( 'NONE', #193, #205 ) ;
#195 = DIRECTION ( 'NONE',  ( 0.0000000000000000000, 0.7071067811865473500, -0.7071067811865477900 ) ) ;
#196 = VECTOR ( 'NONE', #195, 999.9999999999998900 ) ;
#197 = CARTESIAN_POINT ( 'NONE',  ( 0.0000000000000000000, 10.47749999999999900, -10.63411763765028400 ) ) ;
#198 = DIRECTION ( 'NONE',  ( -0.0000000000000000000, 8.906522175617115400E-017, 1.000000000000000000 ) ) ;
#199 = CARTESIAN_POINT ( 'NONE',  ( 0.0000000000000000000, 0.0000000000000000000, 0.0000000000000000000 ) ) ;
#200 = AXIS2_PLACEMENT_3D ( 'NONE', #199, #198, #189 ) ;
#201 = CYLINDRICAL_SURFACE ( 'NONE', #200, 10.47749999999999900 ) ;
#202 = FACE_OUTER_BOUND ( 'NONE', #69, .T. ) ;
#203 = FACE_OUTER_BOUND ( 'NONE', #72, .T. ) ;
#204 = DIRECTION ( 'NONE',  ( -0.0000000000000000000, 8.906522175617115400E-017, 1.000000000000000000 ) ) ;
#205 = VECTOR ( 'NONE', #204, 1000.000000000000000 ) ;
#206 = DIRECTION ( 'NONE',  ( 0.0000000000000000000, -8.906522175617115400E-017, -1.000000000000000000 ) ) ;
#207 = CARTESIAN_POINT ( 'NONE',  ( 0.0000000000000000000, -9.797174393178825700E-016, 11.00000000000000000 ) ) ;
#208 = AXIS2_PLACEMENT_3D ( 'NONE', #207, #206, #190 ) ;
#209 = AXIS2_PLACEMENT_3D ( 'NONE', #147, #142, #243 ) ;
#210 = DIRECTION ( 'NONE',  ( 0.0000000000000000000, -1.000000000000000000, 1.655665450705613900E-016 ) ) ;
#211 = DIRECTION ( 'NONE',  ( -0.0000000000000000000, 8.906522175617115400E-017, 1.000000000000000000 ) ) ;
#212 = CARTESIAN_POINT ( 'NONE',  ( 0.0000000000000000000, -9.471300455785332900E-016, -10.63411763765028300 ) ) ;
#213 = AXIS2_PLACEMENT_3D ( 'NONE', #212, #211, #210 ) ;
#214 = CIRCLE ( 'NONE', #213, 10.47750000000000100 ) ;
#215 = LINE ( 'NONE', #197, #196 ) ;
#216 = CARTESIAN_POINT ( 'NONE',  ( 1.283081307217395600E-015, 10.47749999999999700, 7.000000000000000900 ) ) ;
#217 = CARTESIAN_POINT ( 'NONE',  ( 0.0000000000000000000, 0.0000000000000000000, 0.0000000000000000000 ) ) ;
#218 = CYLINDRICAL_SURFACE ( 'NONE', #192, 13.49999999999999800 ) ;
#219 = APPLICATION_CONTEXT ( 'configuration controlled 3d designs of mechanical parts and assemblies' ) ;
#220 = ADVANCED_BREP_SHAPE_REPRESENTATION ( '11-0232-04_outokumpu', ( #28, #144 ), #221 ) ;
#221 =( GEOMETRIC_REPRESENTATION_CONTEXT ( 3 ) GLOBAL_UNCERTAINTY_ASSIGNED_CONTEXT ( ( #222 ) ) GLOBAL_UNIT_ASSIGNED_CONTEXT ( ( #225, #224, #223 ) ) REPRESENTATION_CONTEXT ( 'NONE', 'WORKASPACE' ) );
#222 = UNCERTAINTY_MEASURE_WITH_UNIT (LENGTH_MEASURE( 1.000000000000000100E-005 ), #225, 'distance_accuracy_value', 'NONE');
#223 =( NAMED_UNIT ( * ) SI_UNIT ( $, .STERADIAN. ) SOLID_ANGLE_UNIT ( ) );
#224 =( NAMED_UNIT ( * ) PLANE_ANGLE_UNIT ( ) SI_UNIT ( $, .RADIAN. ) );
#225 =( LENGTH_UNIT ( ) NAMED_UNIT ( * ) SI_UNIT ( .MILLI., .METRE. ) );
#226 = CARTESIAN_POINT ( 'NONE',  ( 1.653218577660209100E-015, 13.49999999999999800, -10.99999999999999800 ) ) ;
#227 = CARTESIAN_POINT ( 'NONE',  ( 0.0000000000000000000, -13.50000000000000200, -10.99999999999999500 ) ) ;
#228 = DIRECTION ( 'NONE',  ( -0.0000000000000000000, 8.906522175617115400E-017, 1.000000000000000000 ) ) ;
#229 = VECTOR ( 'NONE', #228, 1000.000000000000000 ) ;
#230 = CARTESIAN_POINT ( 'NONE',  ( 1.653218577660209100E-015, 13.49999999999999800, -1.202380493708310400E-015 ) ) ;
#231 = LINE ( 'NONE', #230, #229 ) ;
#232 = CARTESIAN_POINT ( 'NONE',  ( 1.653218577660209100E-015, 13.49999999999999800, 10.99999999999999800 ) ) ;
#233 = DIRECTION ( 'NONE',  ( 0.0000000000000000000, -1.000000000000000000, 1.284980352575412900E-016 ) ) ;
#234 = DIRECTION ( 'NONE',  ( -0.0000000000000000000, 8.906522175617115400E-017, 1.000000000000000000 ) ) ;
#235 = CARTESIAN_POINT ( 'NONE',  ( 0.0000000000000000000, 9.797174393178827600E-016, 11.00000000000000000 ) ) ;
#236 = AXIS2_PLACEMENT_3D ( 'NONE', #235, #234, #233 ) ;
#237 = CIRCLE ( 'NONE', #236, 13.49999999999999600 ) ;
#238 = CARTESIAN_POINT ( 'NONE',  ( 0.0000000000000000000, -13.49999999999999500, 11.00000000000000200 ) ) ;
#239 = CIRCLE ( 'NONE', #152, 13.49999999999999600 ) ;
#240 = PLANE ( 'NONE',  #208 ) ;
#241 = DIRECTION ( 'NONE',  ( 0.0000000000000000000, -1.000000000000000000, 8.906522175617115400E-017 ) ) ;
#242 = CARTESIAN_POINT ( 'NONE',  ( 1.283081307217395800E-015, 10.47749999999999900, -10.63411763765028400 ) ) ;
#243 = DIRECTION ( 'NONE',  ( 0.0000000000000000000, -1.000000000000000000, 1.284980352575412700E-016 ) ) ;
#244 = CARTESIAN_POINT ( 'NONE',  ( 0.0000000000000000000, 6.234565522931982500E-016, 7.000000000000001800 ) ) ;
#245 = CARTESIAN_POINT ( 'NONE',  ( 0.0000000000000000000, 10.47749999999999700, 6.999999999999999100 ) ) ;
#246 = PLANE ( 'NONE',  #181 ) ;
#247 = FACE_OUTER_BOUND ( 'NONE', #66, .T. ) ;
#248 = DIRECTION ( 'NONE',  ( -0.0000000000000000000, 8.906522175617115400E-017, 1.000000000000000000 ) ) ;
#249 = VECTOR ( 'NONE', #248, 1000.000000000000000 ) ;
#250 = CARTESIAN_POINT ( 'NONE',  ( 0.0000000000000000000, -10.47749999999999900, 9.331808609502831000E-016 ) ) ;
#251 = LINE ( 'NONE', #250, #249 ) ;
#252 = DIRECTION ( 'NONE',  ( 0.0000000000000000000, -1.000000000000000000, 8.906522175617114100E-017 ) ) ;
#253 = DIRECTION ( 'NONE',  ( -0.0000000000000000000, 8.906522175617115400E-017, 1.000000000000000000 ) ) ;
#254 = CARTESIAN_POINT ( 'NONE',  ( 0.0000000000000000000, 0.0000000000000000000, 0.0000000000000000000 ) ) ;
#255 = AXIS2_PLACEMENT_3D ( 'NONE', #254, #253, #252 ) ;
#256 = PERSON_AND_ORGANIZATION_ROLE ( 'creator' ) ;
#257 = PERSON_AND_ORGANIZATION ( #124, #123 ) ;
#258 = CALENDAR_DATE ( 2015, 11, 8 ) ;
#259 = LOCAL_TIME ( 16, 6, 28.00000000000000000, #260 ) ;
#260 = COORDINATED_UNIVERSAL_TIME_OFFSET ( 1, 0, .AHEAD. ) ;
#261 = CC_DESIGN_PERSON_AND_ORGANIZATION_ASSIGNMENT ( #257, #256, ( #85 ) ) ;
#262 = PERSON_AND_ORGANIZATION ( #124, #123 ) ;
#263 = PERSON_AND_ORGANIZATION ( #124, #123 ) ;
#264 = CALENDAR_DATE ( 2015, 11, 8 ) ;
#265 = CC_DESIGN_DATE_AND_TIME_ASSIGNMENT ( #267, #266, ( #274 ) ) ;
#266 = DATE_TIME_ROLE ( 'classification_date' ) ;
#267 = DATE_AND_TIME ( #268, #269 ) ;
#268 = CALENDAR_DATE ( 2015, 11, 8 ) ;
#269 = LOCAL_TIME ( 16, 6, 28.00000000000000000, #270 ) ;
#270 = COORDINATED_UNIVERSAL_TIME_OFFSET ( 1, 0, .AHEAD. ) ;
#271 = CC_DESIGN_PERSON_AND_ORGANIZATION_ASSIGNMENT ( #273, #272, ( #274 ) ) ;
#272 = PERSON_AND_ORGANIZATION_ROLE ( 'classification_officer' ) ;
#273 = PERSON_AND_ORGANIZATION ( #124, #123 ) ;
#274 = SECURITY_CLASSIFICATION ( '', '', #285 ) ;
#275 = APPROVAL_DATE_TIME ( #276, #281 ) ;
#276 = DATE_AND_TIME ( #264, #282 ) ;
#277 = APPROVAL_STATUS ( 'not_yet_approved' ) ;
#278 = CC_DESIGN_PERSON_AND_ORGANIZATION_ASSIGNMENT ( #262, #279, ( #284 ) ) ;
#279 = PERSON_AND_ORGANIZATION_ROLE ( 'creator' ) ;
#280 = APPROVAL_ROLE ( '' ) ;
#281 = APPROVAL ( #277, 'UNSPECIFIED' ) ;
#282 = LOCAL_TIME ( 16, 6, 28.00000000000000000, #301 ) ;
#283 = CC_DESIGN_APPROVAL ( #281, ( #284 ) ) ;
#284 = PRODUCT_DEFINITION_FORMATION_WITH_SPECIFIED_SOURCE ( 'ANY', '', #125, .NOT_KNOWN. ) ;
#285 = SECURITY_CLASSIFICATION_LEVEL ( 'unclassified' ) ;
#286 = CC_DESIGN_PERSON_AND_ORGANIZATION_ASSIGNMENT ( #263, #287, ( #284 ) ) ;
#287 = PERSON_AND_ORGANIZATION_ROLE ( 'design_supplier' ) ;
#288 = CC_DESIGN_SECURITY_CLASSIFICATION ( #274, ( #284 ) ) ;
#289 = CC_DESIGN_APPROVAL ( #297, ( #274 ) ) ;
#290 = APPROVAL_DATE_TIME ( #291, #297 ) ;
#291 = DATE_AND_TIME ( #292, #293 ) ;
#292 = CALENDAR_DATE ( 2015, 11, 8 ) ;
#293 = LOCAL_TIME ( 16, 6, 28.00000000000000000, #294 ) ;
#294 = COORDINATED_UNIVERSAL_TIME_OFFSET ( 1, 0, .AHEAD. ) ;
#295 = APPROVAL_PERSON_ORGANIZATION ( #299, #297, #296 ) ;
#296 = APPROVAL_ROLE ( '' ) ;
#297 = APPROVAL ( #298, 'UNSPECIFIED' ) ;
#298 = APPROVAL_STATUS ( 'not_yet_approved' ) ;
#299 = PERSON_AND_ORGANIZATION ( #124, #123 ) ;
#300 = PERSON_AND_ORGANIZATION ( #124, #123 ) ;
#301 = COORDINATED_UNIVERSAL_TIME_OFFSET ( 1, 0, .AHEAD. ) ;
#302 = APPROVAL_PERSON_ORGANIZATION ( #300, #281, #280 ) ;
#303 = SHAPE_DEFINITION_REPRESENTATION ( #304, #220 ) ;
#304 = PRODUCT_DEFINITION_SHAPE ( 'NONE', 'NONE',  #85 ) ;
#305 = PRODUCT_RELATED_PRODUCT_CATEGORY ( 'detail', '', ( #125 ) ) ;
ENDSEC;
END-ISO-10303-21;
