ISO-10303-21;
HEADER;
FILE_DESCRIPTION (( 'STEP AP203' ),
    '1' );
FILE_NAME ('3D_R365_114.3x3_173371152.STEP',
    '2024-07-16T06:37:44',
    ( '' ),
    ( '' ),
    'SwSTEP 2.0',
    'SolidWorks 2024',
    '' );
FILE_SCHEMA (( 'CONFIG_CONTROL_DESIGN' ));
ENDSEC;

DATA;
#1 = CARTESIAN_POINT ( 'NONE',  ( 0.000000000000000000, 2.143141219319411483, 0.000000000000000000 ) ) ;
#2 = CARTESIAN_POINT ( 'NONE',  ( 1.387778780781445676E-14, 2817.965330118411202, 0.000000000000000000 ) ) ;
#3 = AXIS2_PLACEMENT_3D ( 'NONE', #41, #302, #361 ) ;
#4 = APPROVAL_ROLE ( '' ) ;
#5 = DIRECTION ( 'NONE',  ( -1.000000000000000000, 0.000000000000000000, 0.000000000000000000 ) ) ;
#6 = AXIS2_PLACEMENT_3D ( 'NONE', #402, #282, #379 ) ;
#7 = AXIS2_PLACEMENT_3D ( 'NONE', #107, #75, #362 ) ;
#8 = EDGE_CURVE ( 'NONE', #291, #176, #118, .T. ) ;
#9 = EDGE_CURVE ( 'NONE', #260, #52, #88, .T. ) ;
#10 = ORIENTED_EDGE ( 'NONE', *, *, #225, .F. ) ;
#11 = PERSON_AND_ORGANIZATION_ROLE ( 'classification_officer' ) ;
#12 = ORIENTED_EDGE ( 'NONE', *, *, #39, .F. ) ;
#13 = APPROVAL_STATUS ( 'not_yet_approved' ) ;
#14 = ORIENTED_EDGE ( 'NONE', *, *, #184, .T. ) ;
#15 = PERSON_AND_ORGANIZATION ( #168, #397 ) ;
#16 = EDGE_LOOP ( 'NONE', ( #360, #144, #18 ) ) ;
#17 = PERSON_AND_ORGANIZATION ( #168, #397 ) ;
#18 = ORIENTED_EDGE ( 'NONE', *, *, #384, .T. ) ;
#19 = DIRECTION ( 'NONE',  ( -1.000000000000000000, 0.000000000000000000, 0.000000000000000000 ) ) ;
#20 = CARTESIAN_POINT ( 'NONE',  ( -54.15000000000000568, 2.143141219319542490, 0.000000000000000000 ) ) ;
#21 = CIRCLE ( 'NONE', #202, 57.14999999999999147 ) ;
#22 = DIRECTION ( 'NONE',  ( -1.000000000000000000, 0.000000000000000000, 0.000000000000000000 ) ) ;
#23 = DIRECTION ( 'NONE',  ( -1.000000000000000000, 0.000000000000000000, 0.000000000000000000 ) ) ;
#24 = FACE_OUTER_BOUND ( 'NONE', #300, .T. ) ;
#25 = CARTESIAN_POINT ( 'NONE',  ( 51.19270745003029788, 13.67754504928475612, 6.634077494481885990E-15 ) ) ;
#26 = DIRECTION ( 'NONE',  ( -4.596983092540343816E-18, -1.000000000000000000, 0.000000000000000000 ) ) ;
#27 = EDGE_CURVE ( 'NONE', #105, #327, #157, .T. ) ;
#28 = DIRECTION ( 'NONE',  ( 4.596983092540343816E-18, 1.000000000000000000, -0.000000000000000000 ) ) ;
#29 = CIRCLE ( 'NONE', #272, 88.43999999999999773 ) ;
#30 = DIRECTION ( 'NONE',  ( -1.000000000000000000, 8.008880313835673518E-18, 0.000000000000000000 ) ) ;
#31 = FACE_OUTER_BOUND ( 'NONE', #76, .T. ) ;
#32 = CARTESIAN_POINT ( 'NONE',  ( 6.009963366805661281E-31, 2.143141219319542046, 0.000000000000000000 ) ) ;
#33 = DIRECTION ( 'NONE',  ( 1.000000000000000000, 0.000000000000000000, 1.224646799147353207E-16 ) ) ;
#34 = COORDINATED_UNIVERSAL_TIME_OFFSET ( 1, 0, .AHEAD. ) ;
#35 = AXIS2_PLACEMENT_3D ( 'NONE', #289, #121, #378 ) ;
#36 = PRODUCT_DEFINITION_FORMATION_WITH_SPECIFIED_SOURCE ( 'ANY', '', #358, .NOT_KNOWN. ) ;
#37 = CYLINDRICAL_SURFACE ( 'NONE', #3, 57.14999999999999147 ) ;
#38 = EDGE_CURVE ( 'NONE', #71, #48, #93, .T. ) ;
#39 = EDGE_CURVE ( 'NONE', #324, #52, #279, .T. ) ;
#40 = ORIENTED_EDGE ( 'NONE', *, *, #303, .F. ) ;
#41 = CARTESIAN_POINT ( 'NONE',  ( 1.387778780781445676E-14, 2817.965330118411202, 0.000000000000000000 ) ) ;
#42 = TOROIDAL_SURFACE ( 'NONE', #49, 43.00500000000000256, 14.14500000000000135 ) ;
#43 = DATE_TIME_ROLE ( 'classification_date' ) ;
#44 = ORIENTED_EDGE ( 'NONE', *, *, #70, .T. ) ;
#45 =( NAMED_UNIT ( * ) PLANE_ANGLE_UNIT ( ) SI_UNIT ( $, .RADIAN. ) );
#46 = ORIENTED_EDGE ( 'NONE', *, *, #123, .T. ) ;
#47 = APPROVAL_STATUS ( 'not_yet_approved' ) ;
#48 = VERTEX_POINT ( 'NONE', #398 ) ;
#49 = AXIS2_PLACEMENT_3D ( 'NONE', #307, #187, #156 ) ;
#50 = SECURITY_CLASSIFICATION_LEVEL ( 'unclassified' ) ;
#51 = EDGE_LOOP ( 'NONE', ( #101, #73 ) ) ;
#52 = VERTEX_POINT ( 'NONE', #25 ) ;
#53 = CARTESIAN_POINT ( 'NONE',  ( -43.00500000000000256, 2.143141219319411483, 0.000000000000000000 ) ) ;
#54 = ADVANCED_FACE ( 'NONE', ( #147 ), #399, .F. ) ;
#55 = CC_DESIGN_DATE_AND_TIME_ASSIGNMENT ( #175, #43, ( #408 ) ) ;
#56 = DIRECTION ( 'NONE',  ( 4.596983092540343816E-18, 1.000000000000000000, -0.000000000000000000 ) ) ;
#57 = AXIS2_PLACEMENT_3D ( 'NONE', #148, #273, #370 ) ;
#58 = DIRECTION ( 'NONE',  ( -1.000000000000000000, 0.000000000000000000, 0.000000000000000000 ) ) ;
#59 = LOCAL_TIME ( 8, 37, 44.00000000000000000, #129 ) ;
#60 = EDGE_LOOP ( 'NONE', ( #115, #298 ) ) ;
#61 = DIRECTION ( 'NONE',  ( -1.224646799147353207E-16, 5.629680630014033300E-34, 1.000000000000000000 ) ) ;
#62 = ORIENTED_EDGE ( 'NONE', *, *, #38, .F. ) ;
#63 = CARTESIAN_POINT ( 'NONE',  ( 8.810109073066079943E-15, -58.43999999999999062, 0.000000000000000000 ) ) ;
#64 = LINE ( 'NONE', #154, #185 ) ;
#65 = APPROVAL_PERSON_ORGANIZATION ( #287, #364, #4 ) ;
#66 = DIRECTION ( 'NONE',  ( -1.000000000000000000, 4.596983092540343816E-18, 0.000000000000000000 ) ) ;
#67 = DIRECTION ( 'NONE',  ( 4.596983092540343816E-18, 1.000000000000000000, -0.000000000000000000 ) ) ;
#68 = CARTESIAN_POINT ( 'NONE',  ( 9.236488298952508525E-16, 0.000000000000000000, 0.000000000000000000 ) ) ;
#69 = TOROIDAL_SURFACE ( 'NONE', #219, 43.00500000000000256, 11.14500000000000135 ) ;
#70 = EDGE_CURVE ( 'NONE', #260, #136, #353, .T. ) ;
#71 = VERTEX_POINT ( 'NONE', #20 ) ;
#72 = CALENDAR_DATE ( 2024, 16, 7 ) ;
#73 = ORIENTED_EDGE ( 'NONE', *, *, #27, .T. ) ;
#74 = AXIS2_PLACEMENT_3D ( 'NONE', #376, #220, #66 ) ;
#75 = DIRECTION ( 'NONE',  ( 0.000000000000000000, 0.000000000000000000, 1.000000000000000000 ) ) ;
#76 = EDGE_LOOP ( 'NONE', ( #78, #102, #44 ) ) ;
#77 = PERSON_AND_ORGANIZATION ( #168, #397 ) ;
#78 = ORIENTED_EDGE ( 'NONE', *, *, #269, .F. ) ;
#79 = FACE_OUTER_BOUND ( 'NONE', #295, .T. ) ;
#80 = DATE_AND_TIME ( #109, #286 ) ;
#81 = ORIENTED_EDGE ( 'NONE', *, *, #288, .F. ) ;
#82 = AXIS2_PLACEMENT_3D ( 'NONE', #63, #152, #249 ) ;
#83 = CARTESIAN_POINT ( 'NONE',  ( 3.801278111940753684E-15, 30.00000000000000000, 0.000000000000000000 ) ) ;
#84 = EDGE_CURVE ( 'NONE', #48, #383, #347, .T. ) ;
#85 = CARTESIAN_POINT ( 'NONE',  ( 6.009963366805661281E-31, 2.143141219319542046, 0.000000000000000000 ) ) ;
#86 = CARTESIAN_POINT ( 'NONE',  ( 9.236488298952508525E-16, 0.000000000000000000, 0.000000000000000000 ) ) ;
#87 = FACE_OUTER_BOUND ( 'NONE', #145, .T. ) ;
#88 = CIRCLE ( 'NONE', #98, 51.19270745003029077 ) ;
#89 = CARTESIAN_POINT ( 'NONE',  ( 8.810109073066079943E-15, -58.43999999999999062, 0.000000000000000000 ) ) ;
#90 = ORIENTED_EDGE ( 'NONE', *, *, #240, .F. ) ;
#91 = FACE_BOUND ( 'NONE', #51, .T. ) ;
#92 = FACE_OUTER_BOUND ( 'NONE', #60, .T. ) ;
#93 = CIRCLE ( 'NONE', #126, 11.14500000000000135 ) ;
#94 = LINE ( 'NONE', #181, #236 ) ;
#95 = EDGE_CURVE ( 'NONE', #71, #320, #131, .T. ) ;
#96 = CARTESIAN_POINT ( 'NONE',  ( -6.038541452798833069E-34, -1.313587918693402920E-16, 0.000000000000000000 ) ) ;
#97 = CC_DESIGN_PERSON_AND_ORGANIZATION_ASSIGNMENT ( #318, #11, ( #408 ) ) ;
#98 = AXIS2_PLACEMENT_3D ( 'NONE', #204, #270, #235 ) ;
#99 = CC_DESIGN_APPROVAL ( #364, ( #408 ) ) ;
#100 = DATE_AND_TIME ( #254, #59 ) ;
#101 = ORIENTED_EDGE ( 'NONE', *, *, #153, .T. ) ;
#102 = ORIENTED_EDGE ( 'NONE', *, *, #111, .T. ) ;
#103 = CIRCLE ( 'NONE', #146, 14.14500000000000490 ) ;
#104 = PERSON_AND_ORGANIZATION ( #168, #397 ) ;
#105 = VERTEX_POINT ( 'NONE', #277 ) ;
#106 = CARTESIAN_POINT ( 'NONE',  ( 3.971184182535236453E-15, 26.99999999999999645, 0.000000000000000000 ) ) ;
#107 = CARTESIAN_POINT ( 'NONE',  ( 0.000000000000000000, 0.000000000000000000, 0.000000000000000000 ) ) ;
#108 = ORIENTED_EDGE ( 'NONE', *, *, #410, .T. ) ;
#109 = CALENDAR_DATE ( 2024, 16, 7 ) ;
#110 = ORIENTED_EDGE ( 'NONE', *, *, #111, .F. ) ;
#111 = EDGE_CURVE ( 'NONE', #52, #260, #210, .T. ) ;
#112 = CARTESIAN_POINT ( 'NONE',  ( 1.387778780781445676E-14, 2817.965330118411202, 0.000000000000000000 ) ) ;
#113 = AXIS2_PLACEMENT_3D ( 'NONE', #119, #342, #23 ) ;
#114 = DIRECTION ( 'NONE',  ( 4.596983092540343816E-18, 1.000000000000000000, -0.000000000000000000 ) ) ;
#115 = ORIENTED_EDGE ( 'NONE', *, *, #123, .F. ) ;
#116 = FACE_OUTER_BOUND ( 'NONE', #328, .T. ) ;
#117 = DIRECTION ( 'NONE',  ( -1.000000000000000000, 0.000000000000000000, 0.000000000000000000 ) ) ;
#118 = CIRCLE ( 'NONE', #290, 57.14999999999999147 ) ;
#119 = CARTESIAN_POINT ( 'NONE',  ( 8.810109073066079943E-15, -58.43999999999999062, 0.000000000000000000 ) ) ;
#120 = DIRECTION ( 'NONE',  ( -0.000000000000000000, 0.000000000000000000, -1.000000000000000000 ) ) ;
#121 = DIRECTION ( 'NONE',  ( 0.000000000000000000, 0.000000000000000000, 1.000000000000000000 ) ) ;
#122 =( LENGTH_UNIT ( ) NAMED_UNIT ( * ) SI_UNIT ( .MILLI., .METRE. ) );
#123 = EDGE_CURVE ( 'NONE', #176, #291, #191, .T. ) ;
#124 = ADVANCED_FACE ( 'NONE', ( #335 ), #179, .F. ) ;
#125 = DIRECTION ( 'NONE',  ( -1.000000000000000000, 4.596983092540343816E-18, 0.000000000000000000 ) ) ;
#126 = AXIS2_PLACEMENT_3D ( 'NONE', #371, #309, #22 ) ;
#127 = CIRCLE ( 'NONE', #405, 85.43999999999998352 ) ;
#128 = PLANE ( 'NONE',  #338 ) ;
#129 = COORDINATED_UNIVERSAL_TIME_OFFSET ( 1, 0, .AHEAD. ) ;
#130 = DIRECTION ( 'NONE',  ( 4.596983092540343816E-18, 1.000000000000000000, -0.000000000000000000 ) ) ;
#131 = CIRCLE ( 'NONE', #366, 54.15000000000000568 ) ;
#132 = APPROVAL_DATE_TIME ( #100, #364 ) ;
#133 = ORIENTED_EDGE ( 'NONE', *, *, #70, .F. ) ;
#134 = PRODUCT_RELATED_PRODUCT_CATEGORY ( 'detail', '', ( #358 ) ) ;
#135 = APPROVAL_ROLE ( '' ) ;
#136 = VERTEX_POINT ( 'NONE', #83 ) ;
#137 = DIRECTION ( 'NONE',  ( -1.000000000000000000, 0.000000000000000000, 0.000000000000000000 ) ) ;
#138 = CIRCLE ( 'NONE', #329, 54.14999999999999147 ) ;
#139 = PERSON_AND_ORGANIZATION ( #168, #397 ) ;
#140 = EDGE_LOOP ( 'NONE', ( #393, #108, #239 ) ) ;
#141 = ADVANCED_FACE ( 'NONE', ( #333 ), #42, .T. ) ;
#142 = ADVANCED_FACE ( 'NONE', ( #116 ), #190, .T. ) ;
#143 = COORDINATED_UNIVERSAL_TIME_OFFSET ( 1, 0, .AHEAD. ) ;
#144 = ORIENTED_EDGE ( 'NONE', *, *, #84, .F. ) ;
#145 = EDGE_LOOP ( 'NONE', ( #357, #247, #172, #81 ) ) ;
#146 = AXIS2_PLACEMENT_3D ( 'NONE', #53, #391, #19 ) ;
#147 = FACE_OUTER_BOUND ( 'NONE', #16, .T. ) ;
#148 = CARTESIAN_POINT ( 'NONE',  ( 9.130386511750150515E-15, 11.23122398248402298, 0.000000000000000000 ) ) ;
#149 = DIRECTION ( 'NONE',  ( 4.596983092540343816E-18, 1.000000000000000000, -0.000000000000000000 ) ) ;
#150 = ORIENTED_EDGE ( 'NONE', *, *, #39, .T. ) ;
#151 = CARTESIAN_POINT ( 'NONE',  ( 49.45618413082979714, 11.23122398248402298, 6.344049088384600988E-15 ) ) ;
#152 = DIRECTION ( 'NONE',  ( -1.224646799147353207E-16, 5.629680630014033300E-34, 1.000000000000000000 ) ) ;
#153 = EDGE_CURVE ( 'NONE', #327, #105, #138, .T. ) ;
#154 = CARTESIAN_POINT ( 'NONE',  ( -57.14999999999997726, 2817.965330118411202, 0.000000000000000000 ) ) ;
#155 = DIRECTION ( 'NONE',  ( 4.596983092540343816E-18, 1.000000000000000000, -0.000000000000000000 ) ) ;
#156 = DIRECTION ( 'NONE',  ( -1.000000000000000000, 4.596983092540343816E-18, 0.000000000000000000 ) ) ;
#157 = CIRCLE ( 'NONE', #223, 54.14999999999999147 ) ;
#158 = MECHANICAL_CONTEXT ( 'NONE', #222, 'mechanical' ) ;
#159 = LOCAL_TIME ( 8, 37, 44.00000000000000000, #34 ) ;
#160 = CARTESIAN_POINT ( 'NONE',  ( 8.810109073066079943E-15, -58.43999999999999062, 0.000000000000000000 ) ) ;
#161 = CIRCLE ( 'NONE', #396, 11.14500000000000135 ) ;
#162 = ORIENTED_EDGE ( 'NONE', *, *, #95, .T. ) ;
#163 = ADVANCED_FACE ( 'NONE', ( #31 ), #170, .T. ) ;
#164 = SHAPE_DEFINITION_REPRESENTATION ( #389, #395 ) ;
#165 = ADVANCED_FACE ( 'NONE', ( #281 ), #37, .T. ) ;
#166 = ORIENTED_EDGE ( 'NONE', *, *, #303, .T. ) ;
#167 =( NAMED_UNIT ( * ) SI_UNIT ( $, .STERADIAN. ) SOLID_ANGLE_UNIT ( ) );
#168 = PERSON ( 'UNSPECIFIED', 'UNSPECIFIED', 'UNSPECIFIED', ('UNSPECIFIED'), ('UNSPECIFIED'), ('UNSPECIFIED') ) ;
#169 = ORIENTED_EDGE ( 'NONE', *, *, #269, .T. ) ;
#170 = SPHERICAL_SURFACE ( 'NONE', #228, 88.43999999999999773 ) ;
#171 = APPROVAL_ROLE ( '' ) ;
#172 = ORIENTED_EDGE ( 'NONE', *, *, #331, .T. ) ;
#173 = AXIS2_PLACEMENT_3D ( 'NONE', #317, #155, #315 ) ;
#174 = AXIS2_PLACEMENT_3D ( 'NONE', #208, #411, #58 ) ;
#175 = DATE_AND_TIME ( #194, #159 ) ;
#176 = VERTEX_POINT ( 'NONE', #334 ) ;
#177 = DIRECTION ( 'NONE',  ( -1.000000000000000000, 4.596983092540343046E-18, 0.000000000000000000 ) ) ;
#178 = CYLINDRICAL_SURFACE ( 'NONE', #262, 54.14999999999999147 ) ;
#179 = SPHERICAL_SURFACE ( 'NONE', #174, 85.43999999999998352 ) ;
#180 = CARTESIAN_POINT ( 'NONE',  ( 9.236488298952508525E-16, 0.000000000000000000, 0.000000000000000000 ) ) ;
#181 = CARTESIAN_POINT ( 'NONE',  ( 54.15000000000000568, 2817.965330118411202, 6.631462417382916319E-15 ) ) ;
#182 = DIRECTION ( 'NONE',  ( 1.000000000000000000, 0.000000000000000000, 1.224646799147352961E-16 ) ) ;
#183 = DIRECTION ( 'NONE',  ( 4.596983092540343816E-18, 1.000000000000000000, -0.000000000000000000 ) ) ;
#184 = EDGE_CURVE ( 'NONE', #291, #324, #241, .T. ) ;
#185 = VECTOR ( 'NONE', #250, 1000.000000000000000 ) ;
#186 = CARTESIAN_POINT ( 'NONE',  ( -57.14999999999999147, 2.143141219319578017, 0.000000000000000000 ) ) ;
#187 = DIRECTION ( 'NONE',  ( 4.596983092540343816E-18, 1.000000000000000000, -0.000000000000000000 ) ) ;
#188 = FACE_OUTER_BOUND ( 'NONE', #200, .T. ) ;
#189 = CALENDAR_DATE ( 2024, 16, 7 ) ;
#190 = SPHERICAL_SURFACE ( 'NONE', #35, 88.43999999999999773 ) ;
#191 = CIRCLE ( 'NONE', #319, 57.14999999999999147 ) ;
#192 = ORIENTED_EDGE ( 'NONE', *, *, #9, .T. ) ;
#193 = APPROVAL ( #47, 'UNSPECIFIED' ) ;
#194 = CALENDAR_DATE ( 2024, 16, 7 ) ;
#195 = AXIS2_PLACEMENT_3D ( 'NONE', #32, #217, #30 ) ;
#196 = ORIENTED_EDGE ( 'NONE', *, *, #224, .T. ) ;
#197 = APPROVAL_PERSON_ORGANIZATION ( #77, #193, #171 ) ;
#198 = AXIS2_PLACEMENT_3D ( 'NONE', #2, #149, #117 ) ;
#199 = EDGE_LOOP ( 'NONE', ( #12, #259, #354, #110 ) ) ;
#200 = EDGE_LOOP ( 'NONE', ( #46, #14, #10, #40 ) ) ;
#201 = ORIENTED_EDGE ( 'NONE', *, *, #9, .F. ) ;
#202 = AXIS2_PLACEMENT_3D ( 'NONE', #232, #400, #244 ) ;
#203 = CARTESIAN_POINT ( 'NONE',  ( 57.15000000000000568, 2817.965330118411202, 6.998856457127122552E-15 ) ) ;
#204 = CARTESIAN_POINT ( 'NONE',  ( 9.865242732342718534E-16, 13.67754504928475612, 0.000000000000000000 ) ) ;
#205 = DIRECTION ( 'NONE',  ( 1.000000000000000000, -4.596983092540343816E-18, 0.000000000000000000 ) ) ;
#206 = DIRECTION ( 'NONE',  ( -1.224646799147353207E-16, 5.629680630014033300E-34, 1.000000000000000000 ) ) ;
#207 = APPROVAL ( #13, 'UNSPECIFIED' ) ;
#208 = CARTESIAN_POINT ( 'NONE',  ( 8.810109073066079943E-15, -58.43999999999999062, 0.000000000000000000 ) ) ;
#209 = CARTESIAN_POINT ( 'NONE',  ( 1.387778780781445676E-14, 2817.965330118411202, 0.000000000000000000 ) ) ;
#210 = CIRCLE ( 'NONE', #386, 51.19270745003029077 ) ;
#211 = DIRECTION ( 'NONE',  ( 4.596983092540343816E-18, 1.000000000000000000, -0.000000000000000000 ) ) ;
#212 = DIRECTION ( 'NONE',  ( 4.596983092540343816E-18, 1.000000000000000000, -0.000000000000000000 ) ) ;
#213 = APPLICATION_CONTEXT ( 'configuration controlled 3d designs of mechanical parts and assemblies' ) ;
#214 = DIRECTION ( 'NONE',  ( -1.224646799147353207E-16, 5.629680630014033300E-34, 1.000000000000000000 ) ) ;
#215 = CC_DESIGN_DATE_AND_TIME_ASSIGNMENT ( #230, #359, ( #271 ) ) ;
#216 = CC_DESIGN_PERSON_AND_ORGANIZATION_ASSIGNMENT ( #15, #294, ( #358 ) ) ;
#217 = DIRECTION ( 'NONE',  ( 4.596983092540343816E-18, 1.000000000000000000, -0.000000000000000000 ) ) ;
#218 = CARTESIAN_POINT ( 'NONE',  ( 57.14999999999999147, -2.627175837386805841E-16, 6.998856457127122552E-15 ) ) ;
#219 = AXIS2_PLACEMENT_3D ( 'NONE', #1, #221, #125 ) ;
#220 = DIRECTION ( 'NONE',  ( 4.596983092540343816E-18, 1.000000000000000000, -0.000000000000000000 ) ) ;
#221 = DIRECTION ( 'NONE',  ( 4.596983092540343816E-18, 1.000000000000000000, -0.000000000000000000 ) ) ;
#222 = APPLICATION_CONTEXT ( 'configuration controlled 3d designs of mechanical parts and assemblies' ) ;
#223 = AXIS2_PLACEMENT_3D ( 'NONE', #305, #56, #205 ) ;
#224 = EDGE_CURVE ( 'NONE', #320, #383, #161, .T. ) ;
#225 = EDGE_CURVE ( 'NONE', #280, #324, #21, .T. ) ;
#226 = PERSON_AND_ORGANIZATION_ROLE ( 'design_supplier' ) ;
#227 = ORIENTED_EDGE ( 'NONE', *, *, #224, .F. ) ;
#228 = AXIS2_PLACEMENT_3D ( 'NONE', #160, #321, #5 ) ;
#229 = ORIENTED_EDGE ( 'NONE', *, *, #95, .F. ) ;
#230 = DATE_AND_TIME ( #189, #299 ) ;
#231 = ORIENTED_EDGE ( 'NONE', *, *, #304, .T. ) ;
#232 = CARTESIAN_POINT ( 'NONE',  ( 9.335008138453893904E-16, 2.143141219319577573, 0.000000000000000000 ) ) ;
#233 = VERTEX_POINT ( 'NONE', #106 ) ;
#234 = DATE_AND_TIME ( #72, #406 ) ;
#235 = DIRECTION ( 'NONE',  ( -1.000000000000000000, 0.000000000000000000, 0.000000000000000000 ) ) ;
#236 = VECTOR ( 'NONE', #212, 1000.000000000000000 ) ;
#237 = DIRECTION ( 'NONE',  ( 4.596983092540343816E-18, 1.000000000000000000, -0.000000000000000000 ) ) ;
#238 = CC_DESIGN_SECURITY_CLASSIFICATION ( #408, ( #36 ) ) ;
#239 = ORIENTED_EDGE ( 'NONE', *, *, #384, .F. ) ;
#240 = EDGE_CURVE ( 'NONE', #280, #260, #103, .T. ) ;
#241 = LINE ( 'NONE', #203, #285 ) ;
#242 = ADVANCED_FACE ( 'NONE', ( #79 ), #268, .F. ) ;
#243 = CARTESIAN_POINT ( 'NONE',  ( 9.865242732342718534E-16, 13.67754504928475612, 0.000000000000000000 ) ) ;
#244 = DIRECTION ( 'NONE',  ( -1.000000000000000000, 7.588466649067399370E-18, 0.000000000000000000 ) ) ;
#245 = DIRECTION ( 'NONE',  ( 4.596983092540343816E-18, 1.000000000000000000, -0.000000000000000000 ) ) ;
#246 = AXIS2_PLACEMENT_3D ( 'NONE', #112, #237, #306 ) ;
#247 = ORIENTED_EDGE ( 'NONE', *, *, #375, .T. ) ;
#248 = DIRECTION ( 'NONE',  ( -1.000000000000000000, 0.000000000000000000, 0.000000000000000000 ) ) ;
#249 = DIRECTION ( 'NONE',  ( 1.000000000000000000, 0.000000000000000000, 1.224646799147353207E-16 ) ) ;
#250 = DIRECTION ( 'NONE',  ( 4.596983092540343816E-18, 1.000000000000000000, -0.000000000000000000 ) ) ;
#251 = TOROIDAL_SURFACE ( 'NONE', #74, 43.00500000000000256, 11.14500000000000135 ) ;
#252 = APPROVAL_PERSON_ORGANIZATION ( #17, #207, #135 ) ;
#253 = CARTESIAN_POINT ( 'NONE',  ( -51.19270745003029077, 13.67754504928475612, 0.000000000000000000 ) ) ;
#254 = CALENDAR_DATE ( 2024, 16, 7 ) ;
#255 = MANIFOLD_SOLID_BREP ( 'Wandung1', #313 ) ;
#256 = CIRCLE ( 'NONE', #6, 57.14999999999999147 ) ;
#257 = ADVANCED_FACE ( 'NONE', ( #87 ), #178, .F. ) ;
#258 = ADVANCED_FACE ( 'NONE', ( #346 ), #69, .F. ) ;
#259 = ORIENTED_EDGE ( 'NONE', *, *, #348, .T. ) ;
#260 = VERTEX_POINT ( 'NONE', #253 ) ;
#261 = COORDINATED_UNIVERSAL_TIME_OFFSET ( 1, 0, .AHEAD. ) ;
#262 = AXIS2_PLACEMENT_3D ( 'NONE', #209, #340, #137 ) ;
#263 = ORIENTED_EDGE ( 'NONE', *, *, #8, .T. ) ;
#264 = APPLICATION_PROTOCOL_DEFINITION ( 'international standard', 'config_control_design', 1994, #213 ) ;
#265 = ORIENTED_EDGE ( 'NONE', *, *, #38, .T. ) ;
#266 = COORDINATED_UNIVERSAL_TIME_OFFSET ( 1, 0, .AHEAD. ) ;
#267 = ORIENTED_EDGE ( 'NONE', *, *, #288, .T. ) ;
#268 = CYLINDRICAL_SURFACE ( 'NONE', #246, 54.14999999999999147 ) ;
#269 = EDGE_CURVE ( 'NONE', #52, #136, #29, .T. ) ;
#270 = DIRECTION ( 'NONE',  ( 4.596983092540343816E-18, 1.000000000000000000, -0.000000000000000000 ) ) ;
#271 = PRODUCT_DEFINITION ( 'UNKNOWN', '', #36, #301 ) ;
#272 = AXIS2_PLACEMENT_3D ( 'NONE', #308, #61, #33 ) ;
#273 = DIRECTION ( 'NONE',  ( 4.596983092540343816E-18, 1.000000000000000000, -0.000000000000000000 ) ) ;
#274 = DIRECTION ( 'NONE',  ( 4.596983092540343816E-18, 1.000000000000000000, -0.000000000000000000 ) ) ;
#275 = EDGE_LOOP ( 'NONE', ( #401, #196, #231, #62 ) ) ;
#276 = CARTESIAN_POINT ( 'NONE',  ( 57.14999999999999147, 2.143141219319577129, 6.998856457127122552E-15 ) ) ;
#277 = CARTESIAN_POINT ( 'NONE',  ( 54.14999999999999147, -2.489266344610595958E-16, 6.631462417382916319E-15 ) ) ;
#278 = CARTESIAN_POINT ( 'NONE',  ( 8.810109073066079943E-15, -58.43999999999999062, 0.000000000000000000 ) ) ;
#279 = CIRCLE ( 'NONE', #377, 14.14500000000000490 ) ;
#280 = VERTEX_POINT ( 'NONE', #186 ) ;
#281 = FACE_OUTER_BOUND ( 'NONE', #330, .T. ) ;
#282 = DIRECTION ( 'NONE',  ( 4.596983092540343816E-18, 1.000000000000000000, -0.000000000000000000 ) ) ;
#283 = ADVANCED_FACE ( 'NONE', ( #91, #92 ), #128, .T. ) ;
#284 = CYLINDRICAL_SURFACE ( 'NONE', #198, 57.14999999999999147 ) ;
#285 = VECTOR ( 'NONE', #274, 1000.000000000000000 ) ;
#286 = LOCAL_TIME ( 8, 37, 44.00000000000000000, #266 ) ;
#287 = PERSON_AND_ORGANIZATION ( #168, #397 ) ;
#288 = EDGE_CURVE ( 'NONE', #327, #71, #407, .T. ) ;
#289 = CARTESIAN_POINT ( 'NONE',  ( 8.810109073066079943E-15, -58.43999999999999062, 0.000000000000000000 ) ) ;
#290 = AXIS2_PLACEMENT_3D ( 'NONE', #180, #245, #177 ) ;
#291 = VERTEX_POINT ( 'NONE', #218 ) ;
#292 = PERSON_AND_ORGANIZATION_ROLE ( 'creator' ) ;
#293 = EDGE_LOOP ( 'NONE', ( #227, #229, #265, #388 ) ) ;
#294 = PERSON_AND_ORGANIZATION_ROLE ( 'design_owner' ) ;
#295 = EDGE_LOOP ( 'NONE', ( #385, #355, #267, #162 ) ) ;
#296 = PERSON_AND_ORGANIZATION_ROLE ( 'creator' ) ;
#297 = VECTOR ( 'NONE', #67, 1000.000000000000000 ) ;
#298 = ORIENTED_EDGE ( 'NONE', *, *, #8, .F. ) ;
#299 = LOCAL_TIME ( 8, 37, 44.00000000000000000, #143 ) ;
#300 = EDGE_LOOP ( 'NONE', ( #363, #150, #201, #90 ) ) ;
#301 = DESIGN_CONTEXT ( 'detailed design', #213, 'design' ) ;
#302 = DIRECTION ( 'NONE',  ( 4.596983092540343816E-18, 1.000000000000000000, -0.000000000000000000 ) ) ;
#303 = EDGE_CURVE ( 'NONE', #176, #280, #64, .T. ) ;
#304 = EDGE_CURVE ( 'NONE', #383, #48, #352, .T. ) ;
#305 = CARTESIAN_POINT ( 'NONE',  ( 9.236488298952508525E-16, 0.000000000000000000, 0.000000000000000000 ) ) ;
#306 = DIRECTION ( 'NONE',  ( -1.000000000000000000, 0.000000000000000000, 0.000000000000000000 ) ) ;
#307 = CARTESIAN_POINT ( 'NONE',  ( 0.000000000000000000, 2.143141219319411483, 0.000000000000000000 ) ) ;
#308 = CARTESIAN_POINT ( 'NONE',  ( 8.810109073066079943E-15, -58.43999999999999062, 0.000000000000000000 ) ) ;
#309 = DIRECTION ( 'NONE',  ( -0.000000000000000000, 0.000000000000000000, -1.000000000000000000 ) ) ;
#310 = CARTESIAN_POINT ( 'NONE',  ( -54.14999999999999147, 2.489266344610595958E-16, 0.000000000000000000 ) ) ;
#311 = DIRECTION ( 'NONE',  ( -0.000000000000000000, 0.000000000000000000, -1.000000000000000000 ) ) ;
#312 = DIRECTION ( 'NONE',  ( 1.000000000000000000, -4.596983092540343816E-18, 0.000000000000000000 ) ) ;
#313 = CLOSED_SHELL ( 'NONE', ( #124, #258, #257, #142, #332, #382, #283, #165, #141, #163, #242, #349, #54 ) ) ;
#314 = CIRCLE ( 'NONE', #82, 85.43999999999998352 ) ;
#315 = DIRECTION ( 'NONE',  ( -1.000000000000000000, 0.000000000000000000, 0.000000000000000000 ) ) ;
#316 = CC_DESIGN_PERSON_AND_ORGANIZATION_ASSIGNMENT ( #365, #296, ( #36 ) ) ;
#317 = CARTESIAN_POINT ( 'NONE',  ( 9.130386511750150515E-15, 11.23122398248402298, 0.000000000000000000 ) ) ;
#318 = PERSON_AND_ORGANIZATION ( #168, #397 ) ;
#319 = AXIS2_PLACEMENT_3D ( 'NONE', #86, #28, #369 ) ;
#320 = VERTEX_POINT ( 'NONE', #343 ) ;
#321 = DIRECTION ( 'NONE',  ( 0.000000000000000000, 0.000000000000000000, 1.000000000000000000 ) ) ;
#322 = CIRCLE ( 'NONE', #195, 54.15000000000000568 ) ;
#323 = APPROVAL_DATE_TIME ( #80, #193 ) ;
#324 = VERTEX_POINT ( 'NONE', #276 ) ;
#325 = APPLICATION_PROTOCOL_DEFINITION ( 'international standard', 'config_control_design', 1994, #222 ) ;
#326 = CC_DESIGN_PERSON_AND_ORGANIZATION_ASSIGNMENT ( #104, #292, ( #271 ) ) ;
#327 = VERTEX_POINT ( 'NONE', #310 ) ;
#328 = EDGE_LOOP ( 'NONE', ( #192, #169, #133 ) ) ;
#329 = AXIS2_PLACEMENT_3D ( 'NONE', #68, #130, #374 ) ;
#330 = EDGE_LOOP ( 'NONE', ( #403, #263, #166, #392 ) ) ;
#331 = EDGE_CURVE ( 'NONE', #320, #71, #322, .T. ) ;
#332 = ADVANCED_FACE ( 'NONE', ( #24 ), #404, .T. ) ;
#333 = FACE_OUTER_BOUND ( 'NONE', #199, .T. ) ;
#334 = CARTESIAN_POINT ( 'NONE',  ( -57.14999999999999147, 2.627175837386805841E-16, 0.000000000000000000 ) ) ;
#335 = FACE_OUTER_BOUND ( 'NONE', #140, .T. ) ;
#336 = DIRECTION ( 'NONE',  ( 1.000000000000000000, 0.000000000000000000, 1.224646799147353207E-16 ) ) ;
#337 = DIRECTION ( 'NONE',  ( -1.000000000000000000, 0.000000000000000000, 0.000000000000000000 ) ) ;
#338 = AXIS2_PLACEMENT_3D ( 'NONE', #96, #26, #312 ) ;
#339 = CC_DESIGN_APPROVAL ( #207, ( #271 ) ) ;
#340 = DIRECTION ( 'NONE',  ( 4.596983092540343816E-18, 1.000000000000000000, -0.000000000000000000 ) ) ;
#341 = CC_DESIGN_APPROVAL ( #193, ( #36 ) ) ;
#342 = DIRECTION ( 'NONE',  ( 0.000000000000000000, 0.000000000000000000, 1.000000000000000000 ) ) ;
#343 = CARTESIAN_POINT ( 'NONE',  ( 54.15000000000000568, 2.143141219319541602, 6.631462417382917897E-15 ) ) ;
#344 = DIRECTION ( 'NONE',  ( -1.000000000000000000, 8.008880313835673518E-18, 0.000000000000000000 ) ) ;
#345 = FACE_OUTER_BOUND ( 'NONE', #293, .T. ) ;
#346 = FACE_OUTER_BOUND ( 'NONE', #275, .T. ) ;
#347 = CIRCLE ( 'NONE', #57, 49.45618413082979004 ) ;
#348 = EDGE_CURVE ( 'NONE', #324, #280, #256, .T. ) ;
#349 = ADVANCED_FACE ( 'NONE', ( #345 ), #251, .F. ) ;
#350 = CARTESIAN_POINT ( 'NONE',  ( 0.000000000000000000, 2.143141219319411483, 0.000000000000000000 ) ) ;
#351 = CARTESIAN_POINT ( 'NONE',  ( -54.14999999999997726, 2817.965330118411202, 0.000000000000000000 ) ) ;
#352 = CIRCLE ( 'NONE', #173, 49.45618413082979004 ) ;
#353 = CIRCLE ( 'NONE', #356, 88.43999999999999773 ) ;
#354 = ORIENTED_EDGE ( 'NONE', *, *, #240, .T. ) ;
#355 = ORIENTED_EDGE ( 'NONE', *, *, #153, .F. ) ;
#356 = AXIS2_PLACEMENT_3D ( 'NONE', #89, #311, #368 ) ;
#357 = ORIENTED_EDGE ( 'NONE', *, *, #27, .F. ) ;
#358 = PRODUCT ( '3D_R365_114.3x3_173371152', '3D_R365_114.3x3_173371152', '', ( #158 ) ) ;
#359 = DATE_TIME_ROLE ( 'creation_date' ) ;
#360 = ORIENTED_EDGE ( 'NONE', *, *, #410, .F. ) ;
#361 = DIRECTION ( 'NONE',  ( -1.000000000000000000, 0.000000000000000000, 0.000000000000000000 ) ) ;
#362 = DIRECTION ( 'NONE',  ( 1.000000000000000000, 0.000000000000000000, 0.000000000000000000 ) ) ;
#363 = ORIENTED_EDGE ( 'NONE', *, *, #225, .T. ) ;
#364 = APPROVAL ( #380, 'UNSPECIFIED' ) ;
#365 = PERSON_AND_ORGANIZATION ( #168, #397 ) ;
#366 = AXIS2_PLACEMENT_3D ( 'NONE', #85, #211, #344 ) ;
#367 =( GEOMETRIC_REPRESENTATION_CONTEXT ( 3 ) GLOBAL_UNCERTAINTY_ASSIGNED_CONTEXT ( ( #390 ) ) GLOBAL_UNIT_ASSIGNED_CONTEXT ( ( #122, #45, #167 ) ) REPRESENTATION_CONTEXT ( 'NONE', 'WORKASPACE' ) );
#368 = DIRECTION ( 'NONE',  ( -1.000000000000000000, 0.000000000000000000, 0.000000000000000000 ) ) ;
#369 = DIRECTION ( 'NONE',  ( -1.000000000000000000, 4.596983092540343046E-18, 0.000000000000000000 ) ) ;
#370 = DIRECTION ( 'NONE',  ( -1.000000000000000000, 0.000000000000000000, 0.000000000000000000 ) ) ;
#371 = CARTESIAN_POINT ( 'NONE',  ( -43.00500000000000256, 2.143141219319411483, 0.000000000000000000 ) ) ;
#372 = DIRECTION ( 'NONE',  ( -1.000000000000000000, 4.596983092540343816E-18, 0.000000000000000000 ) ) ;
#373 = CARTESIAN_POINT ( 'NONE',  ( 43.00500000000000256, 2.143141219319411483, 5.266593559733192651E-15 ) ) ;
#374 = DIRECTION ( 'NONE',  ( 1.000000000000000000, -4.596983092540343816E-18, 0.000000000000000000 ) ) ;
#375 = EDGE_CURVE ( 'NONE', #105, #320, #94, .T. ) ;
#376 = CARTESIAN_POINT ( 'NONE',  ( 0.000000000000000000, 2.143141219319411483, 0.000000000000000000 ) ) ;
#377 = AXIS2_PLACEMENT_3D ( 'NONE', #373, #214, #182 ) ;
#378 = DIRECTION ( 'NONE',  ( -1.000000000000000000, 0.000000000000000000, 0.000000000000000000 ) ) ;
#379 = DIRECTION ( 'NONE',  ( -1.000000000000000000, 7.588466649067399370E-18, 0.000000000000000000 ) ) ;
#380 = APPROVAL_STATUS ( 'not_yet_approved' ) ;
#381 = AXIS2_PLACEMENT_3D ( 'NONE', #350, #183, #372 ) ;
#382 = ADVANCED_FACE ( 'NONE', ( #188 ), #284, .T. ) ;
#383 = VERTEX_POINT ( 'NONE', #151 ) ;
#384 = EDGE_CURVE ( 'NONE', #48, #233, #127, .T. ) ;
#385 = ORIENTED_EDGE ( 'NONE', *, *, #375, .F. ) ;
#386 = AXIS2_PLACEMENT_3D ( 'NONE', #243, #114, #337 ) ;
#387 = APPROVAL_DATE_TIME ( #234, #207 ) ;
#388 = ORIENTED_EDGE ( 'NONE', *, *, #84, .T. ) ;
#389 = PRODUCT_DEFINITION_SHAPE ( 'NONE', 'NONE',  #271 ) ;
#390 = UNCERTAINTY_MEASURE_WITH_UNIT (LENGTH_MEASURE( 1.000000000000000082E-05 ), #122, 'distance_accuracy_value', 'NONE');
#391 = DIRECTION ( 'NONE',  ( -0.000000000000000000, 0.000000000000000000, -1.000000000000000000 ) ) ;
#392 = ORIENTED_EDGE ( 'NONE', *, *, #348, .F. ) ;
#393 = ORIENTED_EDGE ( 'NONE', *, *, #304, .F. ) ;
#394 = CARTESIAN_POINT ( 'NONE',  ( 43.00500000000000256, 2.143141219319411483, 5.266593559733192651E-15 ) ) ;
#395 = ADVANCED_BREP_SHAPE_REPRESENTATION ( '3D_R365_114.3x3_173371152', ( #255, #7 ), #367 ) ;
#396 = AXIS2_PLACEMENT_3D ( 'NONE', #394, #206, #336 ) ;
#397 = ORGANIZATION ( 'UNSPECIFIED', 'UNSPECIFIED', '' ) ;
#398 = CARTESIAN_POINT ( 'NONE',  ( -49.45618413082978293, 11.23122398248402298, 0.000000000000000000 ) ) ;
#399 = SPHERICAL_SURFACE ( 'NONE', #113, 85.43999999999998352 ) ;
#400 = DIRECTION ( 'NONE',  ( 4.596983092540343816E-18, 1.000000000000000000, -0.000000000000000000 ) ) ;
#401 = ORIENTED_EDGE ( 'NONE', *, *, #331, .F. ) ;
#402 = CARTESIAN_POINT ( 'NONE',  ( 9.335008138453893904E-16, 2.143141219319577573, 0.000000000000000000 ) ) ;
#403 = ORIENTED_EDGE ( 'NONE', *, *, #184, .F. ) ;
#404 = TOROIDAL_SURFACE ( 'NONE', #381, 43.00500000000000256, 14.14500000000000135 ) ;
#405 = AXIS2_PLACEMENT_3D ( 'NONE', #278, #120, #248 ) ;
#406 = LOCAL_TIME ( 8, 37, 44.00000000000000000, #261 ) ;
#407 = LINE ( 'NONE', #351, #297 ) ;
#408 = SECURITY_CLASSIFICATION ( '', '', #50 ) ;
#409 = CC_DESIGN_PERSON_AND_ORGANIZATION_ASSIGNMENT ( #139, #226, ( #36 ) ) ;
#410 = EDGE_CURVE ( 'NONE', #383, #233, #314, .T. ) ;
#411 = DIRECTION ( 'NONE',  ( 0.000000000000000000, 0.000000000000000000, 1.000000000000000000 ) ) ;
ENDSEC;
END-ISO-10303-21;
