ISO-10303-21;
HEADER;
/* Generated by software containing ST-Developer
 * from STEP Tools, Inc. (www.steptools.com) 
 */

FILE_DESCRIPTION(
/* description */ (''),
/* implementation_level */ '2;1');

FILE_NAME(
/* name */ 
'C:\\Users\\cad\\Desktop\\Zeichnungen neu von Ralph\\3D_Kupplung_R666-
SE\\3D_R666-SE-25-DN25_17113330.stp',
/* time_stamp */ '2021-06-18T07:41:48+02:00',
/* author */ ('cad'),
/* organization */ (''),
/* preprocessor_version */ 'ST-DEVELOPER v18.1',
/* originating_system */ 'Autodesk Inventor 2022',
/* authorisation */ '');

FILE_SCHEMA (('AUTOMOTIVE_DESIGN { 1 0 10303 214 3 1 1 }'));
ENDSEC;

DATA;
#10=MECHANICAL_DESIGN_GEOMETRIC_PRESENTATION_REPRESENTATION('',(#13),#387);
#11=SHAPE_REPRESENTATION_RELATIONSHIP('SRR','None',#394,#12);
#12=ADVANCED_BREP_SHAPE_REPRESENTATION('',(#14),#386);
#13=STYLED_ITEM('',(#403),#14);
#14=MANIFOLD_SOLID_BREP('Volumenk\X\F6rper1',#203);
#15=CONICAL_SURFACE('',#233,10.65,0.785398163397444);
#16=CONICAL_SURFACE('',#242,12.35,0.785398163397452);
#17=CONICAL_SURFACE('',#243,14.6,0.785398163397449);
#18=CONICAL_SURFACE('',#249,14.6,0.785398163397446);
#19=CONICAL_SURFACE('',#253,10.65,0.785398163397452);
#20=FACE_BOUND('',#60,.T.);
#21=FACE_BOUND('',#63,.T.);
#22=FACE_BOUND('',#70,.T.);
#23=PLANE('',#231);
#24=PLANE('',#237);
#25=PLANE('',#251);
#26=LINE('',#337,#34);
#27=LINE('',#348,#35);
#28=LINE('',#360,#36);
#29=LINE('',#362,#37);
#30=LINE('',#368,#38);
#31=LINE('',#374,#39);
#32=LINE('',#378,#40);
#33=LINE('',#383,#41);
#34=VECTOR('',#268,12.5);
#35=VECTOR('',#281,10.65);
#36=VECTOR('',#296,10.5);
#37=VECTOR('',#299,12.35);
#38=VECTOR('',#306,14.6);
#39=VECTOR('',#313,14.75);
#40=VECTOR('',#318,14.6);
#41=VECTOR('',#325,10.65);
#42=CYLINDRICAL_SURFACE('',#228,12.5);
#43=CYLINDRICAL_SURFACE('',#239,10.5);
#44=CYLINDRICAL_SURFACE('',#246,14.75);
#45=FACE_OUTER_BOUND('',#57,.T.);
#46=FACE_OUTER_BOUND('',#58,.T.);
#47=FACE_OUTER_BOUND('',#59,.T.);
#48=FACE_OUTER_BOUND('',#61,.T.);
#49=FACE_OUTER_BOUND('',#62,.T.);
#50=FACE_OUTER_BOUND('',#64,.T.);
#51=FACE_OUTER_BOUND('',#65,.T.);
#52=FACE_OUTER_BOUND('',#66,.T.);
#53=FACE_OUTER_BOUND('',#67,.T.);
#54=FACE_OUTER_BOUND('',#68,.T.);
#55=FACE_OUTER_BOUND('',#69,.T.);
#56=FACE_OUTER_BOUND('',#71,.T.);
#57=EDGE_LOOP('',(#136,#137,#138,#139,#140));
#58=EDGE_LOOP('',(#141,#142,#143,#144,#145,#146));
#59=EDGE_LOOP('',(#147));
#60=EDGE_LOOP('',(#148));
#61=EDGE_LOOP('',(#149,#150,#151,#152,#153));
#62=EDGE_LOOP('',(#154));
#63=EDGE_LOOP('',(#155));
#64=EDGE_LOOP('',(#156,#157,#158,#159,#160,#161));
#65=EDGE_LOOP('',(#162,#163,#164,#165,#166));
#66=EDGE_LOOP('',(#167,#168,#169,#170,#171));
#67=EDGE_LOOP('',(#172,#173,#174,#175,#176,#177));
#68=EDGE_LOOP('',(#178,#179,#180,#181,#182));
#69=EDGE_LOOP('',(#183));
#70=EDGE_LOOP('',(#184));
#71=EDGE_LOOP('',(#185,#186,#187,#188,#189));
#72=CIRCLE('',#224,12.5);
#73=CIRCLE('',#225,0.4);
#74=CIRCLE('',#226,12.9);
#75=CIRCLE('',#227,12.5);
#76=CIRCLE('',#229,12.5);
#77=CIRCLE('',#230,12.5);
#78=CIRCLE('',#232,14.45);
#79=CIRCLE('',#234,10.8);
#80=CIRCLE('',#235,10.5);
#81=CIRCLE('',#236,10.5);
#82=CIRCLE('',#238,12.2);
#83=CIRCLE('',#240,10.5);
#84=CIRCLE('',#241,10.5);
#85=CIRCLE('',#244,14.75);
#86=CIRCLE('',#245,14.75);
#87=CIRCLE('',#247,14.75);
#88=CIRCLE('',#248,14.75);
#89=CIRCLE('',#250,14.45);
#90=CIRCLE('',#252,10.8);
#91=VERTEX_POINT('',#328);
#92=VERTEX_POINT('',#329);
#93=VERTEX_POINT('',#331);
#94=VERTEX_POINT('',#336);
#95=VERTEX_POINT('',#338);
#96=VERTEX_POINT('',#342);
#97=VERTEX_POINT('',#345);
#98=VERTEX_POINT('',#347);
#99=VERTEX_POINT('',#349);
#100=VERTEX_POINT('',#353);
#101=VERTEX_POINT('',#356);
#102=VERTEX_POINT('',#357);
#103=VERTEX_POINT('',#364);
#104=VERTEX_POINT('',#365);
#105=VERTEX_POINT('',#370);
#106=VERTEX_POINT('',#371);
#107=VERTEX_POINT('',#376);
#108=VERTEX_POINT('',#380);
#109=EDGE_CURVE('',#91,#92,#72,.T.);
#110=EDGE_CURVE('',#92,#93,#73,.T.);
#111=EDGE_CURVE('',#93,#93,#74,.T.);
#112=EDGE_CURVE('',#92,#91,#75,.T.);
#113=EDGE_CURVE('',#91,#94,#26,.T.);
#114=EDGE_CURVE('',#95,#94,#76,.T.);
#115=EDGE_CURVE('',#94,#95,#77,.T.);
#116=EDGE_CURVE('',#96,#96,#78,.T.);
#117=EDGE_CURVE('',#97,#97,#79,.T.);
#118=EDGE_CURVE('',#97,#98,#27,.T.);
#119=EDGE_CURVE('',#98,#99,#80,.T.);
#120=EDGE_CURVE('',#99,#98,#81,.T.);
#121=EDGE_CURVE('',#100,#100,#82,.T.);
#122=EDGE_CURVE('',#101,#102,#83,.T.);
#123=EDGE_CURVE('',#102,#101,#84,.T.);
#124=EDGE_CURVE('',#102,#99,#28,.T.);
#125=EDGE_CURVE('',#95,#100,#29,.T.);
#126=EDGE_CURVE('',#103,#104,#85,.T.);
#127=EDGE_CURVE('',#104,#103,#86,.T.);
#128=EDGE_CURVE('',#103,#96,#30,.T.);
#129=EDGE_CURVE('',#105,#106,#87,.T.);
#130=EDGE_CURVE('',#106,#105,#88,.T.);
#131=EDGE_CURVE('',#106,#104,#31,.T.);
#132=EDGE_CURVE('',#107,#107,#89,.T.);
#133=EDGE_CURVE('',#107,#105,#32,.T.);
#134=EDGE_CURVE('',#108,#108,#90,.T.);
#135=EDGE_CURVE('',#101,#108,#33,.T.);
#136=ORIENTED_EDGE('',*,*,#109,.T.);
#137=ORIENTED_EDGE('',*,*,#110,.T.);
#138=ORIENTED_EDGE('',*,*,#111,.T.);
#139=ORIENTED_EDGE('',*,*,#110,.F.);
#140=ORIENTED_EDGE('',*,*,#112,.T.);
#141=ORIENTED_EDGE('',*,*,#109,.F.);
#142=ORIENTED_EDGE('',*,*,#113,.T.);
#143=ORIENTED_EDGE('',*,*,#114,.F.);
#144=ORIENTED_EDGE('',*,*,#115,.F.);
#145=ORIENTED_EDGE('',*,*,#113,.F.);
#146=ORIENTED_EDGE('',*,*,#112,.F.);
#147=ORIENTED_EDGE('',*,*,#116,.F.);
#148=ORIENTED_EDGE('',*,*,#111,.F.);
#149=ORIENTED_EDGE('',*,*,#117,.T.);
#150=ORIENTED_EDGE('',*,*,#118,.T.);
#151=ORIENTED_EDGE('',*,*,#119,.T.);
#152=ORIENTED_EDGE('',*,*,#120,.T.);
#153=ORIENTED_EDGE('',*,*,#118,.F.);
#154=ORIENTED_EDGE('',*,*,#121,.F.);
#155=ORIENTED_EDGE('',*,*,#117,.F.);
#156=ORIENTED_EDGE('',*,*,#122,.F.);
#157=ORIENTED_EDGE('',*,*,#123,.F.);
#158=ORIENTED_EDGE('',*,*,#124,.T.);
#159=ORIENTED_EDGE('',*,*,#119,.F.);
#160=ORIENTED_EDGE('',*,*,#120,.F.);
#161=ORIENTED_EDGE('',*,*,#124,.F.);
#162=ORIENTED_EDGE('',*,*,#114,.T.);
#163=ORIENTED_EDGE('',*,*,#115,.T.);
#164=ORIENTED_EDGE('',*,*,#125,.T.);
#165=ORIENTED_EDGE('',*,*,#121,.T.);
#166=ORIENTED_EDGE('',*,*,#125,.F.);
#167=ORIENTED_EDGE('',*,*,#126,.T.);
#168=ORIENTED_EDGE('',*,*,#127,.T.);
#169=ORIENTED_EDGE('',*,*,#128,.T.);
#170=ORIENTED_EDGE('',*,*,#116,.T.);
#171=ORIENTED_EDGE('',*,*,#128,.F.);
#172=ORIENTED_EDGE('',*,*,#129,.F.);
#173=ORIENTED_EDGE('',*,*,#130,.F.);
#174=ORIENTED_EDGE('',*,*,#131,.T.);
#175=ORIENTED_EDGE('',*,*,#126,.F.);
#176=ORIENTED_EDGE('',*,*,#127,.F.);
#177=ORIENTED_EDGE('',*,*,#131,.F.);
#178=ORIENTED_EDGE('',*,*,#132,.T.);
#179=ORIENTED_EDGE('',*,*,#133,.T.);
#180=ORIENTED_EDGE('',*,*,#129,.T.);
#181=ORIENTED_EDGE('',*,*,#130,.T.);
#182=ORIENTED_EDGE('',*,*,#133,.F.);
#183=ORIENTED_EDGE('',*,*,#132,.F.);
#184=ORIENTED_EDGE('',*,*,#134,.F.);
#185=ORIENTED_EDGE('',*,*,#122,.T.);
#186=ORIENTED_EDGE('',*,*,#123,.T.);
#187=ORIENTED_EDGE('',*,*,#135,.T.);
#188=ORIENTED_EDGE('',*,*,#134,.T.);
#189=ORIENTED_EDGE('',*,*,#135,.F.);
#190=TOROIDAL_SURFACE('',#223,12.9,0.4);
#191=ADVANCED_FACE('',(#45),#190,.F.);
#192=ADVANCED_FACE('',(#46),#42,.T.);
#193=ADVANCED_FACE('',(#47,#20),#23,.T.);
#194=ADVANCED_FACE('',(#48),#15,.F.);
#195=ADVANCED_FACE('',(#49,#21),#24,.T.);
#196=ADVANCED_FACE('',(#50),#43,.F.);
#197=ADVANCED_FACE('',(#51),#16,.T.);
#198=ADVANCED_FACE('',(#52),#17,.T.);
#199=ADVANCED_FACE('',(#53),#44,.T.);
#200=ADVANCED_FACE('',(#54),#18,.T.);
#201=ADVANCED_FACE('',(#55,#22),#25,.T.);
#202=ADVANCED_FACE('',(#56),#19,.F.);
#203=CLOSED_SHELL('',(#191,#192,#193,#194,#195,#196,#197,#198,#199,#200,
#201,#202));
#204=DERIVED_UNIT_ELEMENT(#206,1.);
#205=DERIVED_UNIT_ELEMENT(#389,-3.);
#206=(
MASS_UNIT()
NAMED_UNIT(*)
SI_UNIT($,.GRAM.)
);
#207=DERIVED_UNIT((#204,#205));
#208=MEASURE_REPRESENTATION_ITEM('density measure',
POSITIVE_RATIO_MEASURE(1.),#207);
#209=PROPERTY_DEFINITION_REPRESENTATION(#214,#211);
#210=PROPERTY_DEFINITION_REPRESENTATION(#215,#212);
#211=REPRESENTATION('material name',(#213),#386);
#212=REPRESENTATION('density',(#208),#386);
#213=DESCRIPTIVE_REPRESENTATION_ITEM('Generisch','Generisch');
#214=PROPERTY_DEFINITION('material property','material name',#396);
#215=PROPERTY_DEFINITION('material property','density of part',#396);
#216=DATE_TIME_ROLE('creation_date');
#217=APPLIED_DATE_AND_TIME_ASSIGNMENT(#218,#216,(#396));
#218=DATE_AND_TIME(#219,#220);
#219=CALENDAR_DATE(2021,18,6);
#220=LOCAL_TIME(0,0,0.,#221);
#221=COORDINATED_UNIVERSAL_TIME_OFFSET(0,0,.BEHIND.);
#222=AXIS2_PLACEMENT_3D('placement',#326,#254,#255);
#223=AXIS2_PLACEMENT_3D('',#327,#256,#257);
#224=AXIS2_PLACEMENT_3D('',#330,#258,#259);
#225=AXIS2_PLACEMENT_3D('',#332,#260,#261);
#226=AXIS2_PLACEMENT_3D('',#333,#262,#263);
#227=AXIS2_PLACEMENT_3D('',#334,#264,#265);
#228=AXIS2_PLACEMENT_3D('',#335,#266,#267);
#229=AXIS2_PLACEMENT_3D('',#339,#269,#270);
#230=AXIS2_PLACEMENT_3D('',#340,#271,#272);
#231=AXIS2_PLACEMENT_3D('',#341,#273,#274);
#232=AXIS2_PLACEMENT_3D('',#343,#275,#276);
#233=AXIS2_PLACEMENT_3D('',#344,#277,#278);
#234=AXIS2_PLACEMENT_3D('',#346,#279,#280);
#235=AXIS2_PLACEMENT_3D('',#350,#282,#283);
#236=AXIS2_PLACEMENT_3D('',#351,#284,#285);
#237=AXIS2_PLACEMENT_3D('',#352,#286,#287);
#238=AXIS2_PLACEMENT_3D('',#354,#288,#289);
#239=AXIS2_PLACEMENT_3D('',#355,#290,#291);
#240=AXIS2_PLACEMENT_3D('',#358,#292,#293);
#241=AXIS2_PLACEMENT_3D('',#359,#294,#295);
#242=AXIS2_PLACEMENT_3D('',#361,#297,#298);
#243=AXIS2_PLACEMENT_3D('',#363,#300,#301);
#244=AXIS2_PLACEMENT_3D('',#366,#302,#303);
#245=AXIS2_PLACEMENT_3D('',#367,#304,#305);
#246=AXIS2_PLACEMENT_3D('',#369,#307,#308);
#247=AXIS2_PLACEMENT_3D('',#372,#309,#310);
#248=AXIS2_PLACEMENT_3D('',#373,#311,#312);
#249=AXIS2_PLACEMENT_3D('',#375,#314,#315);
#250=AXIS2_PLACEMENT_3D('',#377,#316,#317);
#251=AXIS2_PLACEMENT_3D('',#379,#319,#320);
#252=AXIS2_PLACEMENT_3D('',#381,#321,#322);
#253=AXIS2_PLACEMENT_3D('',#382,#323,#324);
#254=DIRECTION('axis',(0.,0.,1.));
#255=DIRECTION('refdir',(1.,0.,0.));
#256=DIRECTION('center_axis',(1.,0.,0.));
#257=DIRECTION('ref_axis',(0.,0.,-1.));
#258=DIRECTION('center_axis',(1.,0.,0.));
#259=DIRECTION('ref_axis',(0.,-1.,1.83697019872103E-16));
#260=DIRECTION('center_axis',(0.,-1.,-1.22464679914735E-16));
#261=DIRECTION('ref_axis',(0.,-1.22464679914735E-16,1.));
#262=DIRECTION('center_axis',(-1.,0.,0.));
#263=DIRECTION('ref_axis',(0.,-1.,1.83697019872103E-16));
#264=DIRECTION('center_axis',(1.,0.,0.));
#265=DIRECTION('ref_axis',(0.,-1.,1.83697019872103E-16));
#266=DIRECTION('center_axis',(1.,0.,0.));
#267=DIRECTION('ref_axis',(0.,1.,0.));
#268=DIRECTION('',(-1.,0.,0.));
#269=DIRECTION('center_axis',(-1.,0.,0.));
#270=DIRECTION('ref_axis',(0.,-1.,0.));
#271=DIRECTION('center_axis',(-1.,0.,0.));
#272=DIRECTION('ref_axis',(0.,-1.,0.));
#273=DIRECTION('center_axis',(-1.,0.,0.));
#274=DIRECTION('ref_axis',(0.,0.,1.));
#275=DIRECTION('center_axis',(1.,0.,0.));
#276=DIRECTION('ref_axis',(0.,-1.,0.));
#277=DIRECTION('center_axis',(-1.,0.,0.));
#278=DIRECTION('ref_axis',(0.,-1.,0.));
#279=DIRECTION('center_axis',(-1.,0.,0.));
#280=DIRECTION('ref_axis',(0.,-1.,0.));
#281=DIRECTION('',(0.70710678118655,-0.707106781186545,8.6595605623549E-17));
#282=DIRECTION('center_axis',(1.,0.,0.));
#283=DIRECTION('ref_axis',(0.,-1.,0.));
#284=DIRECTION('center_axis',(1.,0.,0.));
#285=DIRECTION('ref_axis',(0.,-1.,0.));
#286=DIRECTION('center_axis',(-1.,0.,0.));
#287=DIRECTION('ref_axis',(0.,0.,1.));
#288=DIRECTION('center_axis',(1.,0.,0.));
#289=DIRECTION('ref_axis',(0.,-1.,0.));
#290=DIRECTION('center_axis',(1.,0.,0.));
#291=DIRECTION('ref_axis',(0.,1.,0.));
#292=DIRECTION('center_axis',(-1.,0.,0.));
#293=DIRECTION('ref_axis',(0.,-1.,0.));
#294=DIRECTION('center_axis',(-1.,0.,0.));
#295=DIRECTION('ref_axis',(0.,-1.,0.));
#296=DIRECTION('',(-1.,0.,0.));
#297=DIRECTION('center_axis',(1.,0.,0.));
#298=DIRECTION('ref_axis',(0.,-1.,0.));
#299=DIRECTION('',(-0.707106781186545,-0.70710678118655,-8.65956056235496E-17));
#300=DIRECTION('center_axis',(1.,0.,0.));
#301=DIRECTION('ref_axis',(0.,-1.,0.));
#302=DIRECTION('center_axis',(-1.,0.,0.));
#303=DIRECTION('ref_axis',(0.,-1.,0.));
#304=DIRECTION('center_axis',(-1.,0.,0.));
#305=DIRECTION('ref_axis',(0.,-1.,0.));
#306=DIRECTION('',(-0.707106781186547,-0.707106781186548,-8.65956056235494E-17));
#307=DIRECTION('center_axis',(1.,0.,0.));
#308=DIRECTION('ref_axis',(0.,1.,0.));
#309=DIRECTION('center_axis',(1.,0.,0.));
#310=DIRECTION('ref_axis',(0.,-1.,0.));
#311=DIRECTION('center_axis',(1.,0.,0.));
#312=DIRECTION('ref_axis',(0.,-1.,0.));
#313=DIRECTION('',(-1.,0.,0.));
#314=DIRECTION('center_axis',(-1.,0.,0.));
#315=DIRECTION('ref_axis',(0.,-1.,0.));
#316=DIRECTION('center_axis',(-1.,0.,0.));
#317=DIRECTION('ref_axis',(0.,-1.,0.));
#318=DIRECTION('',(-0.707106781186549,0.707106781186546,8.65956056235492E-17));
#319=DIRECTION('center_axis',(1.,0.,0.));
#320=DIRECTION('ref_axis',(0.,0.,-1.));
#321=DIRECTION('center_axis',(1.,0.,0.));
#322=DIRECTION('ref_axis',(0.,-1.,0.));
#323=DIRECTION('center_axis',(1.,0.,0.));
#324=DIRECTION('ref_axis',(0.,-1.,0.));
#325=DIRECTION('',(0.707106781186545,0.70710678118655,-8.65956056235496E-17));
#326=CARTESIAN_POINT('',(0.,0.,0.));
#327=CARTESIAN_POINT('Origin',(-3.90000000000001,0.,0.));
#328=CARTESIAN_POINT('',(-3.90000000000001,-12.5,-1.53080849893419E-15));
#329=CARTESIAN_POINT('',(-3.90000000000001,-1.53080849893419E-15,12.5));
#330=CARTESIAN_POINT('Origin',(-3.90000000000001,0.,0.));
#331=CARTESIAN_POINT('',(-3.50000000000001,-1.57979437090008E-15,12.9));
#332=CARTESIAN_POINT('Origin',(-3.90000000000001,-1.57979437090008E-15,
12.9));
#333=CARTESIAN_POINT('Origin',(-3.50000000000001,0.,0.));
#334=CARTESIAN_POINT('Origin',(-3.90000000000001,0.,0.));
#335=CARTESIAN_POINT('Origin',(-11.5,0.,0.));
#336=CARTESIAN_POINT('',(-19.2,-12.5,-1.53080849893419E-15));
#337=CARTESIAN_POINT('',(-11.5,-12.5,-1.53080849893419E-15));
#338=CARTESIAN_POINT('',(-19.2,12.5,-1.53080849893419E-15));
#339=CARTESIAN_POINT('Origin',(-19.2,0.,0.));
#340=CARTESIAN_POINT('Origin',(-19.2,0.,0.));
#341=CARTESIAN_POINT('Origin',(-3.50000000000001,14.75,0.));
#342=CARTESIAN_POINT('',(-3.50000000000001,14.45,1.76961462476793E-15));
#343=CARTESIAN_POINT('Origin',(-3.50000000000001,0.,0.));
#344=CARTESIAN_POINT('Origin',(-19.35,0.,0.));
#345=CARTESIAN_POINT('',(-19.5,10.8,-1.32261854307914E-15));
#346=CARTESIAN_POINT('Origin',(-19.5,0.,0.));
#347=CARTESIAN_POINT('',(-19.2,10.5,1.28587913910472E-15));
#348=CARTESIAN_POINT('',(-19.35,10.65,-1.30424884109193E-15));
#349=CARTESIAN_POINT('',(-19.2,-10.5,-1.28587913910472E-15));
#350=CARTESIAN_POINT('Origin',(-19.2,0.,0.));
#351=CARTESIAN_POINT('Origin',(-19.2,0.,0.));
#352=CARTESIAN_POINT('Origin',(-19.5,12.5,0.));
#353=CARTESIAN_POINT('',(-19.5,12.2,1.49406909495977E-15));
#354=CARTESIAN_POINT('Origin',(-19.5,0.,0.));
#355=CARTESIAN_POINT('Origin',(-9.75000000000001,0.,0.));
#356=CARTESIAN_POINT('',(-0.300000000000007,10.5,-1.28587913910472E-15));
#357=CARTESIAN_POINT('',(-0.300000000000007,-10.5,-1.28587913910472E-15));
#358=CARTESIAN_POINT('Origin',(-0.300000000000007,0.,0.));
#359=CARTESIAN_POINT('Origin',(-0.300000000000007,0.,0.));
#360=CARTESIAN_POINT('',(-9.75000000000001,-10.5,-1.28587913910472E-15));
#361=CARTESIAN_POINT('Origin',(-19.35,0.,0.));
#362=CARTESIAN_POINT('',(-19.35,12.35,1.51243879694698E-15));
#363=CARTESIAN_POINT('Origin',(-3.35000000000001,0.,0.));
#364=CARTESIAN_POINT('',(-3.20000000000001,14.75,-1.80635402874235E-15));
#365=CARTESIAN_POINT('',(-3.20000000000001,-14.75,-1.80635402874235E-15));
#366=CARTESIAN_POINT('Origin',(-3.20000000000001,0.,0.));
#367=CARTESIAN_POINT('Origin',(-3.20000000000001,0.,0.));
#368=CARTESIAN_POINT('',(-3.35000000000001,14.6,1.78798432675514E-15));
#369=CARTESIAN_POINT('Origin',(-1.75000000000001,0.,0.));
#370=CARTESIAN_POINT('',(-0.300000000000008,14.75,1.80635402874235E-15));
#371=CARTESIAN_POINT('',(-0.300000000000008,-14.75,-1.80635402874235E-15));
#372=CARTESIAN_POINT('Origin',(-0.300000000000008,0.,0.));
#373=CARTESIAN_POINT('Origin',(-0.300000000000008,0.,0.));
#374=CARTESIAN_POINT('',(-1.75000000000001,-14.75,-1.80635402874235E-15));
#375=CARTESIAN_POINT('Origin',(-0.150000000000007,0.,0.));
#376=CARTESIAN_POINT('',(-6.66133814775094E-15,14.45,-1.76961462476793E-15));
#377=CARTESIAN_POINT('Origin',(-6.66133814775094E-15,0.,0.));
#378=CARTESIAN_POINT('',(-0.150000000000007,14.6,1.78798432675514E-15));
#379=CARTESIAN_POINT('Origin',(-6.66133814775094E-15,10.5,0.));
#380=CARTESIAN_POINT('',(-6.66133814775094E-15,10.8,1.32261854307914E-15));
#381=CARTESIAN_POINT('Origin',(-6.66133814775094E-15,0.,0.));
#382=CARTESIAN_POINT('Origin',(-0.150000000000007,0.,0.));
#383=CARTESIAN_POINT('',(-0.150000000000007,10.65,-1.30424884109193E-15));
#384=UNCERTAINTY_MEASURE_WITH_UNIT(LENGTH_MEASURE(0.01),#388,
'DISTANCE_ACCURACY_VALUE',
'Maximum model space distance between geometric entities at asserted c
onnectivities');
#385=UNCERTAINTY_MEASURE_WITH_UNIT(LENGTH_MEASURE(0.01),#388,
'DISTANCE_ACCURACY_VALUE',
'Maximum model space distance between geometric entities at asserted c
onnectivities');
#386=(
GEOMETRIC_REPRESENTATION_CONTEXT(3)
GLOBAL_UNCERTAINTY_ASSIGNED_CONTEXT((#384))
GLOBAL_UNIT_ASSIGNED_CONTEXT((#388,#390,#391))
REPRESENTATION_CONTEXT('','3D')
);
#387=(
GEOMETRIC_REPRESENTATION_CONTEXT(3)
GLOBAL_UNCERTAINTY_ASSIGNED_CONTEXT((#385))
GLOBAL_UNIT_ASSIGNED_CONTEXT((#388,#390,#391))
REPRESENTATION_CONTEXT('','3D')
);
#388=(
LENGTH_UNIT()
NAMED_UNIT(*)
SI_UNIT(.MILLI.,.METRE.)
);
#389=(
LENGTH_UNIT()
NAMED_UNIT(*)
SI_UNIT(.CENTI.,.METRE.)
);
#390=(
NAMED_UNIT(*)
PLANE_ANGLE_UNIT()
SI_UNIT($,.RADIAN.)
);
#391=(
NAMED_UNIT(*)
SI_UNIT($,.STERADIAN.)
SOLID_ANGLE_UNIT()
);
#392=SHAPE_DEFINITION_REPRESENTATION(#393,#394);
#393=PRODUCT_DEFINITION_SHAPE('',$,#396);
#394=SHAPE_REPRESENTATION('',(#222),#386);
#395=PRODUCT_DEFINITION_CONTEXT('part definition',#400,'design');
#396=PRODUCT_DEFINITION('3D_R666-SE-25-DN25_17113330',
'3D_R666-SE-25-DN25_17113330',#397,#395);
#397=PRODUCT_DEFINITION_FORMATION('',$,#402);
#398=PRODUCT_RELATED_PRODUCT_CATEGORY('3D_R666-SE-25-DN25_17113330',
'3D_R666-SE-25-DN25_17113330',(#402));
#399=APPLICATION_PROTOCOL_DEFINITION('international standard',
'automotive_design',2009,#400);
#400=APPLICATION_CONTEXT(
'Core Data for Automotive Mechanical Design Process');
#401=PRODUCT_CONTEXT('part definition',#400,'mechanical');
#402=PRODUCT('3D_R666-SE-25-DN25_17113330',
'3D_R666-SE-25-DN25_17113330',$,(#401));
#403=PRESENTATION_STYLE_ASSIGNMENT((#404));
#404=SURFACE_STYLE_USAGE(.BOTH.,#407);
#405=SURFACE_STYLE_RENDERING_WITH_PROPERTIES($,#411,(#406));
#406=SURFACE_STYLE_TRANSPARENT(0.);
#407=SURFACE_SIDE_STYLE('',(#408,#405));
#408=SURFACE_STYLE_FILL_AREA(#409);
#409=FILL_AREA_STYLE('',(#410));
#410=FILL_AREA_STYLE_COLOUR('',#411);
#411=COLOUR_RGB('',0.749019607843137,0.749019607843137,0.749019607843137);
ENDSEC;
END-ISO-10303-21;
