ISO-10303-21;
HEADER;
FILE_DESCRIPTION (( 'STEP AP203' ),
    '1' );
FILE_NAME ('3D_M-7012G_DN10_174731010.STEP',
    '2024-10-04T13:17:53',
    ( '' ),
    ( '' ),
    'SwSTEP 2.0',
    'SolidWorks 2024',
    '' );
FILE_SCHEMA (( 'CONFIG_CONTROL_DESIGN' ));
ENDSEC;

DATA;
#1 = COORDINATED_UNIVERSAL_TIME_OFFSET ( 1, 0, .AHEAD. ) ;
#2 = CIRCLE ( 'NONE', #179, 5.500000000000000000 ) ;
#3 = LOCAL_TIME ( 15, 17, 53.00000000000000000, #70 ) ;
#4 = DATE_AND_TIME ( #154, #180 ) ;
#5 = ORIENTED_EDGE ( 'NONE', *, *, #47, .F. ) ;
#6 = EDGE_LOOP ( 'NONE', ( #101, #5 ) ) ;
#7 = EDGE_CURVE ( 'NONE', #175, #26, #230, .T. ) ;
#8 = SECURITY_CLASSIFICATION_LEVEL ( 'unclassified' ) ;
#9 = VECTOR ( 'NONE', #112, 1000.000000000000000 ) ;
#10 = COORDINATED_UNIVERSAL_TIME_OFFSET ( 1, 0, .AHEAD. ) ;
#11 = PERSON_AND_ORGANIZATION ( #41, #87 ) ;
#12 = ORIENTED_EDGE ( 'NONE', *, *, #47, .T. ) ;
#13 = APPROVAL_PERSON_ORGANIZATION ( #11, #144, #181 ) ;
#14 = LINE ( 'NONE', #129, #238 ) ;
#15 = DIRECTION ( 'NONE',  ( 0.000000000000000000, -0.000000000000000000, 1.000000000000000000 ) ) ;
#16 = CARTESIAN_POINT ( 'NONE',  ( 0.000000000000000000, 65.00000000000000000, 0.000000000000000000 ) ) ;
#17 = DIRECTION ( 'NONE',  ( 0.000000000000000000, 0.000000000000000000, 1.000000000000000000 ) ) ;
#18 = DIRECTION ( 'NONE',  ( 0.000000000000000000, 0.000000000000000000, -1.000000000000000000 ) ) ;
#19 = CYLINDRICAL_SURFACE ( 'NONE', #135, 8.000000000000000000 ) ;
#20 = DIRECTION ( 'NONE',  ( -0.000000000000000000, -1.000000000000000000, -0.000000000000000000 ) ) ;
#21 = EDGE_CURVE ( 'NONE', #65, #163, #2, .T. ) ;
#22 = APPROVAL_STATUS ( 'not_yet_approved' ) ;
#23 = CARTESIAN_POINT ( 'NONE',  ( 0.000000000000000000, 0.000000000000000000, 0.000000000000000000 ) ) ;
#24 = ORIENTED_EDGE ( 'NONE', *, *, #134, .F. ) ;
#25 = CC_DESIGN_DATE_AND_TIME_ASSIGNMENT ( #118, #192, ( #116 ) ) ;
#26 = VERTEX_POINT ( 'NONE', #76 ) ;
#27 = APPROVAL_DATE_TIME ( #122, #144 ) ;
#28 = SHAPE_DEFINITION_REPRESENTATION ( #225, #140 ) ;
#29 =( LENGTH_UNIT ( ) NAMED_UNIT ( * ) SI_UNIT ( .MILLI., .METRE. ) );
#30 = EDGE_LOOP ( 'NONE', ( #48, #246, #49, #176 ) ) ;
#31 = CC_DESIGN_APPROVAL ( #32, ( #116 ) ) ;
#32 = APPROVAL ( #22, 'UNSPECIFIED' ) ;
#33 = LINE ( 'NONE', #186, #67 ) ;
#34 = DIRECTION ( 'NONE',  ( 0.000000000000000000, 0.000000000000000000, 1.000000000000000000 ) ) ;
#35 = CARTESIAN_POINT ( 'NONE',  ( 0.000000000000000000, 65.00000000000000000, 0.000000000000000000 ) ) ;
#36 = LINE ( 'NONE', #149, #9 ) ;
#37 = DIRECTION ( 'NONE',  ( 0.000000000000000000, 0.000000000000000000, 1.000000000000000000 ) ) ;
#38 = VECTOR ( 'NONE', #55, 1000.000000000000000 ) ;
#39 = CARTESIAN_POINT ( 'NONE',  ( 9.797174393178825657E-16, 0.000000000000000000, 8.000000000000000000 ) ) ;
#40 = EDGE_CURVE ( 'NONE', #193, #88, #162, .T. ) ;
#41 = PERSON ( 'UNSPECIFIED', 'UNSPECIFIED', 'UNSPECIFIED', ('UNSPECIFIED'), ('UNSPECIFIED'), ('UNSPECIFIED') ) ;
#42 = AXIS2_PLACEMENT_3D ( 'NONE', #16, #148, #37 ) ;
#43 = CIRCLE ( 'NONE', #104, 5.500000000000000000 ) ;
#44 = APPROVAL ( #160, 'UNSPECIFIED' ) ;
#45 = PERSON_AND_ORGANIZATION ( #41, #87 ) ;
#46 = APPLICATION_PROTOCOL_DEFINITION ( 'international standard', 'config_control_design', 1994, #178 ) ;
#47 = EDGE_CURVE ( 'NONE', #88, #193, #213, .T. ) ;
#48 = ORIENTED_EDGE ( 'NONE', *, *, #234, .F. ) ;
#49 = ORIENTED_EDGE ( 'NONE', *, *, #196, .T. ) ;
#50 = CALENDAR_DATE ( 2024, 4, 10 ) ;
#51 = PERSON_AND_ORGANIZATION_ROLE ( 'creator' ) ;
#52 = LOCAL_TIME ( 15, 17, 53.00000000000000000, #10 ) ;
#53 = ORIENTED_EDGE ( 'NONE', *, *, #196, .F. ) ;
#54 = ADVANCED_FACE ( 'NONE', ( #130 ), #19, .T. ) ;
#55 = DIRECTION ( 'NONE',  ( -0.000000000000000000, -1.000000000000000000, -0.000000000000000000 ) ) ;
#56 = CARTESIAN_POINT ( 'NONE',  ( 0.000000000000000000, 65.00000000000000000, 0.000000000000000000 ) ) ;
#57 = CARTESIAN_POINT ( 'NONE',  ( 0.000000000000000000, 0.000000000000000000, 0.000000000000000000 ) ) ;
#58 = DIRECTION ( 'NONE',  ( 0.000000000000000000, 0.000000000000000000, 1.000000000000000000 ) ) ;
#59 = DIRECTION ( 'NONE',  ( 0.000000000000000000, 1.000000000000000000, 0.000000000000000000 ) ) ;
#60 = AXIS2_PLACEMENT_3D ( 'NONE', #152, #211, #58 ) ;
#61 = CYLINDRICAL_SURFACE ( 'NONE', #62, 8.000000000000000000 ) ;
#62 = AXIS2_PLACEMENT_3D ( 'NONE', #187, #206, #18 ) ;
#63 = PERSON_AND_ORGANIZATION_ROLE ( 'design_owner' ) ;
#64 = DIRECTION ( 'NONE',  ( 1.000000000000000000, 0.000000000000000000, 0.000000000000000000 ) ) ;
#65 = VERTEX_POINT ( 'NONE', #151 ) ;
#66 = ORIENTED_EDGE ( 'NONE', *, *, #234, .T. ) ;
#67 = VECTOR ( 'NONE', #166, 1000.000000000000000 ) ;
#68 = UNCERTAINTY_MEASURE_WITH_UNIT (LENGTH_MEASURE( 1.000000000000000082E-05 ), #29, 'distance_accuracy_value', 'NONE');
#69 = APPROVAL_ROLE ( '' ) ;
#70 = COORDINATED_UNIVERSAL_TIME_OFFSET ( 1, 0, .AHEAD. ) ;
#71 = CC_DESIGN_PERSON_AND_ORGANIZATION_ASSIGNMENT ( #45, #97, ( #116 ) ) ;
#72 = ORIENTED_EDGE ( 'NONE', *, *, #121, .T. ) ;
#73 = DIRECTION ( 'NONE',  ( -0.000000000000000000, -1.000000000000000000, -0.000000000000000000 ) ) ;
#74 = LOCAL_TIME ( 15, 17, 53.00000000000000000, #197 ) ;
#75 = DIRECTION ( 'NONE',  ( -0.000000000000000000, -1.000000000000000000, -0.000000000000000000 ) ) ;
#76 = CARTESIAN_POINT ( 'NONE',  ( 9.797174393178825657E-16, 65.00000000000000000, 8.000000000000000000 ) ) ;
#77 = DIRECTION ( 'NONE',  ( 0.000000000000000000, 0.000000000000000000, 1.000000000000000000 ) ) ;
#78 = DIRECTION ( 'NONE',  ( -0.000000000000000000, -1.000000000000000000, -0.000000000000000000 ) ) ;
#79 = FACE_OUTER_BOUND ( 'NONE', #220, .T. ) ;
#80 = ADVANCED_FACE ( 'NONE', ( #109 ), #244, .F. ) ;
#81 = PERSON_AND_ORGANIZATION ( #41, #87 ) ;
#82 = COORDINATED_UNIVERSAL_TIME_OFFSET ( 1, 0, .AHEAD. ) ;
#83 = VERTEX_POINT ( 'NONE', #133 ) ;
#84 = DATE_AND_TIME ( #50, #74 ) ;
#85 = PERSON_AND_ORGANIZATION ( #41, #87 ) ;
#86 =( NAMED_UNIT ( * ) PLANE_ANGLE_UNIT ( ) SI_UNIT ( $, .RADIAN. ) );
#87 = ORGANIZATION ( 'UNSPECIFIED', 'UNSPECIFIED', '' ) ;
#88 = VERTEX_POINT ( 'NONE', #39 ) ;
#89 = FACE_OUTER_BOUND ( 'NONE', #239, .T. ) ;
#90 = FACE_BOUND ( 'NONE', #167, .T. ) ;
#91 = EDGE_LOOP ( 'NONE', ( #233, #72, #12, #173 ) ) ;
#92 = CARTESIAN_POINT ( 'NONE',  ( 0.000000000000000000, 0.000000000000000000, 0.000000000000000000 ) ) ;
#93 = DIRECTION ( 'NONE',  ( 0.000000000000000000, 1.000000000000000000, 0.000000000000000000 ) ) ;
#94 = DIRECTION ( 'NONE',  ( 0.000000000000000000, 0.000000000000000000, -1.000000000000000000 ) ) ;
#95 = CC_DESIGN_PERSON_AND_ORGANIZATION_ASSIGNMENT ( #172, #63, ( #150 ) ) ;
#96 = LOCAL_TIME ( 15, 17, 53.00000000000000000, #82 ) ;
#97 = PERSON_AND_ORGANIZATION_ROLE ( 'creator' ) ;
#98 = AXIS2_PLACEMENT_3D ( 'NONE', #108, #242, #15 ) ;
#99 = APPROVAL_ROLE ( '' ) ;
#100 = ORIENTED_EDGE ( 'NONE', *, *, #40, .T. ) ;
#101 = ORIENTED_EDGE ( 'NONE', *, *, #40, .F. ) ;
#102 = EDGE_CURVE ( 'NONE', #120, #83, #43, .T. ) ;
#103 = DATE_TIME_ROLE ( 'classification_date' ) ;
#104 = AXIS2_PLACEMENT_3D ( 'NONE', #170, #226, #131 ) ;
#105 = APPROVAL_DATE_TIME ( #218, #44 ) ;
#106 = CIRCLE ( 'NONE', #174, 5.500000000000000000 ) ;
#107 = ORIENTED_EDGE ( 'NONE', *, *, #7, .F. ) ;
#108 = CARTESIAN_POINT ( 'NONE',  ( 0.000000000000000000, 0.000000000000000000, 0.000000000000000000 ) ) ;
#109 = FACE_OUTER_BOUND ( 'NONE', #30, .T. ) ;
#110 = DIRECTION ( 'NONE',  ( 0.000000000000000000, 1.000000000000000000, 0.000000000000000000 ) ) ;
#111 = PRODUCT_RELATED_PRODUCT_CATEGORY ( 'detail', '', ( #150 ) ) ;
#112 = DIRECTION ( 'NONE',  ( -0.000000000000000000, -1.000000000000000000, -0.000000000000000000 ) ) ;
#113 = AXIS2_PLACEMENT_3D ( 'NONE', #227, #59, #224 ) ;
#114 = DIRECTION ( 'NONE',  ( 0.000000000000000000, 1.000000000000000000, 0.000000000000000000 ) ) ;
#115 = FACE_BOUND ( 'NONE', #214, .T. ) ;
#116 = PRODUCT_DEFINITION ( 'UNKNOWN', '', #209, #216 ) ;
#117 = CLOSED_SHELL ( 'NONE', ( #241, #138, #191, #199, #54, #80 ) ) ;
#118 = DATE_AND_TIME ( #156, #96 ) ;
#119 = APPROVAL_PERSON_ORGANIZATION ( #81, #32, #99 ) ;
#120 = VERTEX_POINT ( 'NONE', #228 ) ;
#121 = EDGE_CURVE ( 'NONE', #26, #88, #36, .T. ) ;
#122 = DATE_AND_TIME ( #123, #52 ) ;
#123 = CALENDAR_DATE ( 2024, 4, 10 ) ;
#124 =( GEOMETRIC_REPRESENTATION_CONTEXT ( 3 ) GLOBAL_UNCERTAINTY_ASSIGNED_CONTEXT ( ( #68 ) ) GLOBAL_UNIT_ASSIGNED_CONTEXT ( ( #29, #86, #125 ) ) REPRESENTATION_CONTEXT ( 'NONE', 'WORKASPACE' ) );
#125 =( NAMED_UNIT ( * ) SI_UNIT ( $, .STERADIAN. ) SOLID_ANGLE_UNIT ( ) );
#126 = ORIENTED_EDGE ( 'NONE', *, *, #21, .T. ) ;
#127 = AXIS2_PLACEMENT_3D ( 'NONE', #35, #110, #17 ) ;
#128 = CARTESIAN_POINT ( 'NONE',  ( 0.000000000000000000, 65.00000000000000000, 0.000000000000000000 ) ) ;
#129 = CARTESIAN_POINT ( 'NONE',  ( 0.000000000000000000, 65.00000000000000000, -8.000000000000000000 ) ) ;
#130 = FACE_OUTER_BOUND ( 'NONE', #183, .T. ) ;
#131 = DIRECTION ( 'NONE',  ( 0.000000000000000000, 0.000000000000000000, 1.000000000000000000 ) ) ;
#132 = AXIS2_PLACEMENT_3D ( 'NONE', #57, #114, #189 ) ;
#133 = CARTESIAN_POINT ( 'NONE',  ( 6.735557395310442023E-16, 0.000000000000000000, 5.500000000000000000 ) ) ;
#134 = EDGE_CURVE ( 'NONE', #163, #65, #155, .T. ) ;
#135 = AXIS2_PLACEMENT_3D ( 'NONE', #204, #78, #185 ) ;
#136 = MECHANICAL_CONTEXT ( 'NONE', #202, 'mechanical' ) ;
#137 = ORIENTED_EDGE ( 'NONE', *, *, #121, .F. ) ;
#138 = ADVANCED_FACE ( 'NONE', ( #168 ), #61, .T. ) ;
#139 = ORIENTED_EDGE ( 'NONE', *, *, #102, .F. ) ;
#140 = ADVANCED_BREP_SHAPE_REPRESENTATION ( '3D_M-7012G_DN10_174731010', ( #215, #201 ), #124 ) ;
#141 = CALENDAR_DATE ( 2024, 4, 10 ) ;
#142 = AXIS2_PLACEMENT_3D ( 'NONE', #56, #145, #203 ) ;
#143 = ORIENTED_EDGE ( 'NONE', *, *, #153, .T. ) ;
#144 = APPROVAL ( #217, 'UNSPECIFIED' ) ;
#145 = DIRECTION ( 'NONE',  ( 0.000000000000000000, 1.000000000000000000, 0.000000000000000000 ) ) ;
#146 = CIRCLE ( 'NONE', #127, 8.000000000000000000 ) ;
#147 = DIRECTION ( 'NONE',  ( 0.000000000000000000, 0.000000000000000000, -1.000000000000000000 ) ) ;
#148 = DIRECTION ( 'NONE',  ( 0.000000000000000000, 1.000000000000000000, 0.000000000000000000 ) ) ;
#149 = CARTESIAN_POINT ( 'NONE',  ( 9.797174393178825657E-16, 65.00000000000000000, 8.000000000000000000 ) ) ;
#150 = PRODUCT ( '3D_M-7012G_DN10_174731010', '3D_M-7012G_DN10_174731010', '', ( #136 ) ) ;
#151 = CARTESIAN_POINT ( 'NONE',  ( 0.000000000000000000, 65.00000000000000000, -5.500000000000000000 ) ) ;
#152 = CARTESIAN_POINT ( 'NONE',  ( 0.000000000000000000, 65.00000000000000000, 0.000000000000000000 ) ) ;
#153 = EDGE_CURVE ( 'NONE', #83, #120, #106, .T. ) ;
#154 = CALENDAR_DATE ( 2024, 4, 10 ) ;
#155 = CIRCLE ( 'NONE', #60, 5.500000000000000000 ) ;
#156 = CALENDAR_DATE ( 2024, 4, 10 ) ;
#157 = ORIENTED_EDGE ( 'NONE', *, *, #21, .F. ) ;
#158 = ORIENTED_EDGE ( 'NONE', *, *, #229, .T. ) ;
#159 = CC_DESIGN_APPROVAL ( #144, ( #209 ) ) ;
#160 = APPROVAL_STATUS ( 'not_yet_approved' ) ;
#161 = PERSON_AND_ORGANIZATION ( #41, #87 ) ;
#162 = CIRCLE ( 'NONE', #113, 8.000000000000000000 ) ;
#163 = VERTEX_POINT ( 'NONE', #247 ) ;
#164 = CC_DESIGN_PERSON_AND_ORGANIZATION_ASSIGNMENT ( #198, #237, ( #219 ) ) ;
#165 = PLANE ( 'NONE',  #98 ) ;
#166 = DIRECTION ( 'NONE',  ( -0.000000000000000000, -1.000000000000000000, -0.000000000000000000 ) ) ;
#167 = EDGE_LOOP ( 'NONE', ( #195, #143 ) ) ;
#168 = FACE_OUTER_BOUND ( 'NONE', #91, .T. ) ;
#169 = CARTESIAN_POINT ( 'NONE',  ( 0.000000000000000000, 65.00000000000000000, 0.000000000000000000 ) ) ;
#170 = CARTESIAN_POINT ( 'NONE',  ( 0.000000000000000000, 0.000000000000000000, 0.000000000000000000 ) ) ;
#171 = APPLICATION_PROTOCOL_DEFINITION ( 'international standard', 'config_control_design', 1994, #202 ) ;
#172 = PERSON_AND_ORGANIZATION ( #41, #87 ) ;
#173 = ORIENTED_EDGE ( 'NONE', *, *, #229, .F. ) ;
#174 = AXIS2_PLACEMENT_3D ( 'NONE', #92, #245, #77 ) ;
#175 = VERTEX_POINT ( 'NONE', #208 ) ;
#176 = ORIENTED_EDGE ( 'NONE', *, *, #153, .F. ) ;
#177 = PERSON_AND_ORGANIZATION_ROLE ( 'design_supplier' ) ;
#178 = APPLICATION_CONTEXT ( 'configuration controlled 3d designs of mechanical parts and assemblies' ) ;
#179 = AXIS2_PLACEMENT_3D ( 'NONE', #210, #93, #34 ) ;
#180 = LOCAL_TIME ( 15, 17, 53.00000000000000000, #1 ) ;
#181 = APPROVAL_ROLE ( '' ) ;
#182 = CC_DESIGN_PERSON_AND_ORGANIZATION_ASSIGNMENT ( #161, #177, ( #209 ) ) ;
#183 = EDGE_LOOP ( 'NONE', ( #137, #107, #158, #100 ) ) ;
#184 = CARTESIAN_POINT ( 'NONE',  ( 6.735557395310442023E-16, 65.00000000000000000, 5.500000000000000000 ) ) ;
#185 = DIRECTION ( 'NONE',  ( 0.000000000000000000, 0.000000000000000000, -1.000000000000000000 ) ) ;
#186 = CARTESIAN_POINT ( 'NONE',  ( 0.000000000000000000, 65.00000000000000000, -5.500000000000000000 ) ) ;
#187 = CARTESIAN_POINT ( 'NONE',  ( 0.000000000000000000, 65.00000000000000000, 0.000000000000000000 ) ) ;
#188 = CC_DESIGN_SECURITY_CLASSIFICATION ( #219, ( #209 ) ) ;
#189 = DIRECTION ( 'NONE',  ( 0.000000000000000000, 0.000000000000000000, 1.000000000000000000 ) ) ;
#190 = PLANE ( 'NONE',  #142 ) ;
#191 = ADVANCED_FACE ( 'NONE', ( #79, #115 ), #190, .T. ) ;
#192 = DATE_TIME_ROLE ( 'creation_date' ) ;
#193 = VERTEX_POINT ( 'NONE', #221 ) ;
#194 = AXIS2_PLACEMENT_3D ( 'NONE', #128, #75, #147 ) ;
#195 = ORIENTED_EDGE ( 'NONE', *, *, #102, .T. ) ;
#196 = EDGE_CURVE ( 'NONE', #65, #120, #33, .T. ) ;
#197 = COORDINATED_UNIVERSAL_TIME_OFFSET ( 1, 0, .AHEAD. ) ;
#198 = PERSON_AND_ORGANIZATION ( #41, #87 ) ;
#199 = ADVANCED_FACE ( 'NONE', ( #205, #90 ), #165, .F. ) ;
#200 = ORIENTED_EDGE ( 'NONE', *, *, #7, .T. ) ;
#201 = AXIS2_PLACEMENT_3D ( 'NONE', #23, #232, #64 ) ;
#202 = APPLICATION_CONTEXT ( 'configuration controlled 3d designs of mechanical parts and assemblies' ) ;
#203 = DIRECTION ( 'NONE',  ( 0.000000000000000000, -0.000000000000000000, 1.000000000000000000 ) ) ;
#204 = CARTESIAN_POINT ( 'NONE',  ( 0.000000000000000000, 65.00000000000000000, 0.000000000000000000 ) ) ;
#205 = FACE_OUTER_BOUND ( 'NONE', #6, .T. ) ;
#206 = DIRECTION ( 'NONE',  ( -0.000000000000000000, -1.000000000000000000, -0.000000000000000000 ) ) ;
#207 = ORIENTED_EDGE ( 'NONE', *, *, #248, .T. ) ;
#208 = CARTESIAN_POINT ( 'NONE',  ( 0.000000000000000000, 65.00000000000000000, -8.000000000000000000 ) ) ;
#209 = PRODUCT_DEFINITION_FORMATION_WITH_SPECIFIED_SOURCE ( 'ANY', '', #150, .NOT_KNOWN. ) ;
#210 = CARTESIAN_POINT ( 'NONE',  ( 0.000000000000000000, 65.00000000000000000, 0.000000000000000000 ) ) ;
#211 = DIRECTION ( 'NONE',  ( 0.000000000000000000, 1.000000000000000000, 0.000000000000000000 ) ) ;
#212 = CC_DESIGN_PERSON_AND_ORGANIZATION_ASSIGNMENT ( #85, #51, ( #209 ) ) ;
#213 = CIRCLE ( 'NONE', #132, 8.000000000000000000 ) ;
#214 = EDGE_LOOP ( 'NONE', ( #157, #24 ) ) ;
#215 = MANIFOLD_SOLID_BREP ( 'Aufsatz-Linear austragen1', #117 ) ;
#216 = DESIGN_CONTEXT ( 'detailed design', #178, 'design' ) ;
#217 = APPROVAL_STATUS ( 'not_yet_approved' ) ;
#218 = DATE_AND_TIME ( #141, #3 ) ;
#219 = SECURITY_CLASSIFICATION ( '', '', #8 ) ;
#220 = EDGE_LOOP ( 'NONE', ( #200, #207 ) ) ;
#221 = CARTESIAN_POINT ( 'NONE',  ( 0.000000000000000000, 0.000000000000000000, -8.000000000000000000 ) ) ;
#222 = CC_DESIGN_DATE_AND_TIME_ASSIGNMENT ( #84, #103, ( #219 ) ) ;
#223 = LINE ( 'NONE', #184, #38 ) ;
#224 = DIRECTION ( 'NONE',  ( 0.000000000000000000, 0.000000000000000000, 1.000000000000000000 ) ) ;
#225 = PRODUCT_DEFINITION_SHAPE ( 'NONE', 'NONE',  #116 ) ;
#226 = DIRECTION ( 'NONE',  ( 0.000000000000000000, 1.000000000000000000, 0.000000000000000000 ) ) ;
#227 = CARTESIAN_POINT ( 'NONE',  ( 0.000000000000000000, 0.000000000000000000, 0.000000000000000000 ) ) ;
#228 = CARTESIAN_POINT ( 'NONE',  ( 0.000000000000000000, 0.000000000000000000, -5.500000000000000000 ) ) ;
#229 = EDGE_CURVE ( 'NONE', #175, #193, #14, .T. ) ;
#230 = CIRCLE ( 'NONE', #42, 8.000000000000000000 ) ;
#231 = APPROVAL_DATE_TIME ( #4, #32 ) ;
#232 = DIRECTION ( 'NONE',  ( 0.000000000000000000, 0.000000000000000000, 1.000000000000000000 ) ) ;
#233 = ORIENTED_EDGE ( 'NONE', *, *, #248, .F. ) ;
#234 = EDGE_CURVE ( 'NONE', #163, #83, #223, .T. ) ;
#235 = CC_DESIGN_APPROVAL ( #44, ( #219 ) ) ;
#236 = PERSON_AND_ORGANIZATION ( #41, #87 ) ;
#237 = PERSON_AND_ORGANIZATION_ROLE ( 'classification_officer' ) ;
#238 = VECTOR ( 'NONE', #73, 1000.000000000000000 ) ;
#239 = EDGE_LOOP ( 'NONE', ( #126, #66, #139, #53 ) ) ;
#240 = CYLINDRICAL_SURFACE ( 'NONE', #194, 5.500000000000000000 ) ;
#241 = ADVANCED_FACE ( 'NONE', ( #89 ), #240, .F. ) ;
#242 = DIRECTION ( 'NONE',  ( 0.000000000000000000, 1.000000000000000000, 0.000000000000000000 ) ) ;
#243 = APPROVAL_PERSON_ORGANIZATION ( #236, #44, #69 ) ;
#244 = CYLINDRICAL_SURFACE ( 'NONE', #249, 5.500000000000000000 ) ;
#245 = DIRECTION ( 'NONE',  ( 0.000000000000000000, 1.000000000000000000, 0.000000000000000000 ) ) ;
#246 = ORIENTED_EDGE ( 'NONE', *, *, #134, .T. ) ;
#247 = CARTESIAN_POINT ( 'NONE',  ( 6.735557395310442023E-16, 65.00000000000000000, 5.500000000000000000 ) ) ;
#248 = EDGE_CURVE ( 'NONE', #26, #175, #146, .T. ) ;
#249 = AXIS2_PLACEMENT_3D ( 'NONE', #169, #20, #94 ) ;
ENDSEC;
END-ISO-10303-21;
