ISO-10303-21;
HEADER;
FILE_DESCRIPTION (( 'STEP AP203' ),
    '1' );
FILE_NAME ('3D_R152_DN25_17305180.STEP',
    '2024-08-13T07:33:21',
    ( '' ),
    ( '' ),
    'SwSTEP 2.0',
    'SolidWorks 2024',
    '' );
FILE_SCHEMA (( 'CONFIG_CONTROL_DESIGN' ));
ENDSEC;

DATA;
#1 =( NAMED_UNIT ( * ) PLANE_ANGLE_UNIT ( ) SI_UNIT ( $, .RADIAN. ) );
#2 = DIRECTION ( 'NONE',  ( 0.000000000000000000, 1.000000000000000000, 0.000000000000000000 ) ) ;
#3 = APPROVAL_PERSON_ORGANIZATION ( #213, #214, #141 ) ;
#4 = CLOSED_SHELL ( 'NONE', ( #182, #69, #22, #122, #161, #74 ) ) ;
#5 = COORDINATED_UNIVERSAL_TIME_OFFSET ( 1, 0, .AHEAD. ) ;
#6 = ORIENTED_EDGE ( 'NONE', *, *, #185, .F. ) ;
#7 = SHAPE_DEFINITION_REPRESENTATION ( #52, #146 ) ;
#8 = CALENDAR_DATE ( 2024, 13, 8 ) ;
#9 = VERTEX_POINT ( 'NONE', #226 ) ;
#10 = PERSON_AND_ORGANIZATION ( #237, #16 ) ;
#11 = CARTESIAN_POINT ( 'NONE',  ( 0.000000000000000000, 0.000000000000000000, -54.50000000000000000 ) ) ;
#12 = CC_DESIGN_DATE_AND_TIME_ASSIGNMENT ( #200, #64, ( #48 ) ) ;
#13 = FACE_OUTER_BOUND ( 'NONE', #246, .T. ) ;
#14 = DIRECTION ( 'NONE',  ( 0.000000000000000000, 1.000000000000000000, 0.000000000000000000 ) ) ;
#15 = ORIENTED_EDGE ( 'NONE', *, *, #220, .F. ) ;
#16 = ORGANIZATION ( 'UNSPECIFIED', 'UNSPECIFIED', '' ) ;
#17 = ORIENTED_EDGE ( 'NONE', *, *, #30, .F. ) ;
#18 = PRODUCT ( '3D_R152_DN25_17305180', '3D_R152_DN25_17305180', '', ( #84 ) ) ;
#19 = AXIS2_PLACEMENT_3D ( 'NONE', #100, #121, #197 ) ;
#20 = FACE_OUTER_BOUND ( 'NONE', #184, .T. ) ;
#21 = DIRECTION ( 'NONE',  ( 0.000000000000000000, 1.000000000000000000, 0.000000000000000000 ) ) ;
#22 = ADVANCED_FACE ( 'NONE', ( #13, #171 ), #148, .T. ) ;
#23 = CARTESIAN_POINT ( 'NONE',  ( 3.551475717527324030E-15, 0.000000000000000000, 29.00000000000000000 ) ) ;
#24 = DIRECTION ( 'NONE',  ( 0.000000000000000000, 0.000000000000000000, -1.000000000000000000 ) ) ;
#25 = AXIS2_PLACEMENT_3D ( 'NONE', #178, #21, #99 ) ;
#26 = APPROVAL_STATUS ( 'not_yet_approved' ) ;
#27 = AXIS2_PLACEMENT_3D ( 'NONE', #113, #50, #56 ) ;
#28 = APPLICATION_CONTEXT ( 'configuration controlled 3d designs of mechanical parts and assemblies' ) ;
#29 = PERSON_AND_ORGANIZATION_ROLE ( 'design_supplier' ) ;
#30 = EDGE_CURVE ( 'NONE', #9, #169, #132, .T. ) ;
#31 = AXIS2_PLACEMENT_3D ( 'NONE', #229, #212, #43 ) ;
#32 = CALENDAR_DATE ( 2024, 13, 8 ) ;
#33 = CC_DESIGN_DATE_AND_TIME_ASSIGNMENT ( #162, #159, ( #137 ) ) ;
#34 = ORIENTED_EDGE ( 'NONE', *, *, #54, .T. ) ;
#35 = CARTESIAN_POINT ( 'NONE',  ( 0.000000000000000000, 0.000000000000000000, 0.000000000000000000 ) ) ;
#36 = CARTESIAN_POINT ( 'NONE',  ( 0.000000000000000000, 6.000000000000000000, -54.50000000000000000 ) ) ;
#37 = DIRECTION ( 'NONE',  ( -0.000000000000000000, -1.000000000000000000, -0.000000000000000000 ) ) ;
#38 = CC_DESIGN_APPROVAL ( #214, ( #48 ) ) ;
#39 = DIRECTION ( 'NONE',  ( 0.000000000000000000, 1.000000000000000000, 0.000000000000000000 ) ) ;
#40 = AXIS2_PLACEMENT_3D ( 'NONE', #94, #75, #149 ) ;
#41 = DIRECTION ( 'NONE',  ( -0.000000000000000000, -1.000000000000000000, -0.000000000000000000 ) ) ;
#42 = CARTESIAN_POINT ( 'NONE',  ( 0.000000000000000000, 6.000000000000000000, 0.000000000000000000 ) ) ;
#43 = DIRECTION ( 'NONE',  ( 1.000000000000000000, 0.000000000000000000, 0.000000000000000000 ) ) ;
#44 = CALENDAR_DATE ( 2024, 13, 8 ) ;
#45 = PERSON_AND_ORGANIZATION_ROLE ( 'classification_officer' ) ;
#46 = PRODUCT_RELATED_PRODUCT_CATEGORY ( 'detail', '', ( #18 ) ) ;
#47 = PERSON_AND_ORGANIZATION ( #237, #16 ) ;
#48 = SECURITY_CLASSIFICATION ( '', '', #238 ) ;
#49 = CIRCLE ( 'NONE', #218, 29.00000000000000000 ) ;
#50 = DIRECTION ( 'NONE',  ( 0.000000000000000000, 1.000000000000000000, 0.000000000000000000 ) ) ;
#51 = ORIENTED_EDGE ( 'NONE', *, *, #134, .F. ) ;
#52 = PRODUCT_DEFINITION_SHAPE ( 'NONE', 'NONE',  #137 ) ;
#53 = FACE_OUTER_BOUND ( 'NONE', #236, .T. ) ;
#54 = EDGE_CURVE ( 'NONE', #92, #95, #143, .T. ) ;
#55 = VERTEX_POINT ( 'NONE', #11 ) ;
#56 = DIRECTION ( 'NONE',  ( 0.000000000000000000, -0.000000000000000000, 1.000000000000000000 ) ) ;
#57 = CC_DESIGN_PERSON_AND_ORGANIZATION_ASSIGNMENT ( #240, #29, ( #131 ) ) ;
#58 = AXIS2_PLACEMENT_3D ( 'NONE', #187, #14, #76 ) ;
#59 = CYLINDRICAL_SURFACE ( 'NONE', #168, 29.00000000000000000 ) ;
#60 = VECTOR ( 'NONE', #195, 1000.000000000000000 ) ;
#61 = LINE ( 'NONE', #210, #83 ) ;
#62 = CARTESIAN_POINT ( 'NONE',  ( 0.000000000000000000, 6.000000000000000000, -29.00000000000000000 ) ) ;
#63 = LINE ( 'NONE', #62, #60 ) ;
#64 = DATE_TIME_ROLE ( 'classification_date' ) ;
#65 = ORIENTED_EDGE ( 'NONE', *, *, #185, .T. ) ;
#66 = EDGE_CURVE ( 'NONE', #126, #169, #166, .T. ) ;
#67 = DESIGN_CONTEXT ( 'detailed design', #151, 'design' ) ;
#68 = COORDINATED_UNIVERSAL_TIME_OFFSET ( 1, 0, .AHEAD. ) ;
#69 = ADVANCED_FACE ( 'NONE', ( #53 ), #205, .T. ) ;
#70 = APPROVAL_STATUS ( 'not_yet_approved' ) ;
#71 = CIRCLE ( 'NONE', #231, 29.00000000000000000 ) ;
#72 = EDGE_LOOP ( 'NONE', ( #130, #152 ) ) ;
#73 = ORIENTED_EDGE ( 'NONE', *, *, #194, .T. ) ;
#74 = ADVANCED_FACE ( 'NONE', ( #147 ), #115, .F. ) ;
#75 = DIRECTION ( 'NONE',  ( -0.000000000000000000, -1.000000000000000000, -0.000000000000000000 ) ) ;
#76 = DIRECTION ( 'NONE',  ( 0.000000000000000000, 0.000000000000000000, 1.000000000000000000 ) ) ;
#77 = DIRECTION ( 'NONE',  ( 0.000000000000000000, 0.000000000000000000, 1.000000000000000000 ) ) ;
#78 = FACE_OUTER_BOUND ( 'NONE', #150, .T. ) ;
#79 = DIRECTION ( 'NONE',  ( 0.000000000000000000, 1.000000000000000000, 0.000000000000000000 ) ) ;
#80 =( NAMED_UNIT ( * ) SI_UNIT ( $, .STERADIAN. ) SOLID_ANGLE_UNIT ( ) );
#81 =( GEOMETRIC_REPRESENTATION_CONTEXT ( 3 ) GLOBAL_UNCERTAINTY_ASSIGNED_CONTEXT ( ( #239 ) ) GLOBAL_UNIT_ASSIGNED_CONTEXT ( ( #120, #1, #80 ) ) REPRESENTATION_CONTEXT ( 'NONE', 'WORKASPACE' ) );
#82 = PLANE ( 'NONE',  #233 ) ;
#83 = VECTOR ( 'NONE', #41, 1000.000000000000000 ) ;
#84 = MECHANICAL_CONTEXT ( 'NONE', #28, 'mechanical' ) ;
#85 = DATE_AND_TIME ( #44, #116 ) ;
#86 = APPROVAL_DATE_TIME ( #108, #97 ) ;
#87 = APPROVAL_DATE_TIME ( #164, #144 ) ;
#88 = CALENDAR_DATE ( 2024, 13, 8 ) ;
#89 = EDGE_LOOP ( 'NONE', ( #219, #98 ) ) ;
#90 = ORIENTED_EDGE ( 'NONE', *, *, #194, .F. ) ;
#91 = CIRCLE ( 'NONE', #242, 54.50000000000000000 ) ;
#92 = VERTEX_POINT ( 'NONE', #222 ) ;
#93 = EDGE_CURVE ( 'NONE', #126, #244, #49, .T. ) ;
#94 = CARTESIAN_POINT ( 'NONE',  ( 0.000000000000000000, 6.000000000000000000, 0.000000000000000000 ) ) ;
#95 = VERTEX_POINT ( 'NONE', #36 ) ;
#96 = LOCAL_TIME ( 9, 33, 21.00000000000000000, #163 ) ;
#97 = APPROVAL ( #125, 'UNSPECIFIED' ) ;
#98 = ORIENTED_EDGE ( 'NONE', *, *, #93, .F. ) ;
#99 = DIRECTION ( 'NONE',  ( 0.000000000000000000, 0.000000000000000000, 1.000000000000000000 ) ) ;
#100 = CARTESIAN_POINT ( 'NONE',  ( 0.000000000000000000, 6.000000000000000000, 0.000000000000000000 ) ) ;
#101 = CARTESIAN_POINT ( 'NONE',  ( 0.000000000000000000, 6.000000000000000000, 0.000000000000000000 ) ) ;
#102 = DIRECTION ( 'NONE',  ( 0.000000000000000000, 0.000000000000000000, 1.000000000000000000 ) ) ;
#103 = CC_DESIGN_APPROVAL ( #97, ( #137 ) ) ;
#104 = COORDINATED_UNIVERSAL_TIME_OFFSET ( 1, 0, .AHEAD. ) ;
#105 = CC_DESIGN_PERSON_AND_ORGANIZATION_ASSIGNMENT ( #180, #215, ( #131 ) ) ;
#106 = VECTOR ( 'NONE', #155, 1000.000000000000000 ) ;
#107 = PERSON_AND_ORGANIZATION ( #237, #16 ) ;
#108 = DATE_AND_TIME ( #88, #208 ) ;
#109 = AXIS2_PLACEMENT_3D ( 'NONE', #154, #2, #133 ) ;
#110 = PERSON_AND_ORGANIZATION ( #237, #16 ) ;
#111 = ORIENTED_EDGE ( 'NONE', *, *, #175, .F. ) ;
#112 = ORIENTED_EDGE ( 'NONE', *, *, #234, .T. ) ;
#113 = CARTESIAN_POINT ( 'NONE',  ( 0.000000000000000000, 6.000000000000000000, 0.000000000000000000 ) ) ;
#114 = EDGE_LOOP ( 'NONE', ( #207, #192, #65, #193 ) ) ;
#115 = CYLINDRICAL_SURFACE ( 'NONE', #40, 29.00000000000000000 ) ;
#116 = LOCAL_TIME ( 9, 33, 21.00000000000000000, #104 ) ;
#117 = CARTESIAN_POINT ( 'NONE',  ( 6.674325055353075041E-15, 6.000000000000000000, 54.50000000000000000 ) ) ;
#118 = AXIS2_PLACEMENT_3D ( 'NONE', #177, #227, #102 ) ;
#119 = CARTESIAN_POINT ( 'NONE',  ( 0.000000000000000000, 6.000000000000000000, 0.000000000000000000 ) ) ;
#120 =( LENGTH_UNIT ( ) NAMED_UNIT ( * ) SI_UNIT ( .MILLI., .METRE. ) );
#121 = DIRECTION ( 'NONE',  ( -0.000000000000000000, -1.000000000000000000, -0.000000000000000000 ) ) ;
#122 = ADVANCED_FACE ( 'NONE', ( #20, #158 ), #82, .F. ) ;
#123 = APPROVAL_ROLE ( '' ) ;
#124 = EDGE_LOOP ( 'NONE', ( #51, #170, #245, #73 ) ) ;
#125 = APPROVAL_STATUS ( 'not_yet_approved' ) ;
#126 = VERTEX_POINT ( 'NONE', #153 ) ;
#127 = DIRECTION ( 'NONE',  ( 0.000000000000000000, 0.000000000000000000, 1.000000000000000000 ) ) ;
#128 = CARTESIAN_POINT ( 'NONE',  ( 0.000000000000000000, 6.000000000000000000, 0.000000000000000000 ) ) ;
#129 = DIRECTION ( 'NONE',  ( -0.000000000000000000, -1.000000000000000000, -0.000000000000000000 ) ) ;
#130 = ORIENTED_EDGE ( 'NONE', *, *, #30, .T. ) ;
#131 = PRODUCT_DEFINITION_FORMATION_WITH_SPECIFIED_SOURCE ( 'ANY', '', #18, .NOT_KNOWN. ) ;
#132 = CIRCLE ( 'NONE', #167, 29.00000000000000000 ) ;
#133 = DIRECTION ( 'NONE',  ( 0.000000000000000000, 0.000000000000000000, 1.000000000000000000 ) ) ;
#134 = EDGE_CURVE ( 'NONE', #92, #203, #138, .T. ) ;
#135 = DIRECTION ( 'NONE',  ( 0.000000000000000000, 0.000000000000000000, 1.000000000000000000 ) ) ;
#136 = DIRECTION ( 'NONE',  ( 0.000000000000000000, 1.000000000000000000, 0.000000000000000000 ) ) ;
#137 = PRODUCT_DEFINITION ( 'UNKNOWN', '', #131, #67 ) ;
#138 = LINE ( 'NONE', #117, #106 ) ;
#139 = PERSON_AND_ORGANIZATION_ROLE ( 'design_owner' ) ;
#140 = CC_DESIGN_PERSON_AND_ORGANIZATION_ASSIGNMENT ( #241, #45, ( #48 ) ) ;
#141 = APPROVAL_ROLE ( '' ) ;
#142 = APPROVAL_PERSON_ORGANIZATION ( #10, #144, #123 ) ;
#143 = CIRCLE ( 'NONE', #58, 54.50000000000000000 ) ;
#144 = APPROVAL ( #26, 'UNSPECIFIED' ) ;
#145 = CIRCLE ( 'NONE', #118, 54.50000000000000000 ) ;
#146 = ADVANCED_BREP_SHAPE_REPRESENTATION ( '3D_R152_DN25_17305180', ( #223, #31 ), #81 ) ;
#147 = FACE_OUTER_BOUND ( 'NONE', #114, .T. ) ;
#148 = PLANE ( 'NONE',  #27 ) ;
#149 = DIRECTION ( 'NONE',  ( 0.000000000000000000, 0.000000000000000000, -1.000000000000000000 ) ) ;
#150 = EDGE_LOOP ( 'NONE', ( #112, #173, #17, #6 ) ) ;
#151 = APPLICATION_CONTEXT ( 'configuration controlled 3d designs of mechanical parts and assemblies' ) ;
#152 = ORIENTED_EDGE ( 'NONE', *, *, #206, .T. ) ;
#153 = CARTESIAN_POINT ( 'NONE',  ( 3.551475717527324030E-15, 6.000000000000000000, 29.00000000000000000 ) ) ;
#154 = CARTESIAN_POINT ( 'NONE',  ( 0.000000000000000000, 0.000000000000000000, 0.000000000000000000 ) ) ;
#155 = DIRECTION ( 'NONE',  ( -0.000000000000000000, -1.000000000000000000, -0.000000000000000000 ) ) ;
#156 = CC_DESIGN_APPROVAL ( #144, ( #131 ) ) ;
#157 = AXIS2_PLACEMENT_3D ( 'NONE', #247, #37, #189 ) ;
#158 = FACE_BOUND ( 'NONE', #72, .T. ) ;
#159 = DATE_TIME_ROLE ( 'creation_date' ) ;
#160 = APPLICATION_PROTOCOL_DEFINITION ( 'international standard', 'config_control_design', 1994, #151 ) ;
#161 = ADVANCED_FACE ( 'NONE', ( #196 ), #248, .T. ) ;
#162 = DATE_AND_TIME ( #8, #201 ) ;
#163 = COORDINATED_UNIVERSAL_TIME_OFFSET ( 1, 0, .AHEAD. ) ;
#164 = DATE_AND_TIME ( #32, #96 ) ;
#165 = CC_DESIGN_PERSON_AND_ORGANIZATION_ASSIGNMENT ( #47, #198, ( #137 ) ) ;
#166 = LINE ( 'NONE', #243, #199 ) ;
#167 = AXIS2_PLACEMENT_3D ( 'NONE', #35, #202, #127 ) ;
#168 = AXIS2_PLACEMENT_3D ( 'NONE', #42, #249, #24 ) ;
#169 = VERTEX_POINT ( 'NONE', #23 ) ;
#170 = ORIENTED_EDGE ( 'NONE', *, *, #225, .F. ) ;
#171 = FACE_BOUND ( 'NONE', #89, .T. ) ;
#172 = APPROVAL_PERSON_ORGANIZATION ( #110, #97, #183 ) ;
#173 = ORIENTED_EDGE ( 'NONE', *, *, #66, .T. ) ;
#174 = CARTESIAN_POINT ( 'NONE',  ( 6.674325055353075041E-15, 0.000000000000000000, 54.50000000000000000 ) ) ;
#175 = EDGE_CURVE ( 'NONE', #203, #55, #145, .T. ) ;
#176 = CARTESIAN_POINT ( 'NONE',  ( 0.000000000000000000, 0.000000000000000000, 0.000000000000000000 ) ) ;
#177 = CARTESIAN_POINT ( 'NONE',  ( 0.000000000000000000, 0.000000000000000000, 0.000000000000000000 ) ) ;
#178 = CARTESIAN_POINT ( 'NONE',  ( 0.000000000000000000, 0.000000000000000000, 0.000000000000000000 ) ) ;
#179 = CC_DESIGN_SECURITY_CLASSIFICATION ( #48, ( #131 ) ) ;
#180 = PERSON_AND_ORGANIZATION ( #237, #16 ) ;
#181 = ORIENTED_EDGE ( 'NONE', *, *, #225, .T. ) ;
#182 = ADVANCED_FACE ( 'NONE', ( #78 ), #59, .F. ) ;
#183 = APPROVAL_ROLE ( '' ) ;
#184 = EDGE_LOOP ( 'NONE', ( #90, #111 ) ) ;
#185 = EDGE_CURVE ( 'NONE', #244, #9, #63, .T. ) ;
#186 = COORDINATED_UNIVERSAL_TIME_OFFSET ( 1, 0, .AHEAD. ) ;
#187 = CARTESIAN_POINT ( 'NONE',  ( 0.000000000000000000, 6.000000000000000000, 0.000000000000000000 ) ) ;
#188 = CIRCLE ( 'NONE', #109, 29.00000000000000000 ) ;
#189 = DIRECTION ( 'NONE',  ( 0.000000000000000000, 0.000000000000000000, -1.000000000000000000 ) ) ;
#190 = ORIENTED_EDGE ( 'NONE', *, *, #54, .F. ) ;
#191 = CC_DESIGN_PERSON_AND_ORGANIZATION_ASSIGNMENT ( #107, #139, ( #18 ) ) ;
#192 = ORIENTED_EDGE ( 'NONE', *, *, #93, .T. ) ;
#193 = ORIENTED_EDGE ( 'NONE', *, *, #206, .F. ) ;
#194 = EDGE_CURVE ( 'NONE', #55, #203, #209, .T. ) ;
#195 = DIRECTION ( 'NONE',  ( -0.000000000000000000, -1.000000000000000000, -0.000000000000000000 ) ) ;
#196 = FACE_OUTER_BOUND ( 'NONE', #124, .T. ) ;
#197 = DIRECTION ( 'NONE',  ( 0.000000000000000000, 0.000000000000000000, -1.000000000000000000 ) ) ;
#198 = PERSON_AND_ORGANIZATION_ROLE ( 'creator' ) ;
#199 = VECTOR ( 'NONE', #129, 1000.000000000000000 ) ;
#200 = DATE_AND_TIME ( #235, #217 ) ;
#201 = LOCAL_TIME ( 9, 33, 21.00000000000000000, #5 ) ;
#202 = DIRECTION ( 'NONE',  ( 0.000000000000000000, 1.000000000000000000, 0.000000000000000000 ) ) ;
#203 = VERTEX_POINT ( 'NONE', #174 ) ;
#204 = DIRECTION ( 'NONE',  ( 0.000000000000000000, 1.000000000000000000, 0.000000000000000000 ) ) ;
#205 = CYLINDRICAL_SURFACE ( 'NONE', #157, 54.50000000000000000 ) ;
#206 = EDGE_CURVE ( 'NONE', #169, #9, #188, .T. ) ;
#207 = ORIENTED_EDGE ( 'NONE', *, *, #66, .F. ) ;
#208 = LOCAL_TIME ( 9, 33, 21.00000000000000000, #186 ) ;
#209 = CIRCLE ( 'NONE', #25, 54.50000000000000000 ) ;
#210 = CARTESIAN_POINT ( 'NONE',  ( 0.000000000000000000, 6.000000000000000000, -54.50000000000000000 ) ) ;
#211 = CARTESIAN_POINT ( 'NONE',  ( 0.000000000000000000, 6.000000000000000000, -29.00000000000000000 ) ) ;
#212 = DIRECTION ( 'NONE',  ( 0.000000000000000000, 0.000000000000000000, 1.000000000000000000 ) ) ;
#213 = PERSON_AND_ORGANIZATION ( #237, #16 ) ;
#214 = APPROVAL ( #70, 'UNSPECIFIED' ) ;
#215 = PERSON_AND_ORGANIZATION_ROLE ( 'creator' ) ;
#216 = APPROVAL_DATE_TIME ( #85, #214 ) ;
#217 = LOCAL_TIME ( 9, 33, 21.00000000000000000, #68 ) ;
#218 = AXIS2_PLACEMENT_3D ( 'NONE', #128, #204, #77 ) ;
#219 = ORIENTED_EDGE ( 'NONE', *, *, #234, .F. ) ;
#220 = EDGE_CURVE ( 'NONE', #95, #55, #61, .T. ) ;
#221 = ORIENTED_EDGE ( 'NONE', *, *, #134, .T. ) ;
#222 = CARTESIAN_POINT ( 'NONE',  ( 6.674325055353075041E-15, 6.000000000000000000, 54.50000000000000000 ) ) ;
#223 = MANIFOLD_SOLID_BREP ( 'Aufsatz-Linear austragen1', #4 ) ;
#224 = ORIENTED_EDGE ( 'NONE', *, *, #175, .T. ) ;
#225 = EDGE_CURVE ( 'NONE', #95, #92, #91, .T. ) ;
#226 = CARTESIAN_POINT ( 'NONE',  ( 0.000000000000000000, 0.000000000000000000, -29.00000000000000000 ) ) ;
#227 = DIRECTION ( 'NONE',  ( 0.000000000000000000, 1.000000000000000000, 0.000000000000000000 ) ) ;
#228 = DIRECTION ( 'NONE',  ( 0.000000000000000000, 0.000000000000000000, 1.000000000000000000 ) ) ;
#229 = CARTESIAN_POINT ( 'NONE',  ( 0.000000000000000000, 0.000000000000000000, 0.000000000000000000 ) ) ;
#230 = APPLICATION_PROTOCOL_DEFINITION ( 'international standard', 'config_control_design', 1994, #28 ) ;
#231 = AXIS2_PLACEMENT_3D ( 'NONE', #101, #136, #228 ) ;
#232 = DIRECTION ( 'NONE',  ( 0.000000000000000000, -0.000000000000000000, 1.000000000000000000 ) ) ;
#233 = AXIS2_PLACEMENT_3D ( 'NONE', #176, #39, #232 ) ;
#234 = EDGE_CURVE ( 'NONE', #244, #126, #71, .T. ) ;
#235 = CALENDAR_DATE ( 2024, 13, 8 ) ;
#236 = EDGE_LOOP ( 'NONE', ( #190, #221, #224, #15 ) ) ;
#237 = PERSON ( 'UNSPECIFIED', 'UNSPECIFIED', 'UNSPECIFIED', ('UNSPECIFIED'), ('UNSPECIFIED'), ('UNSPECIFIED') ) ;
#238 = SECURITY_CLASSIFICATION_LEVEL ( 'unclassified' ) ;
#239 = UNCERTAINTY_MEASURE_WITH_UNIT (LENGTH_MEASURE( 1.000000000000000082E-05 ), #120, 'distance_accuracy_value', 'NONE');
#240 = PERSON_AND_ORGANIZATION ( #237, #16 ) ;
#241 = PERSON_AND_ORGANIZATION ( #237, #16 ) ;
#242 = AXIS2_PLACEMENT_3D ( 'NONE', #119, #79, #135 ) ;
#243 = CARTESIAN_POINT ( 'NONE',  ( 3.551475717527324030E-15, 6.000000000000000000, 29.00000000000000000 ) ) ;
#244 = VERTEX_POINT ( 'NONE', #211 ) ;
#245 = ORIENTED_EDGE ( 'NONE', *, *, #220, .T. ) ;
#246 = EDGE_LOOP ( 'NONE', ( #181, #34 ) ) ;
#247 = CARTESIAN_POINT ( 'NONE',  ( 0.000000000000000000, 6.000000000000000000, 0.000000000000000000 ) ) ;
#248 = CYLINDRICAL_SURFACE ( 'NONE', #19, 54.50000000000000000 ) ;
#249 = DIRECTION ( 'NONE',  ( -0.000000000000000000, -1.000000000000000000, -0.000000000000000000 ) ) ;
ENDSEC;
END-ISO-10303-21;
