ISO-10303-21;
HEADER;
FILE_DESCRIPTION (( 'STEP AP203' ),
    '1' );
FILE_NAME ('3D_R1651_12x1_17352105.STEP',
    '2024-08-05T06:42:54',
    ( '' ),
    ( '' ),
    'SwSTEP 2.0',
    'SolidWorks 2024',
    '' );
FILE_SCHEMA (( 'CONFIG_CONTROL_DESIGN' ));
ENDSEC;

DATA;
#1 = EDGE_LOOP ( 'NONE', ( #240, #104, #28, #174 ) ) ;
#2 = DIRECTION ( 'NONE',  ( 0.000000000000000000, 1.000000000000000000, 0.000000000000000000 ) ) ;
#3 = LOCAL_TIME ( 8, 42, 54.00000000000000000, #195 ) ;
#4 = DIRECTION ( 'NONE',  ( 1.000000000000000000, 0.000000000000000000, 0.000000000000000000 ) ) ;
#5 = DATE_TIME_ROLE ( 'creation_date' ) ;
#6 = ORIENTED_EDGE ( 'NONE', *, *, #159, .T. ) ;
#7 = ORIENTED_EDGE ( 'NONE', *, *, #11, .F. ) ;
#8 = DIRECTION ( 'NONE',  ( 0.000000000000000000, 0.000000000000000000, 1.000000000000000000 ) ) ;
#9 = PRODUCT_DEFINITION ( 'UNKNOWN', '', #72, #85 ) ;
#10 = CIRCLE ( 'NONE', #190, 6.000000000000000000 ) ;
#11 = EDGE_CURVE ( 'NONE', #191, #218, #119, .T. ) ;
#12 = DIRECTION ( 'NONE',  ( 0.000000000000000000, 0.000000000000000000, 1.000000000000000000 ) ) ;
#13 = CC_DESIGN_SECURITY_CLASSIFICATION ( #86, ( #72 ) ) ;
#14 = APPROVAL_ROLE ( '' ) ;
#15 = CC_DESIGN_DATE_AND_TIME_ASSIGNMENT ( #206, #94, ( #86 ) ) ;
#16 =( LENGTH_UNIT ( ) NAMED_UNIT ( * ) SI_UNIT ( .MILLI., .METRE. ) );
#17 = PLANE ( 'NONE',  #163 ) ;
#18 = DATE_AND_TIME ( #138, #24 ) ;
#19 = CLOSED_SHELL ( 'NONE', ( #179, #202, #199, #113, #60, #33 ) ) ;
#20 = CIRCLE ( 'NONE', #97, 6.000000000000000000 ) ;
#21 = EDGE_LOOP ( 'NONE', ( #125, #96, #6, #160 ) ) ;
#22 = APPROVAL_ROLE ( '' ) ;
#23 = DIRECTION ( 'NONE',  ( 0.000000000000000000, 0.000000000000000000, 1.000000000000000000 ) ) ;
#24 = LOCAL_TIME ( 8, 42, 54.00000000000000000, #40 ) ;
#25 = CALENDAR_DATE ( 2024, 5, 8 ) ;
#26 = ORIENTED_EDGE ( 'NONE', *, *, #244, .F. ) ;
#27 = PERSON ( 'UNSPECIFIED', 'UNSPECIFIED', 'UNSPECIFIED', ('UNSPECIFIED'), ('UNSPECIFIED'), ('UNSPECIFIED') ) ;
#28 = ORIENTED_EDGE ( 'NONE', *, *, #103, .T. ) ;
#29 = ORIENTED_EDGE ( 'NONE', *, *, #130, .T. ) ;
#30 = UNCERTAINTY_MEASURE_WITH_UNIT (LENGTH_MEASURE( 1.000000000000000082E-05 ), #16, 'distance_accuracy_value', 'NONE');
#31 = CIRCLE ( 'NONE', #118, 6.000000000000000000 ) ;
#32 = DIRECTION ( 'NONE',  ( 1.000000000000000000, 0.000000000000000000, 2.259334488757227103E-16 ) ) ;
#33 = ADVANCED_FACE ( 'NONE', ( #145 ), #203, .F. ) ;
#34 = CARTESIAN_POINT ( 'NONE',  ( 0.000000000000000000, 0.000000000000000000, 0.000000000000000000 ) ) ;
#35 = LOCAL_TIME ( 8, 42, 54.00000000000000000, #187 ) ;
#36 = DIRECTION ( 'NONE',  ( -2.259334488757228089E-16, 0.000000000000000000, 1.000000000000000000 ) ) ;
#37 = SHAPE_DEFINITION_REPRESENTATION ( #177, #228 ) ;
#38 = DIRECTION ( 'NONE',  ( 2.943923360032081895E-15, 0.000000000000000000, 1.000000000000000000 ) ) ;
#39 = CARTESIAN_POINT ( 'NONE',  ( -26.00000000000000355, 0.000000000000000000, -5.029541090696400765E-15 ) ) ;
#40 = COORDINATED_UNIVERSAL_TIME_OFFSET ( 1, 0, .AHEAD. ) ;
#41 = EDGE_CURVE ( 'NONE', #197, #143, #20, .T. ) ;
#42 = EDGE_LOOP ( 'NONE', ( #29, #47 ) ) ;
#43 = APPLICATION_PROTOCOL_DEFINITION ( 'international standard', 'config_control_design', 1994, #115 ) ;
#44 = DIRECTION ( 'NONE',  ( 1.000000000000000000, 0.000000000000000000, 2.259334488757228089E-16 ) ) ;
#45 = APPROVAL_DATE_TIME ( #99, #73 ) ;
#46 = CC_DESIGN_PERSON_AND_ORGANIZATION_ASSIGNMENT ( #216, #213, ( #77 ) ) ;
#47 = ORIENTED_EDGE ( 'NONE', *, *, #249, .T. ) ;
#48 = VERTEX_POINT ( 'NONE', #39 ) ;
#49 = CARTESIAN_POINT ( 'NONE',  ( -20.00000000000000000, 0.000000000000000000, -4.518668977514456179E-15 ) ) ;
#50 = APPLICATION_CONTEXT ( 'configuration controlled 3d designs of mechanical parts and assemblies' ) ;
#51 = AXIS2_PLACEMENT_3D ( 'NONE', #168, #87, #66 ) ;
#52 = FACE_OUTER_BOUND ( 'NONE', #21, .T. ) ;
#53 = ORGANIZATION ( 'UNSPECIFIED', 'UNSPECIFIED', '' ) ;
#54 = AXIS2_PLACEMENT_3D ( 'NONE', #68, #2, #23 ) ;
#55 = DIRECTION ( 'NONE',  ( 0.000000000000000000, 1.000000000000000000, 0.000000000000000000 ) ) ;
#56 = DIRECTION ( 'NONE',  ( 1.000000000000000000, 0.000000000000000000, 2.259334488757228089E-16 ) ) ;
#57 = FACE_BOUND ( 'NONE', #217, .T. ) ;
#58 = DIRECTION ( 'NONE',  ( 0.000000000000000000, 1.000000000000000000, 0.000000000000000000 ) ) ;
#59 = PERSON_AND_ORGANIZATION ( #27, #53 ) ;
#60 = ADVANCED_FACE ( 'NONE', ( #57, #226 ), #17, .F. ) ;
#61 = ORIENTED_EDGE ( 'NONE', *, *, #136, .T. ) ;
#62 = PLANE ( 'NONE',  #122 ) ;
#63 = CC_DESIGN_PERSON_AND_ORGANIZATION_ASSIGNMENT ( #59, #171, ( #86 ) ) ;
#64 = ORIENTED_EDGE ( 'NONE', *, *, #244, .T. ) ;
#65 = CC_DESIGN_PERSON_AND_ORGANIZATION_ASSIGNMENT ( #157, #180, ( #9 ) ) ;
#66 = DIRECTION ( 'NONE',  ( 0.000000000000000000, 0.000000000000000000, 1.000000000000000000 ) ) ;
#67 = AXIS2_PLACEMENT_3D ( 'NONE', #34, #166, #12 ) ;
#68 = CARTESIAN_POINT ( 'NONE',  ( 0.000000000000000000, -7.347880794884119736E-16, 0.000000000000000000 ) ) ;
#69 = APPROVAL_ROLE ( '' ) ;
#70 = CARTESIAN_POINT ( 'NONE',  ( 0.000000000000000000, -6.123233995736766282E-16, 0.000000000000000000 ) ) ;
#71 = ORIENTED_EDGE ( 'NONE', *, *, #103, .F. ) ;
#72 = PRODUCT_DEFINITION_FORMATION_WITH_SPECIFIED_SOURCE ( 'ANY', '', #77, .NOT_KNOWN. ) ;
#73 = APPROVAL ( #121, 'UNSPECIFIED' ) ;
#74 = DIRECTION ( 'NONE',  ( 0.000000000000000000, 0.000000000000000000, 1.000000000000000000 ) ) ;
#75 = PERSON_AND_ORGANIZATION ( #27, #53 ) ;
#76 = COORDINATED_UNIVERSAL_TIME_OFFSET ( 1, 0, .AHEAD. ) ;
#77 = PRODUCT ( '3D_R1651_12x1_17352105', '3D_R1651_12x1_17352105', '', ( #124 ) ) ;
#78 = VERTEX_POINT ( 'NONE', #188 ) ;
#79 = EDGE_CURVE ( 'NONE', #143, #197, #10, .T. ) ;
#80 = ORIENTED_EDGE ( 'NONE', *, *, #79, .T. ) ;
#81 = AXIS2_PLACEMENT_3D ( 'NONE', #93, #153, #248 ) ;
#82 = DIRECTION ( 'NONE',  ( -1.000000000000000000, 0.000000000000000000, 2.943923360032083078E-15 ) ) ;
#83 = CIRCLE ( 'NONE', #224, 25.00000000000000000 ) ;
#84 = CC_DESIGN_DATE_AND_TIME_ASSIGNMENT ( #101, #5, ( #9 ) ) ;
#85 = DESIGN_CONTEXT ( 'detailed design', #115, 'design' ) ;
#86 = SECURITY_CLASSIFICATION ( '', '', #227 ) ;
#87 = DIRECTION ( 'NONE',  ( 0.000000000000000000, 1.000000000000000000, 0.000000000000000000 ) ) ;
#88 = CIRCLE ( 'NONE', #141, 5.000000000000000888 ) ;
#89 = CARTESIAN_POINT ( 'NONE',  ( 0.000000000000000000, 0.000000000000000000, 0.000000000000000000 ) ) ;
#90 = CARTESIAN_POINT ( 'NONE',  ( -20.00000000000000000, 0.000000000000000000, -3.673940397442063911E-15 ) ) ;
#91 = CARTESIAN_POINT ( 'NONE',  ( -5.972319578071406330E-14, 0.000000000000000000, -20.00000000000000000 ) ) ;
#92 = APPROVAL_DATE_TIME ( #18, #150 ) ;
#93 = CARTESIAN_POINT ( 'NONE',  ( 0.000000000000000000, 0.000000000000000000, 0.000000000000000000 ) ) ;
#94 = DATE_TIME_ROLE ( 'classification_date' ) ;
#95 = CIRCLE ( 'NONE', #67, 26.00000000000000355 ) ;
#96 = ORIENTED_EDGE ( 'NONE', *, *, #107, .T. ) ;
#97 = AXIS2_PLACEMENT_3D ( 'NONE', #220, #82, #242 ) ;
#98 = CARTESIAN_POINT ( 'NONE',  ( 0.000000000000000000, 0.000000000000000000, 0.000000000000000000 ) ) ;
#99 = DATE_AND_TIME ( #192, #200 ) ;
#100 = LOCAL_TIME ( 8, 42, 54.00000000000000000, #210 ) ;
#101 = DATE_AND_TIME ( #25, #3 ) ;
#102 = VERTEX_POINT ( 'NONE', #250 ) ;
#103 = EDGE_CURVE ( 'NONE', #143, #78, #134, .T. ) ;
#104 = ORIENTED_EDGE ( 'NONE', *, *, #41, .T. ) ;
#105 = DIRECTION ( 'NONE',  ( -2.259334488757228089E-16, 0.000000000000000000, 1.000000000000000000 ) ) ;
#106 = AXIS2_PLACEMENT_3D ( 'NONE', #169, #209, #38 ) ;
#107 = EDGE_CURVE ( 'NONE', #140, #218, #83, .T. ) ;
#108 = CARTESIAN_POINT ( 'NONE',  ( -15.00000000000000000, 0.000000000000000000, -3.389001733135842134E-15 ) ) ;
#109 = CC_DESIGN_APPROVAL ( #73, ( #9 ) ) ;
#110 = DIRECTION ( 'NONE',  ( 1.000000000000000000, 0.000000000000000000, 2.259334488757228089E-16 ) ) ;
#111 =( NAMED_UNIT ( * ) PLANE_ANGLE_UNIT ( ) SI_UNIT ( $, .RADIAN. ) );
#112 = APPROVAL_STATUS ( 'not_yet_approved' ) ;
#113 = ADVANCED_FACE ( 'NONE', ( #156, #234 ), #62, .T. ) ;
#114 = CARTESIAN_POINT ( 'NONE',  ( -25.00000000000000000, 0.000000000000000000, -5.648336221893070223E-15 ) ) ;
#115 = APPLICATION_CONTEXT ( 'configuration controlled 3d designs of mechanical parts and assemblies' ) ;
#116 = DIRECTION ( 'NONE',  ( 2.943923360032083078E-15, 0.000000000000000000, 1.000000000000000000 ) ) ;
#117 = PERSON_AND_ORGANIZATION ( #27, #53 ) ;
#118 = AXIS2_PLACEMENT_3D ( 'NONE', #90, #36, #56 ) ;
#119 = CIRCLE ( 'NONE', #241, 5.000000000000000888 ) ;
#120 = ORIENTED_EDGE ( 'NONE', *, *, #79, .F. ) ;
#121 = APPROVAL_STATUS ( 'not_yet_approved' ) ;
#122 = AXIS2_PLACEMENT_3D ( 'NONE', #142, #215, #44 ) ;
#123 = CARTESIAN_POINT ( 'NONE',  ( -20.00000000000000000, 0.000000000000000000, -3.673940397442063911E-15 ) ) ;
#124 = MECHANICAL_CONTEXT ( 'NONE', #50, 'mechanical' ) ;
#125 = ORIENTED_EDGE ( 'NONE', *, *, #136, .F. ) ;
#126 = ORIENTED_EDGE ( 'NONE', *, *, #130, .F. ) ;
#127 = APPROVAL_PERSON_ORGANIZATION ( #251, #219, #69 ) ;
#128 = DIRECTION ( 'NONE',  ( 1.000000000000000000, 0.000000000000000000, 2.259334488757227103E-16 ) ) ;
#129 = CC_DESIGN_PERSON_AND_ORGANIZATION_ASSIGNMENT ( #154, #230, ( #72 ) ) ;
#130 = EDGE_CURVE ( 'NONE', #78, #48, #205, .T. ) ;
#131 = CIRCLE ( 'NONE', #106, 5.000000000000000888 ) ;
#132 = DIRECTION ( 'NONE',  ( -1.000000000000000000, 0.000000000000000000, 2.943923360032083078E-15 ) ) ;
#133 = AXIS2_PLACEMENT_3D ( 'NONE', #198, #183, #8 ) ;
#134 = CIRCLE ( 'NONE', #54, 14.00000000000000000 ) ;
#135 = DIRECTION ( 'NONE',  ( 0.000000000000000000, 0.000000000000000000, 1.000000000000000000 ) ) ;
#136 = EDGE_CURVE ( 'NONE', #140, #102, #88, .T. ) ;
#137 = DIRECTION ( 'NONE',  ( -1.000000000000000000, 0.000000000000000000, 2.943923360032083078E-15 ) ) ;
#138 = CALENDAR_DATE ( 2024, 5, 8 ) ;
#139 = PERSON_AND_ORGANIZATION_ROLE ( 'creator' ) ;
#140 = VERTEX_POINT ( 'NONE', #246 ) ;
#141 = AXIS2_PLACEMENT_3D ( 'NONE', #204, #132, #247 ) ;
#142 = CARTESIAN_POINT ( 'NONE',  ( -20.00000000000000000, 0.000000000000000000, -3.673940397442063911E-15 ) ) ;
#143 = VERTEX_POINT ( 'NONE', #165 ) ;
#144 = ORIENTED_EDGE ( 'NONE', *, *, #159, .F. ) ;
#145 = FACE_OUTER_BOUND ( 'NONE', #161, .T. ) ;
#146 = APPROVAL_PERSON_ORGANIZATION ( #172, #150, #14 ) ;
#147 = CARTESIAN_POINT ( 'NONE',  ( -7.738673594090654915E-14, 0.000000000000000000, -26.00000000000000355 ) ) ;
#148 = TOROIDAL_SURFACE ( 'NONE', #189, 20.00000000000000000, 6.000000000000000000 ) ;
#149 = DIRECTION ( 'NONE',  ( -2.259334488757228089E-16, 0.000000000000000000, 1.000000000000000000 ) ) ;
#150 = APPROVAL ( #252, 'UNSPECIFIED' ) ;
#151 = CARTESIAN_POINT ( 'NONE',  ( -5.972319578071406330E-14, 0.000000000000000000, -20.00000000000000000 ) ) ;
#152 = CALENDAR_DATE ( 2024, 5, 8 ) ;
#153 = DIRECTION ( 'NONE',  ( 0.000000000000000000, 1.000000000000000000, 0.000000000000000000 ) ) ;
#154 = PERSON_AND_ORGANIZATION ( #27, #53 ) ;
#155 = ORIENTED_EDGE ( 'NONE', *, *, #11, .T. ) ;
#156 = FACE_BOUND ( 'NONE', #196, .T. ) ;
#157 = PERSON_AND_ORGANIZATION ( #27, #53 ) ;
#158 = DIRECTION ( 'NONE',  ( 0.000000000000000000, 0.000000000000000000, 1.000000000000000000 ) ) ;
#159 = EDGE_CURVE ( 'NONE', #218, #191, #201, .T. ) ;
#160 = ORIENTED_EDGE ( 'NONE', *, *, #221, .F. ) ;
#161 = EDGE_LOOP ( 'NONE', ( #232, #26, #237, #155 ) ) ;
#162 = AXIS2_PLACEMENT_3D ( 'NONE', #185, #149, #32 ) ;
#163 = AXIS2_PLACEMENT_3D ( 'NONE', #151, #170, #116 ) ;
#164 = MANIFOLD_SOLID_BREP ( 'Wandung1', #19 ) ;
#165 = CARTESIAN_POINT ( 'NONE',  ( -4.205965562052156483E-14, 0.000000000000000000, -14.00000000000000000 ) ) ;
#166 = DIRECTION ( 'NONE',  ( 0.000000000000000000, 1.000000000000000000, 0.000000000000000000 ) ) ;
#167 = AXIS2_PLACEMENT_3D ( 'NONE', #235, #158, #4 ) ;
#168 = CARTESIAN_POINT ( 'NONE',  ( 0.000000000000000000, 0.000000000000000000, 0.000000000000000000 ) ) ;
#169 = CARTESIAN_POINT ( 'NONE',  ( -5.887846720064166157E-14, 0.000000000000000000, -20.00000000000000000 ) ) ;
#170 = DIRECTION ( 'NONE',  ( -1.000000000000000000, 0.000000000000000000, 2.943923360032083078E-15 ) ) ;
#171 = PERSON_AND_ORGANIZATION_ROLE ( 'classification_officer' ) ;
#172 = PERSON_AND_ORGANIZATION ( #27, #53 ) ;
#173 = DATE_AND_TIME ( #152, #35 ) ;
#174 = ORIENTED_EDGE ( 'NONE', *, *, #249, .F. ) ;
#175 = PRODUCT_RELATED_PRODUCT_CATEGORY ( 'detail', '', ( #77 ) ) ;
#176 = DIRECTION ( 'NONE',  ( 0.000000000000000000, 1.000000000000000000, 0.000000000000000000 ) ) ;
#177 = PRODUCT_DEFINITION_SHAPE ( 'NONE', 'NONE',  #9 ) ;
#178 = CC_DESIGN_APPROVAL ( #219, ( #86 ) ) ;
#179 = ADVANCED_FACE ( 'NONE', ( #52 ), #239, .F. ) ;
#180 = PERSON_AND_ORGANIZATION_ROLE ( 'creator' ) ;
#181 = EDGE_LOOP ( 'NONE', ( #80, #238, #126, #71 ) ) ;
#182 = EDGE_LOOP ( 'NONE', ( #120, #212 ) ) ;
#183 = DIRECTION ( 'NONE',  ( 0.000000000000000000, 1.000000000000000000, 0.000000000000000000 ) ) ;
#184 =( GEOMETRIC_REPRESENTATION_CONTEXT ( 3 ) GLOBAL_UNCERTAINTY_ASSIGNED_CONTEXT ( ( #30 ) ) GLOBAL_UNIT_ASSIGNED_CONTEXT ( ( #16, #111, #225 ) ) REPRESENTATION_CONTEXT ( 'NONE', 'WORKASPACE' ) );
#185 = CARTESIAN_POINT ( 'NONE',  ( -20.00000000000000000, 0.000000000000000000, -4.518668977514456179E-15 ) ) ;
#186 = FACE_OUTER_BOUND ( 'NONE', #181, .T. ) ;
#187 = COORDINATED_UNIVERSAL_TIME_OFFSET ( 1, 0, .AHEAD. ) ;
#188 = CARTESIAN_POINT ( 'NONE',  ( -14.00000000000000000, 0.000000000000000000, -2.318339704187727057E-15 ) ) ;
#189 = AXIS2_PLACEMENT_3D ( 'NONE', #89, #55, #135 ) ;
#190 = AXIS2_PLACEMENT_3D ( 'NONE', #91, #137, #207 ) ;
#191 = VERTEX_POINT ( 'NONE', #108 ) ;
#192 = CALENDAR_DATE ( 2024, 5, 8 ) ;
#193 = EDGE_CURVE ( 'NONE', #197, #48, #95, .T. ) ;
#194 = DIRECTION ( 'NONE',  ( -2.259334488757228089E-16, 0.000000000000000000, 1.000000000000000000 ) ) ;
#195 = COORDINATED_UNIVERSAL_TIME_OFFSET ( 1, 0, .AHEAD. ) ;
#196 = EDGE_LOOP ( 'NONE', ( #7, #144 ) ) ;
#197 = VERTEX_POINT ( 'NONE', #147 ) ;
#198 = CARTESIAN_POINT ( 'NONE',  ( 0.000000000000000000, 0.000000000000000000, 0.000000000000000000 ) ) ;
#199 = ADVANCED_FACE ( 'NONE', ( #222 ), #148, .T. ) ;
#200 = LOCAL_TIME ( 8, 42, 54.00000000000000000, #76 ) ;
#201 = CIRCLE ( 'NONE', #162, 5.000000000000000888 ) ;
#202 = ADVANCED_FACE ( 'NONE', ( #186 ), #233, .T. ) ;
#203 = TOROIDAL_SURFACE ( 'NONE', #133, 20.00000000000000000, 5.000000000000000000 ) ;
#204 = CARTESIAN_POINT ( 'NONE',  ( -5.887846720064166157E-14, 0.000000000000000000, -20.00000000000000000 ) ) ;
#205 = CIRCLE ( 'NONE', #243, 6.000000000000000000 ) ;
#206 = DATE_AND_TIME ( #208, #100 ) ;
#207 = DIRECTION ( 'NONE',  ( 2.943923360032082684E-15, 0.000000000000000000, 1.000000000000000000 ) ) ;
#208 = CALENDAR_DATE ( 2024, 5, 8 ) ;
#209 = DIRECTION ( 'NONE',  ( -1.000000000000000000, 0.000000000000000000, 2.943923360032083078E-15 ) ) ;
#210 = COORDINATED_UNIVERSAL_TIME_OFFSET ( 1, 0, .AHEAD. ) ;
#211 = AXIS2_PLACEMENT_3D ( 'NONE', #70, #58, #229 ) ;
#212 = ORIENTED_EDGE ( 'NONE', *, *, #41, .F. ) ;
#213 = PERSON_AND_ORGANIZATION_ROLE ( 'design_owner' ) ;
#214 = CC_DESIGN_PERSON_AND_ORGANIZATION_ASSIGNMENT ( #117, #139, ( #72 ) ) ;
#215 = DIRECTION ( 'NONE',  ( -2.259334488757228089E-16, 0.000000000000000000, 1.000000000000000000 ) ) ;
#216 = PERSON_AND_ORGANIZATION ( #27, #53 ) ;
#217 = EDGE_LOOP ( 'NONE', ( #64, #61 ) ) ;
#218 = VERTEX_POINT ( 'NONE', #114 ) ;
#219 = APPROVAL ( #112, 'UNSPECIFIED' ) ;
#220 = CARTESIAN_POINT ( 'NONE',  ( -5.972319578071406330E-14, 0.000000000000000000, -20.00000000000000000 ) ) ;
#221 = EDGE_CURVE ( 'NONE', #102, #191, #223, .T. ) ;
#222 = FACE_OUTER_BOUND ( 'NONE', #1, .T. ) ;
#223 = CIRCLE ( 'NONE', #211, 15.00000000000000000 ) ;
#224 = AXIS2_PLACEMENT_3D ( 'NONE', #98, #176, #74 ) ;
#225 =( NAMED_UNIT ( * ) SI_UNIT ( $, .STERADIAN. ) SOLID_ANGLE_UNIT ( ) );
#226 = FACE_OUTER_BOUND ( 'NONE', #182, .T. ) ;
#227 = SECURITY_CLASSIFICATION_LEVEL ( 'unclassified' ) ;
#228 = ADVANCED_BREP_SHAPE_REPRESENTATION ( '3D_R1651_12x1_17352105', ( #164, #167 ), #184 ) ;
#229 = DIRECTION ( 'NONE',  ( 0.000000000000000000, 0.000000000000000000, 1.000000000000000000 ) ) ;
#230 = PERSON_AND_ORGANIZATION_ROLE ( 'design_supplier' ) ;
#231 = CC_DESIGN_APPROVAL ( #150, ( #72 ) ) ;
#232 = ORIENTED_EDGE ( 'NONE', *, *, #107, .F. ) ;
#233 = TOROIDAL_SURFACE ( 'NONE', #81, 20.00000000000000000, 6.000000000000000000 ) ;
#234 = FACE_OUTER_BOUND ( 'NONE', #42, .T. ) ;
#235 = CARTESIAN_POINT ( 'NONE',  ( 0.000000000000000000, 0.000000000000000000, 0.000000000000000000 ) ) ;
#236 = APPLICATION_PROTOCOL_DEFINITION ( 'international standard', 'config_control_design', 1994, #50 ) ;
#237 = ORIENTED_EDGE ( 'NONE', *, *, #221, .T. ) ;
#238 = ORIENTED_EDGE ( 'NONE', *, *, #193, .T. ) ;
#239 = TOROIDAL_SURFACE ( 'NONE', #51, 20.00000000000000000, 5.000000000000000000 ) ;
#240 = ORIENTED_EDGE ( 'NONE', *, *, #193, .F. ) ;
#241 = AXIS2_PLACEMENT_3D ( 'NONE', #49, #105, #128 ) ;
#242 = DIRECTION ( 'NONE',  ( 2.943923360032082684E-15, 0.000000000000000000, 1.000000000000000000 ) ) ;
#243 = AXIS2_PLACEMENT_3D ( 'NONE', #123, #194, #110 ) ;
#244 = EDGE_CURVE ( 'NONE', #102, #140, #131, .T. ) ;
#245 = APPROVAL_PERSON_ORGANIZATION ( #75, #73, #22 ) ;
#246 = CARTESIAN_POINT ( 'NONE',  ( -7.359808400080207696E-14, 0.000000000000000000, -25.00000000000000000 ) ) ;
#247 = DIRECTION ( 'NONE',  ( 2.943923360032081895E-15, 0.000000000000000000, 1.000000000000000000 ) ) ;
#248 = DIRECTION ( 'NONE',  ( 0.000000000000000000, 0.000000000000000000, 1.000000000000000000 ) ) ;
#249 = EDGE_CURVE ( 'NONE', #48, #78, #31, .T. ) ;
#250 = CARTESIAN_POINT ( 'NONE',  ( -4.415885040048124617E-14, 0.000000000000000000, -15.00000000000000000 ) ) ;
#251 = PERSON_AND_ORGANIZATION ( #27, #53 ) ;
#252 = APPROVAL_STATUS ( 'not_yet_approved' ) ;
#253 = APPROVAL_DATE_TIME ( #173, #219 ) ;
ENDSEC;
END-ISO-10303-21;
