ISO-10303-21;
HEADER;
FILE_DESCRIPTION (( 'STEP AP203' ),
    '1' );
FILE_NAME ('3D_R169_ DN44-30_17323197.STEP',
    '2024-07-17T12:15:42',
    ( '' ),
    ( '' ),
    'SwSTEP 2.0',
    'SolidWorks 2024',
    '' );
FILE_SCHEMA (( 'CONFIG_CONTROL_DESIGN' ));
ENDSEC;

DATA;
#1 = DESIGN_CONTEXT ( 'detailed design', #131, 'design' ) ;
#2 = ORIENTED_EDGE ( 'NONE', *, *, #62, .T. ) ;
#3 = ORIENTED_EDGE ( 'NONE', *, *, #231, .F. ) ;
#4 = CALENDAR_DATE ( 2024, 17, 7 ) ;
#5 = EDGE_CURVE ( 'NONE', #216, #34, #57, .T. ) ;
#6 = AXIS2_PLACEMENT_3D ( 'NONE', #227, #65, #150 ) ;
#7 = ORIENTED_EDGE ( 'NONE', *, *, #5, .T. ) ;
#8 = CIRCLE ( 'NONE', #209, 12.97241248990059148 ) ;
#9 = EDGE_LOOP ( 'NONE', ( #195, #198 ) ) ;
#10 = CARTESIAN_POINT ( 'NONE',  ( 0.000000000000000000, -1.347111479062088405E-15, 22.00000000000000000 ) ) ;
#11 = ORIENTED_EDGE ( 'NONE', *, *, #115, .T. ) ;
#12 = LINE ( 'NONE', #26, #40 ) ;
#13 = DIRECTION ( 'NONE',  ( 0.000000000000000000, 0.000000000000000000, 1.000000000000000000 ) ) ;
#14 = CARTESIAN_POINT ( 'NONE',  ( 42.00000000000000000, 0.000000000000000000, 0.000000000000000000 ) ) ;
#15 = APPLICATION_PROTOCOL_DEFINITION ( 'international standard', 'config_control_design', 1994, #48 ) ;
#16 = ADVANCED_FACE ( 'NONE', ( #199 ), #110, .F. ) ;
#17 = CARTESIAN_POINT ( 'NONE',  ( 0.000000000000000000, 0.000000000000000000, 0.000000000000000000 ) ) ;
#18 = APPROVAL_PERSON_ORGANIZATION ( #52, #164, #184 ) ;
#19 = DIRECTION ( 'NONE',  ( 0.000000000000000000, 0.000000000000000000, -1.000000000000000000 ) ) ;
#20 = APPROVAL_STATUS ( 'not_yet_approved' ) ;
#21 = EDGE_LOOP ( 'NONE', ( #54, #119, #217, #235 ) ) ;
#22 = CC_DESIGN_PERSON_AND_ORGANIZATION_ASSIGNMENT ( #232, #71, ( #125 ) ) ;
#23 = AXIS2_PLACEMENT_3D ( 'NONE', #224, #242, #13 ) ;
#24 = DIRECTION ( 'NONE',  ( 0.000000000000000000, 0.000000000000000000, 1.000000000000000000 ) ) ;
#25 = FACE_BOUND ( 'NONE', #28, .T. ) ;
#26 = CARTESIAN_POINT ( 'NONE',  ( 41.67120202538928453, 1.595373366417143171E-15, -13.02721215233571073 ) ) ;
#27 = ADVANCED_FACE ( 'NONE', ( #25, #203 ), #102, .T. ) ;
#28 = EDGE_LOOP ( 'NONE', ( #175, #122 ) ) ;
#29 =( NAMED_UNIT ( * ) PLANE_ANGLE_UNIT ( ) SI_UNIT ( $, .RADIAN. ) );
#30 = CC_DESIGN_DATE_AND_TIME_ASSIGNMENT ( #72, #192, ( #87 ) ) ;
#31 = DIRECTION ( 'NONE',  ( 1.000000000000000000, 0.000000000000000000, 0.000000000000000000 ) ) ;
#32 = APPROVAL_PERSON_ORGANIZATION ( #47, #88, #106 ) ;
#33 = DATE_AND_TIME ( #189, #55 ) ;
#34 = VERTEX_POINT ( 'NONE', #100 ) ;
#35 = CIRCLE ( 'NONE', #44, 15.00000000000000000 ) ;
#36 = EDGE_LOOP ( 'NONE', ( #42, #132 ) ) ;
#37 = LOCAL_TIME ( 14, 15, 42.00000000000000000, #76 ) ;
#38 = EDGE_LOOP ( 'NONE', ( #58, #139, #11, #93 ) ) ;
#39 = VERTEX_POINT ( 'NONE', #78 ) ;
#40 = VECTOR ( 'NONE', #45, 1000.000000000000114 ) ;
#41 = DIRECTION ( 'NONE',  ( -0.9863939238321437486, 0.000000000000000000, 0.1643989873053572359 ) ) ;
#42 = ORIENTED_EDGE ( 'NONE', *, *, #107, .T. ) ;
#43 = DIRECTION ( 'NONE',  ( 1.000000000000000000, 0.000000000000000000, 0.000000000000000000 ) ) ;
#44 = AXIS2_PLACEMENT_3D ( 'NONE', #172, #187, #186 ) ;
#45 = DIRECTION ( 'NONE',  ( -0.9863939238321437486, 2.013306935865721379E-17, -0.1643989873053572359 ) ) ;
#46 = DIRECTION ( 'NONE',  ( 0.000000000000000000, 0.000000000000000000, 1.000000000000000000 ) ) ;
#47 = PERSON_AND_ORGANIZATION ( #241, #120 ) ;
#48 = APPLICATION_CONTEXT ( 'configuration controlled 3d designs of mechanical parts and assemblies' ) ;
#49 = COORDINATED_UNIVERSAL_TIME_OFFSET ( 1, 0, .AHEAD. ) ;
#50 = COORDINATED_UNIVERSAL_TIME_OFFSET ( 1, 0, .AHEAD. ) ;
#51 = PERSON_AND_ORGANIZATION_ROLE ( 'creator' ) ;
#52 = PERSON_AND_ORGANIZATION ( #241, #120 ) ;
#53 = CIRCLE ( 'NONE', #176, 19.97241248990059148 ) ;
#54 = ORIENTED_EDGE ( 'NONE', *, *, #211, .T. ) ;
#55 = LOCAL_TIME ( 14, 15, 42.00000000000000000, #50 ) ;
#56 = PERSON_AND_ORGANIZATION ( #241, #120 ) ;
#57 = CIRCLE ( 'NONE', #166, 12.97241248990059148 ) ;
#58 = ORIENTED_EDGE ( 'NONE', *, *, #62, .F. ) ;
#59 = DIRECTION ( 'NONE',  ( 0.000000000000000000, 0.000000000000000000, -1.000000000000000000 ) ) ;
#60 = DIRECTION ( 'NONE',  ( 0.000000000000000000, 0.000000000000000000, -1.000000000000000000 ) ) ;
#61 = FACE_OUTER_BOUND ( 'NONE', #240, .T. ) ;
#62 = EDGE_CURVE ( 'NONE', #165, #92, #239, .T. ) ;
#63 = CARTESIAN_POINT ( 'NONE',  ( 42.00000000000000000, 0.000000000000000000, 15.00000000000000000 ) ) ;
#64 = FACE_OUTER_BOUND ( 'NONE', #38, .T. ) ;
#65 = DIRECTION ( 'NONE',  ( 0.000000000000000000, 0.000000000000000000, 1.000000000000000000 ) ) ;
#66 = DIRECTION ( 'NONE',  ( 1.000000000000000000, 0.000000000000000000, 0.000000000000000000 ) ) ;
#67 = DATE_AND_TIME ( #191, #148 ) ;
#68 = CC_DESIGN_SECURITY_CLASSIFICATION ( #87, ( #179 ) ) ;
#69 = MECHANICAL_CONTEXT ( 'NONE', #48, 'mechanical' ) ;
#70 = ADVANCED_FACE ( 'NONE', ( #61 ), #143, .T. ) ;
#71 = PERSON_AND_ORGANIZATION_ROLE ( 'design_owner' ) ;
#72 = DATE_AND_TIME ( #215, #229 ) ;
#73 = AXIS2_PLACEMENT_3D ( 'NONE', #145, #226, #46 ) ;
#74 = VERTEX_POINT ( 'NONE', #10 ) ;
#75 = CC_DESIGN_PERSON_AND_ORGANIZATION_ASSIGNMENT ( #108, #51, ( #79 ) ) ;
#76 = COORDINATED_UNIVERSAL_TIME_OFFSET ( 1, 0, .AHEAD. ) ;
#77 = DIRECTION ( 'NONE',  ( -0.9863939238321437486, 0.000000000000000000, 0.1643989873053572359 ) ) ;
#78 = CARTESIAN_POINT ( 'NONE',  ( 42.00000000000000000, 9.184850993605147944E-16, 15.00000000000000000 ) ) ;
#79 = PRODUCT_DEFINITION ( 'UNKNOWN', '', #179, #1 ) ;
#80 = LINE ( 'NONE', #63, #84 ) ;
#81 = MANIFOLD_SOLID_BREP ( 'Wandung2', #136 ) ;
#82 = CARTESIAN_POINT ( 'NONE',  ( 42.00000000000000000, 0.000000000000000000, 0.000000000000000000 ) ) ;
#83 = CARTESIAN_POINT ( 'NONE',  ( 0.000000000000000000, 2.445915102700738090E-15, -19.97241248990059148 ) ) ;
#84 = VECTOR ( 'NONE', #77, 1000.000000000000114 ) ;
#85 = DIRECTION ( 'NONE',  ( 1.000000000000000000, 0.000000000000000000, 0.000000000000000000 ) ) ;
#86 = COORDINATED_UNIVERSAL_TIME_OFFSET ( 1, 0, .AHEAD. ) ;
#87 = SECURITY_CLASSIFICATION ( '', '', #157 ) ;
#88 = APPROVAL ( #230, 'UNSPECIFIED' ) ;
#89 = DIRECTION ( 'NONE',  ( 1.000000000000000000, 0.000000000000000000, 0.000000000000000000 ) ) ;
#90 = PERSON_AND_ORGANIZATION_ROLE ( 'design_supplier' ) ;
#91 = EDGE_LOOP ( 'NONE', ( #212, #3 ) ) ;
#92 = VERTEX_POINT ( 'NONE', #160 ) ;
#93 = ORIENTED_EDGE ( 'NONE', *, *, #248, .T. ) ;
#94 = CC_DESIGN_PERSON_AND_ORGANIZATION_ASSIGNMENT ( #56, #90, ( #179 ) ) ;
#95 = CONICAL_SURFACE ( 'NONE', #23, 13.02721215233571073, 0.1651486774146267988 ) ;
#96 = DIRECTION ( 'NONE',  ( 0.000000000000000000, 0.000000000000000000, -1.000000000000000000 ) ) ;
#97 = DIRECTION ( 'NONE',  ( 1.000000000000000000, 0.000000000000000000, 0.000000000000000000 ) ) ;
#98 = APPROVAL ( #112, 'UNSPECIFIED' ) ;
#99 = AXIS2_PLACEMENT_3D ( 'NONE', #124, #89, #128 ) ;
#100 = CARTESIAN_POINT ( 'NONE',  ( 42.00000000000000000, 0.000000000000000000, 12.97241248990059148 ) ) ;
#101 = FACE_BOUND ( 'NONE', #36, .T. ) ;
#102 = PLANE ( 'NONE',  #234 ) ;
#103 =( NAMED_UNIT ( * ) SI_UNIT ( $, .STERADIAN. ) SOLID_ANGLE_UNIT ( ) );
#104 = CIRCLE ( 'NONE', #225, 15.00000000000000000 ) ;
#105 = APPROVAL_PERSON_ORGANIZATION ( #173, #98, #236 ) ;
#106 = APPROVAL_ROLE ( '' ) ;
#107 = EDGE_CURVE ( 'NONE', #193, #159, #53, .T. ) ;
#108 = PERSON_AND_ORGANIZATION ( #241, #120 ) ;
#109 = CIRCLE ( 'NONE', #188, 19.97241248990059148 ) ;
#110 = CONICAL_SURFACE ( 'NONE', #218, 13.02721215233571073, 0.1651486774146267988 ) ;
#111 = APPROVAL_DATE_TIME ( #33, #164 ) ;
#112 = APPROVAL_STATUS ( 'not_yet_approved' ) ;
#113 = PRODUCT_RELATED_PRODUCT_CATEGORY ( 'detail', '', ( #125 ) ) ;
#114 = ORIENTED_EDGE ( 'NONE', *, *, #144, .T. ) ;
#115 = EDGE_CURVE ( 'NONE', #39, #74, #80, .T. ) ;
#116 = ORIENTED_EDGE ( 'NONE', *, *, #238, .F. ) ;
#117 = DIRECTION ( 'NONE',  ( 1.000000000000000000, 0.000000000000000000, 0.000000000000000000 ) ) ;
#118 = EDGE_CURVE ( 'NONE', #216, #159, #12, .T. ) ;
#119 = ORIENTED_EDGE ( 'NONE', *, *, #118, .T. ) ;
#120 = ORGANIZATION ( 'UNSPECIFIED', 'UNSPECIFIED', '' ) ;
#121 = CARTESIAN_POINT ( 'NONE',  ( 42.00000000000000000, 1.836970198721029589E-15, -15.00000000000000000 ) ) ;
#122 = ORIENTED_EDGE ( 'NONE', *, *, #5, .F. ) ;
#123 = CARTESIAN_POINT ( 'NONE',  ( 0.000000000000000000, 0.000000000000000000, 19.97241248990059148 ) ) ;
#124 = CARTESIAN_POINT ( 'NONE',  ( 0.000000000000000000, 0.000000000000000000, 0.000000000000000000 ) ) ;
#125 = PRODUCT ( '3D_R169_ DN44-30_17323197', '3D_R169_ DN44-30_17323197', '', ( #69 ) ) ;
#126 = DIRECTION ( 'NONE',  ( 1.000000000000000000, 0.000000000000000000, 0.000000000000000000 ) ) ;
#127 = UNCERTAINTY_MEASURE_WITH_UNIT (LENGTH_MEASURE( 1.000000000000000082E-05 ), #208, 'distance_accuracy_value', 'NONE');
#128 = DIRECTION ( 'NONE',  ( 0.000000000000000000, 0.000000000000000000, -1.000000000000000000 ) ) ;
#129 = AXIS2_PLACEMENT_3D ( 'NONE', #82, #141, #24 ) ;
#130 = PERSON_AND_ORGANIZATION ( #241, #120 ) ;
#131 = APPLICATION_CONTEXT ( 'configuration controlled 3d designs of mechanical parts and assemblies' ) ;
#132 = ORIENTED_EDGE ( 'NONE', *, *, #238, .T. ) ;
#133 = APPROVAL_DATE_TIME ( #153, #98 ) ;
#134 = ORIENTED_EDGE ( 'NONE', *, *, #118, .F. ) ;
#135 = CC_DESIGN_APPROVAL ( #164, ( #179 ) ) ;
#136 = CLOSED_SHELL ( 'NONE', ( #155, #70, #27, #137, #167, #16 ) ) ;
#137 = ADVANCED_FACE ( 'NONE', ( #101, #140 ), #162, .F. ) ;
#138 = PERSON_AND_ORGANIZATION ( #241, #120 ) ;
#139 = ORIENTED_EDGE ( 'NONE', *, *, #221, .F. ) ;
#140 = FACE_OUTER_BOUND ( 'NONE', #91, .T. ) ;
#141 = DIRECTION ( 'NONE',  ( -1.000000000000000000, -0.000000000000000000, -0.000000000000000000 ) ) ;
#142 = CARTESIAN_POINT ( 'NONE',  ( 0.000000000000000000, 0.000000000000000000, 0.000000000000000000 ) ) ;
#143 = CONICAL_SURFACE ( 'NONE', #129, 15.00000000000000000, 0.1651486774146267988 ) ;
#144 = EDGE_CURVE ( 'NONE', #34, #193, #182, .T. ) ;
#145 = CARTESIAN_POINT ( 'NONE',  ( 42.00000000000000000, 0.000000000000000000, 0.000000000000000000 ) ) ;
#146 = PRODUCT_DEFINITION_SHAPE ( 'NONE', 'NONE',  #79 ) ;
#147 = CC_DESIGN_PERSON_AND_ORGANIZATION_ASSIGNMENT ( #138, #174, ( #87 ) ) ;
#148 = LOCAL_TIME ( 14, 15, 42.00000000000000000, #49 ) ;
#149 = DATE_TIME_ROLE ( 'creation_date' ) ;
#150 = DIRECTION ( 'NONE',  ( 1.000000000000000000, 0.000000000000000000, 0.000000000000000000 ) ) ;
#151 = CARTESIAN_POINT ( 'NONE',  ( 42.00000000000000000, 2.017288722999164282E-15, -12.97241248990059148 ) ) ;
#152 = AXIS2_PLACEMENT_3D ( 'NONE', #142, #97, #60 ) ;
#153 = DATE_AND_TIME ( #4, #37 ) ;
#154 = ORIENTED_EDGE ( 'NONE', *, *, #115, .F. ) ;
#155 = ADVANCED_FACE ( 'NONE', ( #220 ), #95, .F. ) ;
#156 = CIRCLE ( 'NONE', #99, 22.00000000000000000 ) ;
#157 = SECURITY_CLASSIFICATION_LEVEL ( 'unclassified' ) ;
#158 = COORDINATED_UNIVERSAL_TIME_OFFSET ( 1, 0, .AHEAD. ) ;
#159 = VERTEX_POINT ( 'NONE', #83 ) ;
#160 = CARTESIAN_POINT ( 'NONE',  ( 0.000000000000000000, 4.041334437186265411E-15, -22.00000000000000000 ) ) ;
#161 = CARTESIAN_POINT ( 'NONE',  ( 41.67120202538928453, 0.000000000000000000, 13.02721215233571073 ) ) ;
#162 = PLANE ( 'NONE',  #152 ) ;
#163 = CARTESIAN_POINT ( 'NONE',  ( 41.67120202538928453, 0.000000000000000000, 0.000000000000000000 ) ) ;
#164 = APPROVAL ( #20, 'UNSPECIFIED' ) ;
#165 = VERTEX_POINT ( 'NONE', #244 ) ;
#166 = AXIS2_PLACEMENT_3D ( 'NONE', #243, #200, #96 ) ;
#167 = ADVANCED_FACE ( 'NONE', ( #64 ), #185, .T. ) ;
#168 = DATE_AND_TIME ( #228, #213 ) ;
#169 =( GEOMETRIC_REPRESENTATION_CONTEXT ( 3 ) GLOBAL_UNCERTAINTY_ASSIGNED_CONTEXT ( ( #127 ) ) GLOBAL_UNIT_ASSIGNED_CONTEXT ( ( #208, #29, #103 ) ) REPRESENTATION_CONTEXT ( 'NONE', 'WORKASPACE' ) );
#170 = DIRECTION ( 'NONE',  ( 0.000000000000000000, 0.000000000000000000, -1.000000000000000000 ) ) ;
#171 = DIRECTION ( 'NONE',  ( 0.000000000000000000, 0.000000000000000000, -1.000000000000000000 ) ) ;
#172 = CARTESIAN_POINT ( 'NONE',  ( 42.00000000000000000, 0.000000000000000000, 0.000000000000000000 ) ) ;
#173 = PERSON_AND_ORGANIZATION ( #241, #120 ) ;
#174 = PERSON_AND_ORGANIZATION_ROLE ( 'classification_officer' ) ;
#175 = ORIENTED_EDGE ( 'NONE', *, *, #211, .F. ) ;
#176 = AXIS2_PLACEMENT_3D ( 'NONE', #202, #117, #180 ) ;
#177 = EDGE_LOOP ( 'NONE', ( #134, #7, #114, #116 ) ) ;
#178 = DIRECTION ( 'NONE',  ( -1.000000000000000000, -0.000000000000000000, -0.000000000000000000 ) ) ;
#179 = PRODUCT_DEFINITION_FORMATION_WITH_SPECIFIED_SOURCE ( 'ANY', '', #125, .NOT_KNOWN. ) ;
#180 = DIRECTION ( 'NONE',  ( 0.000000000000000000, 0.000000000000000000, -1.000000000000000000 ) ) ;
#181 = CC_DESIGN_APPROVAL ( #98, ( #87 ) ) ;
#182 = LINE ( 'NONE', #161, #245 ) ;
#183 = ORIENTED_EDGE ( 'NONE', *, *, #231, .T. ) ;
#184 = APPROVAL_ROLE ( '' ) ;
#185 = CONICAL_SURFACE ( 'NONE', #73, 15.00000000000000000, 0.1651486774146267988 ) ;
#186 = DIRECTION ( 'NONE',  ( 0.000000000000000000, 0.000000000000000000, -1.000000000000000000 ) ) ;
#187 = DIRECTION ( 'NONE',  ( 1.000000000000000000, 0.000000000000000000, 0.000000000000000000 ) ) ;
#188 = AXIS2_PLACEMENT_3D ( 'NONE', #249, #126, #206 ) ;
#189 = CALENDAR_DATE ( 2024, 17, 7 ) ;
#190 = CC_DESIGN_PERSON_AND_ORGANIZATION_ASSIGNMENT ( #130, #196, ( #179 ) ) ;
#191 = CALENDAR_DATE ( 2024, 17, 7 ) ;
#192 = DATE_TIME_ROLE ( 'classification_date' ) ;
#193 = VERTEX_POINT ( 'NONE', #123 ) ;
#194 = EDGE_CURVE ( 'NONE', #165, #39, #104, .T. ) ;
#195 = ORIENTED_EDGE ( 'NONE', *, *, #221, .T. ) ;
#196 = PERSON_AND_ORGANIZATION_ROLE ( 'creator' ) ;
#197 = VECTOR ( 'NONE', #222, 1000.000000000000114 ) ;
#198 = ORIENTED_EDGE ( 'NONE', *, *, #194, .T. ) ;
#199 = FACE_OUTER_BOUND ( 'NONE', #177, .T. ) ;
#200 = DIRECTION ( 'NONE',  ( 1.000000000000000000, 0.000000000000000000, 0.000000000000000000 ) ) ;
#201 = AXIS2_PLACEMENT_3D ( 'NONE', #17, #85, #171 ) ;
#202 = CARTESIAN_POINT ( 'NONE',  ( 0.000000000000000000, 0.000000000000000000, 0.000000000000000000 ) ) ;
#203 = FACE_OUTER_BOUND ( 'NONE', #9, .T. ) ;
#204 = CARTESIAN_POINT ( 'NONE',  ( 42.00000000000000000, 0.000000000000000000, 0.000000000000000000 ) ) ;
#205 = CARTESIAN_POINT ( 'NONE',  ( 42.00000000000000000, 0.000000000000000000, 0.000000000000000000 ) ) ;
#206 = DIRECTION ( 'NONE',  ( 0.000000000000000000, 0.000000000000000000, -1.000000000000000000 ) ) ;
#207 = CC_DESIGN_DATE_AND_TIME_ASSIGNMENT ( #67, #149, ( #79 ) ) ;
#208 =( LENGTH_UNIT ( ) NAMED_UNIT ( * ) SI_UNIT ( .MILLI., .METRE. ) );
#209 = AXIS2_PLACEMENT_3D ( 'NONE', #205, #31, #19 ) ;
#210 = SHAPE_DEFINITION_REPRESENTATION ( #146, #214 ) ;
#211 = EDGE_CURVE ( 'NONE', #34, #216, #8, .T. ) ;
#212 = ORIENTED_EDGE ( 'NONE', *, *, #248, .F. ) ;
#213 = LOCAL_TIME ( 14, 15, 42.00000000000000000, #86 ) ;
#214 = ADVANCED_BREP_SHAPE_REPRESENTATION ( '3D_R169_ DN44-30_17323197', ( #81, #6 ), #169 ) ;
#215 = CALENDAR_DATE ( 2024, 17, 7 ) ;
#216 = VERTEX_POINT ( 'NONE', #151 ) ;
#217 = ORIENTED_EDGE ( 'NONE', *, *, #107, .F. ) ;
#218 = AXIS2_PLACEMENT_3D ( 'NONE', #163, #178, #219 ) ;
#219 = DIRECTION ( 'NONE',  ( 0.000000000000000000, 0.000000000000000000, 1.000000000000000000 ) ) ;
#220 = FACE_OUTER_BOUND ( 'NONE', #21, .T. ) ;
#221 = EDGE_CURVE ( 'NONE', #39, #165, #35, .T. ) ;
#222 = DIRECTION ( 'NONE',  ( -0.9863939238321437486, 2.013306935865721379E-17, -0.1643989873053572359 ) ) ;
#223 = CIRCLE ( 'NONE', #201, 22.00000000000000000 ) ;
#224 = CARTESIAN_POINT ( 'NONE',  ( 41.67120202538928453, 0.000000000000000000, 0.000000000000000000 ) ) ;
#225 = AXIS2_PLACEMENT_3D ( 'NONE', #204, #66, #170 ) ;
#226 = DIRECTION ( 'NONE',  ( -1.000000000000000000, -0.000000000000000000, -0.000000000000000000 ) ) ;
#227 = CARTESIAN_POINT ( 'NONE',  ( 0.000000000000000000, 0.000000000000000000, 0.000000000000000000 ) ) ;
#228 = CALENDAR_DATE ( 2024, 17, 7 ) ;
#229 = LOCAL_TIME ( 14, 15, 42.00000000000000000, #158 ) ;
#230 = APPROVAL_STATUS ( 'not_yet_approved' ) ;
#231 = EDGE_CURVE ( 'NONE', #92, #74, #156, .T. ) ;
#232 = PERSON_AND_ORGANIZATION ( #241, #120 ) ;
#233 = APPLICATION_PROTOCOL_DEFINITION ( 'international standard', 'config_control_design', 1994, #131 ) ;
#234 = AXIS2_PLACEMENT_3D ( 'NONE', #14, #43, #59 ) ;
#235 = ORIENTED_EDGE ( 'NONE', *, *, #144, .F. ) ;
#236 = APPROVAL_ROLE ( '' ) ;
#237 = ORIENTED_EDGE ( 'NONE', *, *, #194, .F. ) ;
#238 = EDGE_CURVE ( 'NONE', #159, #193, #109, .T. ) ;
#239 = LINE ( 'NONE', #121, #197 ) ;
#240 = EDGE_LOOP ( 'NONE', ( #237, #2, #183, #154 ) ) ;
#241 = PERSON ( 'UNSPECIFIED', 'UNSPECIFIED', 'UNSPECIFIED', ('UNSPECIFIED'), ('UNSPECIFIED'), ('UNSPECIFIED') ) ;
#242 = DIRECTION ( 'NONE',  ( -1.000000000000000000, -0.000000000000000000, -0.000000000000000000 ) ) ;
#243 = CARTESIAN_POINT ( 'NONE',  ( 42.00000000000000000, 0.000000000000000000, 0.000000000000000000 ) ) ;
#244 = CARTESIAN_POINT ( 'NONE',  ( 42.00000000000000000, 9.184850993605147944E-16, -15.00000000000000000 ) ) ;
#245 = VECTOR ( 'NONE', #41, 1000.000000000000114 ) ;
#246 = APPROVAL_DATE_TIME ( #168, #88 ) ;
#247 = CC_DESIGN_APPROVAL ( #88, ( #79 ) ) ;
#248 = EDGE_CURVE ( 'NONE', #74, #92, #223, .T. ) ;
#249 = CARTESIAN_POINT ( 'NONE',  ( 0.000000000000000000, 0.000000000000000000, 0.000000000000000000 ) ) ;
ENDSEC;
END-ISO-10303-21;
