ISO-10303-21;
HEADER;
FILE_DESCRIPTION (( 'STEP AP203' ),
    '1' );
FILE_NAME ('3D_R1655_42.4x3.2_17362170.STEP',
    '2024-08-05T08:48:52',
    ( '' ),
    ( '' ),
    'SwSTEP 2.0',
    'SolidWorks 2024',
    '' );
FILE_SCHEMA (( 'CONFIG_CONTROL_DESIGN' ));
ENDSEC;

DATA;
#1 = COORDINATED_UNIVERSAL_TIME_OFFSET ( 1, 0, .AHEAD. ) ;
#2 = SHAPE_DEFINITION_REPRESENTATION ( #84, #37 ) ;
#3 = LOCAL_TIME ( 10, 48, 52.00000000000000000, #1 ) ;
#4 = CIRCLE ( 'NONE', #240, 21.19999999999999574 ) ;
#5 = ORIENTED_EDGE ( 'NONE', *, *, #60, .F. ) ;
#6 = CARTESIAN_POINT ( 'NONE',  ( -2.294994017229312248E-13, 0.000000000000000000, -75.00000000000001421 ) ) ;
#7 = ORIENTED_EDGE ( 'NONE', *, *, #60, .T. ) ;
#8 = DIRECTION ( 'NONE',  ( 0.000000000000000000, 0.000000000000000000, 1.000000000000000000 ) ) ;
#9 = CC_DESIGN_APPROVAL ( #177, ( #124 ) ) ;
#10 = VERTEX_POINT ( 'NONE', #189 ) ;
#11 = FACE_BOUND ( 'NONE', #31, .T. ) ;
#12 = ORIENTED_EDGE ( 'NONE', *, *, #21, .T. ) ;
#13 = CC_DESIGN_PERSON_AND_ORGANIZATION_ASSIGNMENT ( #136, #91, ( #166 ) ) ;
#14 = PLANE ( 'NONE',  #252 ) ;
#15 = ORIENTED_EDGE ( 'NONE', *, *, #160, .T. ) ;
#16 = DATE_AND_TIME ( #188, #107 ) ;
#17 = AXIS2_PLACEMENT_3D ( 'NONE', #23, #233, #40 ) ;
#18 = FACE_OUTER_BOUND ( 'NONE', #206, .T. ) ;
#19 = DIRECTION ( 'NONE',  ( -1.098647859353907344E-16, 0.000000000000000000, 1.000000000000000000 ) ) ;
#20 = CIRCLE ( 'NONE', #164, 17.99999999999998934 ) ;
#21 = EDGE_CURVE ( 'NONE', #10, #199, #66, .T. ) ;
#22 = DATE_AND_TIME ( #80, #253 ) ;
#23 = CARTESIAN_POINT ( 'NONE',  ( 0.000000000000000000, 0.000000000000000000, 0.000000000000000000 ) ) ;
#24 = PERSON_AND_ORGANIZATION_ROLE ( 'creator' ) ;
#25 = APPROVAL_ROLE ( '' ) ;
#26 = COORDINATED_UNIVERSAL_TIME_OFFSET ( 1, 0, .AHEAD. ) ;
#27 = AXIS2_PLACEMENT_3D ( 'NONE', #43, #159, #232 ) ;
#28 = DIRECTION ( 'NONE',  ( 0.000000000000000000, 0.000000000000000000, 1.000000000000000000 ) ) ;
#29 = FACE_OUTER_BOUND ( 'NONE', #74, .T. ) ;
#30 = ADVANCED_FACE ( 'NONE', ( #18 ), #38, .T. ) ;
#31 = EDGE_LOOP ( 'NONE', ( #248, #92 ) ) ;
#32 = PERSON_AND_ORGANIZATION_ROLE ( 'creator' ) ;
#33 = CARTESIAN_POINT ( 'NONE',  ( -93.00000000000000000, 0.000000000000000000, -1.708382284810565730E-14 ) ) ;
#34 = APPROVAL_ROLE ( '' ) ;
#35 = CALENDAR_DATE ( 2024, 5, 8 ) ;
#36 = EDGE_CURVE ( 'NONE', #169, #175, #99, .T. ) ;
#37 = ADVANCED_BREP_SHAPE_REPRESENTATION ( '3D_R1655_42.4x3.2_17362170', ( #114, #216 ), #125 ) ;
#38 = TOROIDAL_SURFACE ( 'NONE', #117, 93.00000000000000000, 21.19999999999999574 ) ;
#39 = APPROVAL_DATE_TIME ( #76, #151 ) ;
#40 = DIRECTION ( 'NONE',  ( 0.000000000000000000, 0.000000000000000000, 1.000000000000000000 ) ) ;
#41 = PERSON_AND_ORGANIZATION ( #82, #197 ) ;
#42 = CC_DESIGN_PERSON_AND_ORGANIZATION_ASSIGNMENT ( #205, #32, ( #85 ) ) ;
#43 = CARTESIAN_POINT ( 'NONE',  ( -93.00000000000000000, 0.000000000000000000, -1.021742509199130201E-14 ) ) ;
#44 = APPROVAL_PERSON_ORGANIZATION ( #68, #64, #34 ) ;
#45 = FACE_OUTER_BOUND ( 'NONE', #244, .T. ) ;
#46 = DIRECTION ( 'NONE',  ( 0.000000000000000000, 1.000000000000000000, 0.000000000000000000 ) ) ;
#47 = AXIS2_PLACEMENT_3D ( 'NONE', #70, #135, #152 ) ;
#48 = DIRECTION ( 'NONE',  ( 0.000000000000000000, 1.000000000000000000, 0.000000000000000000 ) ) ;
#49 = DIRECTION ( 'NONE',  ( 0.000000000000000000, 1.000000000000000000, 0.000000000000000000 ) ) ;
#50 = TOROIDAL_SURFACE ( 'NONE', #121, 93.00000000000000000, 21.19999999999999574 ) ;
#51 = EDGE_CURVE ( 'NONE', #199, #10, #4, .T. ) ;
#52 = ORIENTED_EDGE ( 'NONE', *, *, #63, .F. ) ;
#53 = CIRCLE ( 'NONE', #141, 17.99999999999998934 ) ;
#54 = CARTESIAN_POINT ( 'NONE',  ( -2.777128603803204196E-13, 0.000000000000000000, -93.00000000000000000 ) ) ;
#55 = CIRCLE ( 'NONE', #195, 110.9999999999999858 ) ;
#56 = CARTESIAN_POINT ( 'NONE',  ( -2.845792581364347228E-13, 0.000000000000000000, -93.00000000000000000 ) ) ;
#57 =( LENGTH_UNIT ( ) NAMED_UNIT ( * ) SI_UNIT ( .MILLI., .METRE. ) );
#58 = LOCAL_TIME ( 10, 48, 52.00000000000000000, #224 ) ;
#59 = PERSON_AND_ORGANIZATION ( #82, #197 ) ;
#60 = EDGE_CURVE ( 'NONE', #175, #169, #235, .T. ) ;
#61 = TOROIDAL_SURFACE ( 'NONE', #162, 93.00000000000000000, 17.99999999999999645 ) ;
#62 = CALENDAR_DATE ( 2024, 5, 8 ) ;
#63 = EDGE_CURVE ( 'NONE', #90, #186, #126, .T. ) ;
#64 = APPROVAL ( #150, 'UNSPECIFIED' ) ;
#65 = DIRECTION ( 'NONE',  ( 0.000000000000000000, 0.000000000000000000, 1.000000000000000000 ) ) ;
#66 = CIRCLE ( 'NONE', #47, 21.19999999999999574 ) ;
#67 =( NAMED_UNIT ( * ) SI_UNIT ( $, .STERADIAN. ) SOLID_ANGLE_UNIT ( ) );
#68 = PERSON_AND_ORGANIZATION ( #82, #197 ) ;
#69 = AXIS2_PLACEMENT_3D ( 'NONE', #146, #46, #219 ) ;
#70 = CARTESIAN_POINT ( 'NONE',  ( -2.777128603803204196E-13, 0.000000000000000000, -93.00000000000000000 ) ) ;
#71 = DIRECTION ( 'NONE',  ( -1.000000000000000000, 0.000000000000000000, 3.059992022972416336E-15 ) ) ;
#72 = CARTESIAN_POINT ( 'NONE',  ( 0.000000000000000000, 0.000000000000000000, 0.000000000000000000 ) ) ;
#73 = CARTESIAN_POINT ( 'NONE',  ( -93.00000000000000000, 0.000000000000000000, -1.021742509199130201E-14 ) ) ;
#74 = EDGE_LOOP ( 'NONE', ( #109, #148 ) ) ;
#75 = DIRECTION ( 'NONE',  ( 0.000000000000000000, 0.000000000000000000, 1.000000000000000000 ) ) ;
#76 = DATE_AND_TIME ( #62, #158 ) ;
#77 = CC_DESIGN_APPROVAL ( #64, ( #85 ) ) ;
#78 = APPROVAL_ROLE ( '' ) ;
#79 = EDGE_CURVE ( 'NONE', #10, #169, #179, .T. ) ;
#80 = CALENDAR_DATE ( 2024, 5, 8 ) ;
#81 = PERSON_AND_ORGANIZATION_ROLE ( 'design_supplier' ) ;
#82 = PERSON ( 'UNSPECIFIED', 'UNSPECIFIED', 'UNSPECIFIED', ('UNSPECIFIED'), ('UNSPECIFIED'), ('UNSPECIFIED') ) ;
#83 = DESIGN_CONTEXT ( 'detailed design', #218, 'design' ) ;
#84 = PRODUCT_DEFINITION_SHAPE ( 'NONE', 'NONE',  #85 ) ;
#85 = PRODUCT_DEFINITION ( 'UNKNOWN', '', #185, #83 ) ;
#86 = FACE_BOUND ( 'NONE', #183, .T. ) ;
#87 = CC_DESIGN_PERSON_AND_ORGANIZATION_ASSIGNMENT ( #59, #24, ( #185 ) ) ;
#88 = ORIENTED_EDGE ( 'NONE', *, *, #36, .F. ) ;
#89 = DIRECTION ( 'NONE',  ( 3.059992022972417125E-15, 0.000000000000000000, 1.000000000000000000 ) ) ;
#90 = VERTEX_POINT ( 'NONE', #97 ) ;
#91 = PERSON_AND_ORGANIZATION_ROLE ( 'design_owner' ) ;
#92 = ORIENTED_EDGE ( 'NONE', *, *, #63, .T. ) ;
#93 = DIRECTION ( 'NONE',  ( 3.059992022972416336E-15, 0.000000000000000000, 1.000000000000000000 ) ) ;
#94 = PLANE ( 'NONE',  #237 ) ;
#95 = AXIS2_PLACEMENT_3D ( 'NONE', #132, #111, #173 ) ;
#96 = ORIENTED_EDGE ( 'NONE', *, *, #246, .F. ) ;
#97 = CARTESIAN_POINT ( 'NONE',  ( -3.396591145499382208E-13, 0.000000000000000000, -110.9999999999999858 ) ) ;
#98 = AXIS2_PLACEMENT_3D ( 'NONE', #210, #49, #8 ) ;
#99 = CIRCLE ( 'NONE', #220, 21.19999999999999574 ) ;
#100 = CC_DESIGN_DATE_AND_TIME_ASSIGNMENT ( #22, #123, ( #124 ) ) ;
#101 = CARTESIAN_POINT ( 'NONE',  ( -71.79999999999999716, 0.000000000000000000, -1.475468938627537436E-14 ) ) ;
#102 = VERTEX_POINT ( 'NONE', #194 ) ;
#103 = DIRECTION ( 'NONE',  ( 0.000000000000000000, 1.000000000000000000, 0.000000000000000000 ) ) ;
#104 = ADVANCED_FACE ( 'NONE', ( #191 ), #174, .F. ) ;
#105 = FACE_OUTER_BOUND ( 'NONE', #167, .T. ) ;
#106 = DIRECTION ( 'NONE',  ( -1.098647859353903399E-16, 0.000000000000000000, 1.000000000000000000 ) ) ;
#107 = LOCAL_TIME ( 10, 48, 52.00000000000000000, #110 ) ;
#108 = MECHANICAL_CONTEXT ( 'NONE', #181, 'mechanical' ) ;
#109 = ORIENTED_EDGE ( 'NONE', *, *, #21, .F. ) ;
#110 = COORDINATED_UNIVERSAL_TIME_OFFSET ( 1, 0, .AHEAD. ) ;
#111 = DIRECTION ( 'NONE',  ( -1.098647859353903399E-16, 0.000000000000000000, 1.000000000000000000 ) ) ;
#112 = CC_DESIGN_PERSON_AND_ORGANIZATION_ASSIGNMENT ( #231, #192, ( #124 ) ) ;
#113 = DATE_TIME_ROLE ( 'creation_date' ) ;
#114 = MANIFOLD_SOLID_BREP ( 'Wandung1', #147 ) ;
#115 = ORIENTED_EDGE ( 'NONE', *, *, #79, .T. ) ;
#116 = CARTESIAN_POINT ( 'NONE',  ( 0.000000000000000000, 0.000000000000000000, 0.000000000000000000 ) ) ;
#117 = AXIS2_PLACEMENT_3D ( 'NONE', #72, #48, #28 ) ;
#118 = ORIENTED_EDGE ( 'NONE', *, *, #212, .F. ) ;
#119 = DATE_AND_TIME ( #157, #3 ) ;
#120 = PERSON_AND_ORGANIZATION ( #82, #197 ) ;
#121 = AXIS2_PLACEMENT_3D ( 'NONE', #201, #127, #65 ) ;
#122 = CIRCLE ( 'NONE', #98, 75.00000000000001421 ) ;
#123 = DATE_TIME_ROLE ( 'classification_date' ) ;
#124 = SECURITY_CLASSIFICATION ( '', '', #213 ) ;
#125 =( GEOMETRIC_REPRESENTATION_CONTEXT ( 3 ) GLOBAL_UNCERTAINTY_ASSIGNED_CONTEXT ( ( #198 ) ) GLOBAL_UNIT_ASSIGNED_CONTEXT ( ( #57, #241, #67 ) ) REPRESENTATION_CONTEXT ( 'NONE', 'WORKASPACE' ) );
#126 = CIRCLE ( 'NONE', #247, 17.99999999999998934 ) ;
#127 = DIRECTION ( 'NONE',  ( 0.000000000000000000, 1.000000000000000000, 0.000000000000000000 ) ) ;
#128 = ORIENTED_EDGE ( 'NONE', *, *, #212, .T. ) ;
#129 = ORIENTED_EDGE ( 'NONE', *, *, #137, .F. ) ;
#130 = DATE_AND_TIME ( #35, #58 ) ;
#131 = PRODUCT_RELATED_PRODUCT_CATEGORY ( 'detail', '', ( #166 ) ) ;
#132 = CARTESIAN_POINT ( 'NONE',  ( -93.00000000000000000, 0.000000000000000000, -1.708382284810565730E-14 ) ) ;
#133 = APPLICATION_PROTOCOL_DEFINITION ( 'international standard', 'config_control_design', 1994, #181 ) ;
#134 = DIRECTION ( 'NONE',  ( -1.000000000000000000, 0.000000000000000000, 3.059992022972416336E-15 ) ) ;
#135 = DIRECTION ( 'NONE',  ( -1.000000000000000000, 0.000000000000000000, 3.059992022972416336E-15 ) ) ;
#136 = PERSON_AND_ORGANIZATION ( #82, #197 ) ;
#137 = EDGE_CURVE ( 'NONE', #102, #250, #142, .T. ) ;
#138 = APPROVAL_PERSON_ORGANIZATION ( #120, #151, #25 ) ;
#139 = AXIS2_PLACEMENT_3D ( 'NONE', #178, #143, #236 ) ;
#140 = CIRCLE ( 'NONE', #69, 114.2000000000000028 ) ;
#141 = AXIS2_PLACEMENT_3D ( 'NONE', #172, #71, #89 ) ;
#142 = CIRCLE ( 'NONE', #27, 17.99999999999998934 ) ;
#143 = DIRECTION ( 'NONE',  ( 0.000000000000000000, 1.000000000000000000, 0.000000000000000000 ) ) ;
#144 = PERSON_AND_ORGANIZATION ( #82, #197 ) ;
#145 = APPROVAL_PERSON_ORGANIZATION ( #144, #177, #78 ) ;
#146 = CARTESIAN_POINT ( 'NONE',  ( 0.000000000000000000, 0.000000000000000000, 0.000000000000000000 ) ) ;
#147 = CLOSED_SHELL ( 'NONE', ( #104, #163, #30, #193, #238, #155 ) ) ;
#148 = ORIENTED_EDGE ( 'NONE', *, *, #51, .F. ) ;
#149 = DIRECTION ( 'NONE',  ( -1.098647859353903399E-16, 0.000000000000000000, 1.000000000000000000 ) ) ;
#150 = APPROVAL_STATUS ( 'not_yet_approved' ) ;
#151 = APPROVAL ( #161, 'UNSPECIFIED' ) ;
#152 = DIRECTION ( 'NONE',  ( 3.059992022972416336E-15, 0.000000000000000000, 1.000000000000000000 ) ) ;
#153 = ORIENTED_EDGE ( 'NONE', *, *, #137, .T. ) ;
#154 = DIRECTION ( 'NONE',  ( 1.000000000000000000, 0.000000000000000000, 1.098647859353907344E-16 ) ) ;
#155 = ADVANCED_FACE ( 'NONE', ( #214 ), #61, .F. ) ;
#156 = EDGE_LOOP ( 'NONE', ( #118, #96, #204, #153 ) ) ;
#157 = CALENDAR_DATE ( 2024, 5, 8 ) ;
#158 = LOCAL_TIME ( 10, 48, 52.00000000000000000, #26 ) ;
#159 = DIRECTION ( 'NONE',  ( -1.098647859353903399E-16, 0.000000000000000000, 1.000000000000000000 ) ) ;
#160 = EDGE_CURVE ( 'NONE', #199, #175, #140, .T. ) ;
#161 = APPROVAL_STATUS ( 'not_yet_approved' ) ;
#162 = AXIS2_PLACEMENT_3D ( 'NONE', #180, #103, #165 ) ;
#163 = ADVANCED_FACE ( 'NONE', ( #45 ), #50, .T. ) ;
#164 = AXIS2_PLACEMENT_3D ( 'NONE', #73, #149, #245 ) ;
#165 = DIRECTION ( 'NONE',  ( 0.000000000000000000, 0.000000000000000000, 1.000000000000000000 ) ) ;
#166 = PRODUCT ( '3D_R1655_42.4x3.2_17362170', '3D_R1655_42.4x3.2_17362170', '', ( #108 ) ) ;
#167 = EDGE_LOOP ( 'NONE', ( #242, #7 ) ) ;
#168 = DIRECTION ( 'NONE',  ( -1.000000000000000000, 0.000000000000000000, 3.059992022972416336E-15 ) ) ;
#169 = VERTEX_POINT ( 'NONE', #101 ) ;
#170 = APPLICATION_PROTOCOL_DEFINITION ( 'international standard', 'config_control_design', 1994, #218 ) ;
#171 = ORIENTED_EDGE ( 'NONE', *, *, #221, .F. ) ;
#172 = CARTESIAN_POINT ( 'NONE',  ( -2.845792581364347228E-13, 0.000000000000000000, -93.00000000000000000 ) ) ;
#173 = DIRECTION ( 'NONE',  ( 1.000000000000000000, 0.000000000000000000, 1.098647859353907467E-16 ) ) ;
#174 = TOROIDAL_SURFACE ( 'NONE', #17, 93.00000000000000000, 17.99999999999999645 ) ;
#175 = VERTEX_POINT ( 'NONE', #184 ) ;
#176 = APPROVAL_DATE_TIME ( #119, #177 ) ;
#177 = APPROVAL ( #215, 'UNSPECIFIED' ) ;
#178 = CARTESIAN_POINT ( 'NONE',  ( 0.000000000000000000, -2.596251214192388375E-15, 0.000000000000000000 ) ) ;
#179 = CIRCLE ( 'NONE', #139, 71.79999999999999716 ) ;
#180 = CARTESIAN_POINT ( 'NONE',  ( 0.000000000000000000, 0.000000000000000000, 0.000000000000000000 ) ) ;
#181 = APPLICATION_CONTEXT ( 'configuration controlled 3d designs of mechanical parts and assemblies' ) ;
#182 = EDGE_LOOP ( 'NONE', ( #52, #128, #207, #171 ) ) ;
#183 = EDGE_LOOP ( 'NONE', ( #129, #228 ) ) ;
#184 = CARTESIAN_POINT ( 'NONE',  ( -114.2000000000000028, 0.000000000000000000, -1.941295630993593392E-14 ) ) ;
#185 = PRODUCT_DEFINITION_FORMATION_WITH_SPECIFIED_SOURCE ( 'ANY', '', #166, .NOT_KNOWN. ) ;
#186 = VERTEX_POINT ( 'NONE', #6 ) ;
#187 = ORIENTED_EDGE ( 'NONE', *, *, #160, .F. ) ;
#188 = CALENDAR_DATE ( 2024, 5, 8 ) ;
#189 = CARTESIAN_POINT ( 'NONE',  ( -2.128410294933051830E-13, 0.000000000000000000, -71.79999999999999716 ) ) ;
#190 = CARTESIAN_POINT ( 'NONE',  ( -110.9999999999999858, 0.000000000000000000, -1.219499123882832576E-14 ) ) ;
#191 = FACE_OUTER_BOUND ( 'NONE', #182, .T. ) ;
#192 = PERSON_AND_ORGANIZATION_ROLE ( 'classification_officer' ) ;
#193 = ADVANCED_FACE ( 'NONE', ( #86, #105 ), #14, .T. ) ;
#194 = CARTESIAN_POINT ( 'NONE',  ( -75.00000000000001421, 0.000000000000000000, -8.239858945154276679E-15 ) ) ;
#195 = AXIS2_PLACEMENT_3D ( 'NONE', #116, #243, #229 ) ;
#196 = EDGE_CURVE ( 'NONE', #250, #102, #20, .T. ) ;
#197 = ORGANIZATION ( 'UNSPECIFIED', 'UNSPECIFIED', '' ) ;
#198 = UNCERTAINTY_MEASURE_WITH_UNIT (LENGTH_MEASURE( 1.000000000000000082E-05 ), #57, 'distance_accuracy_value', 'NONE');
#199 = VERTEX_POINT ( 'NONE', #249 ) ;
#200 = CC_DESIGN_PERSON_AND_ORGANIZATION_ASSIGNMENT ( #41, #81, ( #185 ) ) ;
#201 = CARTESIAN_POINT ( 'NONE',  ( 0.000000000000000000, 0.000000000000000000, 0.000000000000000000 ) ) ;
#202 = ORIENTED_EDGE ( 'NONE', *, *, #51, .T. ) ;
#203 = CARTESIAN_POINT ( 'NONE',  ( -93.00000000000000000, 0.000000000000000000, -1.708382284810565730E-14 ) ) ;
#204 = ORIENTED_EDGE ( 'NONE', *, *, #221, .T. ) ;
#205 = PERSON_AND_ORGANIZATION ( #82, #197 ) ;
#206 = EDGE_LOOP ( 'NONE', ( #187, #202, #115, #5 ) ) ;
#207 = ORIENTED_EDGE ( 'NONE', *, *, #196, .T. ) ;
#208 = APPROVAL_DATE_TIME ( #130, #64 ) ;
#209 = DIRECTION ( 'NONE',  ( -1.000000000000000000, 0.000000000000000000, 3.059992022972416336E-15 ) ) ;
#210 = CARTESIAN_POINT ( 'NONE',  ( 0.000000000000000000, -2.204364238465235033E-15, 0.000000000000000000 ) ) ;
#211 = DIRECTION ( 'NONE',  ( 3.059992022972417125E-15, 0.000000000000000000, 1.000000000000000000 ) ) ;
#212 = EDGE_CURVE ( 'NONE', #90, #250, #55, .T. ) ;
#213 = SECURITY_CLASSIFICATION_LEVEL ( 'unclassified' ) ;
#214 = FACE_OUTER_BOUND ( 'NONE', #156, .T. ) ;
#215 = APPROVAL_STATUS ( 'not_yet_approved' ) ;
#216 = AXIS2_PLACEMENT_3D ( 'NONE', #223, #75, #251 ) ;
#217 = CC_DESIGN_DATE_AND_TIME_ASSIGNMENT ( #16, #113, ( #85 ) ) ;
#218 = APPLICATION_CONTEXT ( 'configuration controlled 3d designs of mechanical parts and assemblies' ) ;
#219 = DIRECTION ( 'NONE',  ( 0.000000000000000000, 0.000000000000000000, 1.000000000000000000 ) ) ;
#220 = AXIS2_PLACEMENT_3D ( 'NONE', #33, #106, #225 ) ;
#221 = EDGE_CURVE ( 'NONE', #186, #102, #122, .T. ) ;
#222 = ORIENTED_EDGE ( 'NONE', *, *, #79, .F. ) ;
#223 = CARTESIAN_POINT ( 'NONE',  ( 0.000000000000000000, 0.000000000000000000, 0.000000000000000000 ) ) ;
#224 = COORDINATED_UNIVERSAL_TIME_OFFSET ( 1, 0, .AHEAD. ) ;
#225 = DIRECTION ( 'NONE',  ( 1.000000000000000000, 0.000000000000000000, 1.098647859353907467E-16 ) ) ;
#226 = DIRECTION ( 'NONE',  ( 3.059992022972416336E-15, 0.000000000000000000, 1.000000000000000000 ) ) ;
#227 = CARTESIAN_POINT ( 'NONE',  ( -2.777128603803204196E-13, 0.000000000000000000, -93.00000000000000000 ) ) ;
#228 = ORIENTED_EDGE ( 'NONE', *, *, #196, .F. ) ;
#229 = DIRECTION ( 'NONE',  ( 0.000000000000000000, 0.000000000000000000, 1.000000000000000000 ) ) ;
#230 = CC_DESIGN_APPROVAL ( #151, ( #185 ) ) ;
#231 = PERSON_AND_ORGANIZATION ( #82, #197 ) ;
#232 = DIRECTION ( 'NONE',  ( 1.000000000000000000, 0.000000000000000000, 1.098647859353903769E-16 ) ) ;
#233 = DIRECTION ( 'NONE',  ( 0.000000000000000000, 1.000000000000000000, 0.000000000000000000 ) ) ;
#234 = COORDINATED_UNIVERSAL_TIME_OFFSET ( 1, 0, .AHEAD. ) ;
#235 = CIRCLE ( 'NONE', #95, 21.19999999999999574 ) ;
#236 = DIRECTION ( 'NONE',  ( 0.000000000000000000, 0.000000000000000000, 1.000000000000000000 ) ) ;
#237 = AXIS2_PLACEMENT_3D ( 'NONE', #227, #168, #93 ) ;
#238 = ADVANCED_FACE ( 'NONE', ( #11, #29 ), #94, .F. ) ;
#239 = CC_DESIGN_SECURITY_CLASSIFICATION ( #124, ( #185 ) ) ;
#240 = AXIS2_PLACEMENT_3D ( 'NONE', #54, #209, #226 ) ;
#241 =( NAMED_UNIT ( * ) PLANE_ANGLE_UNIT ( ) SI_UNIT ( $, .RADIAN. ) );
#242 = ORIENTED_EDGE ( 'NONE', *, *, #36, .T. ) ;
#243 = DIRECTION ( 'NONE',  ( 0.000000000000000000, 1.000000000000000000, 0.000000000000000000 ) ) ;
#244 = EDGE_LOOP ( 'NONE', ( #12, #15, #88, #222 ) ) ;
#245 = DIRECTION ( 'NONE',  ( 1.000000000000000000, 0.000000000000000000, 1.098647859353903769E-16 ) ) ;
#246 = EDGE_CURVE ( 'NONE', #186, #90, #53, .T. ) ;
#247 = AXIS2_PLACEMENT_3D ( 'NONE', #56, #134, #211 ) ;
#248 = ORIENTED_EDGE ( 'NONE', *, *, #246, .T. ) ;
#249 = CARTESIAN_POINT ( 'NONE',  ( -3.425846912673356057E-13, 0.000000000000000000, -114.2000000000000028 ) ) ;
#250 = VERTEX_POINT ( 'NONE', #190 ) ;
#251 = DIRECTION ( 'NONE',  ( 1.000000000000000000, 0.000000000000000000, 0.000000000000000000 ) ) ;
#252 = AXIS2_PLACEMENT_3D ( 'NONE', #203, #19, #154 ) ;
#253 = LOCAL_TIME ( 10, 48, 52.00000000000000000, #234 ) ;
ENDSEC;
END-ISO-10303-21;
