ISO-10303-21;
HEADER;
FILE_DESCRIPTION (( 'STEP AP203' ),
    '1' );
FILE_NAME ('3D_R175_DN48.3x3_17336235.STEP',
    '2024-07-18T10:08:59',
    ( '' ),
    ( '' ),
    'SwSTEP 2.0',
    'SolidWorks 2024',
    '' );
FILE_SCHEMA (( 'CONFIG_CONTROL_DESIGN' ));
ENDSEC;

DATA;
#1 = EDGE_CURVE ( 'NONE', #83, #75, #66, .T. ) ;
#2 = CARTESIAN_POINT ( 'NONE',  ( 1.638663304892475225E-31, 9.638323665360463366, 0.000000000000000000 ) ) ;
#3 = DIRECTION ( 'NONE',  ( -1.000000000000000000, 0.000000000000000000, 0.000000000000000000 ) ) ;
#4 = CARTESIAN_POINT ( 'NONE',  ( 19.90499999999999403, 9.638323665360427839, 2.437659453702806153E-15 ) ) ;
#5 = CIRCLE ( 'NONE', #60, 24.14999999999999858 ) ;
#6 = AXIS2_PLACEMENT_3D ( 'NONE', #4, #224, #186 ) ;
#7 = CARTESIAN_POINT ( 'NONE',  ( 9.679560408253449114E-16, 9.638323665360548631, 0.000000000000000000 ) ) ;
#8 = DIRECTION ( 'NONE',  ( 1.000000000000000000, 0.000000000000000000, 1.224646799147353207E-16 ) ) ;
#9 = DIRECTION ( 'NONE',  ( -1.224646799147353207E-16, 5.629680630014033300E-34, 1.000000000000000000 ) ) ;
#10 = FACE_OUTER_BOUND ( 'NONE', #169, .T. ) ;
#11 = EDGE_CURVE ( 'NONE', #340, #75, #276, .T. ) ;
#12 = ORIENTED_EDGE ( 'NONE', *, *, #55, .F. ) ;
#13 = CARTESIAN_POINT ( 'NONE',  ( 0.000000000000000000, 9.638323665360427839, 0.000000000000000000 ) ) ;
#14 = VERTEX_POINT ( 'NONE', #155 ) ;
#15 = APPROVAL ( #25, 'UNSPECIFIED' ) ;
#16 = SPHERICAL_SURFACE ( 'NONE', #288, 32.63999999999999346 ) ;
#17 = ORIENTED_EDGE ( 'NONE', *, *, #287, .F. ) ;
#18 = DIRECTION ( 'NONE',  ( -1.000000000000000000, 0.000000000000000000, 0.000000000000000000 ) ) ;
#19 = CIRCLE ( 'NONE', #361, 35.64000000000000057 ) ;
#20 = ORIENTED_EDGE ( 'NONE', *, *, #257, .F. ) ;
#21 = PERSON_AND_ORGANIZATION ( #243, #332 ) ;
#22 = CARTESIAN_POINT ( 'NONE',  ( 9.830467208461675759E-16, 12.92105925890885132, 0.000000000000000000 ) ) ;
#23 = SHAPE_DEFINITION_REPRESENTATION ( #275, #395 ) ;
#24 = FACE_OUTER_BOUND ( 'NONE', #411, .T. ) ;
#25 = APPROVAL_STATUS ( 'not_yet_approved' ) ;
#26 = ORIENTED_EDGE ( 'NONE', *, *, #339, .F. ) ;
#27 = EDGE_CURVE ( 'NONE', #338, #14, #29, .T. ) ;
#28 = CIRCLE ( 'NONE', #216, 21.14999999999999858 ) ;
#29 = CIRCLE ( 'NONE', #255, 21.14999999999999858 ) ;
#30 = APPROVAL_PERSON_ORGANIZATION ( #277, #291, #404 ) ;
#31 = APPROVAL_STATUS ( 'not_yet_approved' ) ;
#32 = CARTESIAN_POINT ( 'NONE',  ( -24.14999999999999858, 1.110171416848492936E-16, 0.000000000000000000 ) ) ;
#33 = PERSON_AND_ORGANIZATION_ROLE ( 'design_owner' ) ;
#34 = SPHERICAL_SURFACE ( 'NONE', #41, 32.63999999999999346 ) ;
#35 = ADVANCED_FACE ( 'NONE', ( #247 ), #283, .F. ) ;
#36 = DIRECTION ( 'NONE',  ( -1.000000000000000000, 4.596983092540343816E-18, 0.000000000000000000 ) ) ;
#37 = CARTESIAN_POINT ( 'NONE',  ( -21.14999999999998437, 2817.965330118411202, 0.000000000000000000 ) ) ;
#38 = DIRECTION ( 'NONE',  ( -0.000000000000000000, 0.000000000000000000, -1.000000000000000000 ) ) ;
#39 = CARTESIAN_POINT ( 'NONE',  ( 1.387778780781445676E-14, 2817.965330118411202, 0.000000000000000000 ) ) ;
#40 = CIRCLE ( 'NONE', #267, 4.245000000000001883 ) ;
#41 = AXIS2_PLACEMENT_3D ( 'NONE', #402, #156, #119 ) ;
#42 = CYLINDRICAL_SURFACE ( 'NONE', #325, 21.14999999999999858 ) ;
#43 = CYLINDRICAL_SURFACE ( 'NONE', #67, 24.14999999999999858 ) ;
#44 = CIRCLE ( 'NONE', #6, 1.245000000000002993 ) ;
#45 = APPLICATION_PROTOCOL_DEFINITION ( 'international standard', 'config_control_design', 1994, #166 ) ;
#46 = ORIENTED_EDGE ( 'NONE', *, *, #205, .F. ) ;
#47 = CC_DESIGN_APPROVAL ( #410, ( #152 ) ) ;
#48 = CARTESIAN_POINT ( 'NONE',  ( 0.000000000000000000, 9.638323665360427839, 0.000000000000000000 ) ) ;
#49 = EDGE_LOOP ( 'NONE', ( #301, #329, #17 ) ) ;
#50 = FACE_OUTER_BOUND ( 'NONE', #363, .T. ) ;
#51 = ORIENTED_EDGE ( 'NONE', *, *, #287, .T. ) ;
#52 = CALENDAR_DATE ( 2024, 18, 7 ) ;
#53 = ORIENTED_EDGE ( 'NONE', *, *, #308, .T. ) ;
#54 = CARTESIAN_POINT ( 'NONE',  ( 2.223692393583974571E-15, 21.00000000000000000, 0.000000000000000000 ) ) ;
#55 = EDGE_CURVE ( 'NONE', #75, #340, #110, .T. ) ;
#56 = PERSON_AND_ORGANIZATION_ROLE ( 'creator' ) ;
#57 = ORIENTED_EDGE ( 'NONE', *, *, #168, .T. ) ;
#58 = COORDINATED_UNIVERSAL_TIME_OFFSET ( 1, 0, .AHEAD. ) ;
#59 = VERTEX_POINT ( 'NONE', #32 ) ;
#60 = AXIS2_PLACEMENT_3D ( 'NONE', #165, #365, #298 ) ;
#61 = VECTOR ( 'NONE', #285, 1000.000000000000000 ) ;
#62 = DATE_AND_TIME ( #282, #403 ) ;
#63 = FACE_OUTER_BOUND ( 'NONE', #310, .T. ) ;
#64 = DIRECTION ( 'NONE',  ( -1.000000000000000000, 0.000000000000000000, 0.000000000000000000 ) ) ;
#65 = DIRECTION ( 'NONE',  ( -0.000000000000000000, 0.000000000000000000, -1.000000000000000000 ) ) ;
#66 = CIRCLE ( 'NONE', #296, 4.245000000000001883 ) ;
#67 = AXIS2_PLACEMENT_3D ( 'NONE', #82, #387, #360 ) ;
#68 = DIRECTION ( 'NONE',  ( -1.224646799147353207E-16, 5.629680630014033300E-34, 1.000000000000000000 ) ) ;
#69 = EDGE_CURVE ( 'NONE', #340, #105, #150, .T. ) ;
#70 = DIRECTION ( 'NONE',  ( 4.596983092540343816E-18, 1.000000000000000000, -0.000000000000000000 ) ) ;
#71 = FACE_OUTER_BOUND ( 'NONE', #336, .T. ) ;
#72 = AXIS2_PLACEMENT_3D ( 'NONE', #126, #189, #323 ) ;
#73 = CARTESIAN_POINT ( 'NONE',  ( 4.242176512246419947E-15, -14.63999999999999702, 0.000000000000000000 ) ) ;
#74 = EDGE_CURVE ( 'NONE', #230, #338, #218, .T. ) ;
#75 = VERTEX_POINT ( 'NONE', #280 ) ;
#76 = CC_DESIGN_DATE_AND_TIME_ASSIGNMENT ( #337, #370, ( #278 ) ) ;
#77 =( LENGTH_UNIT ( ) NAMED_UNIT ( * ) SI_UNIT ( .MILLI., .METRE. ) );
#78 = ORIENTED_EDGE ( 'NONE', *, *, #185, .F. ) ;
#79 = AXIS2_PLACEMENT_3D ( 'NONE', #342, #369, #373 ) ;
#80 = DIRECTION ( 'NONE',  ( 4.596983092540343816E-18, 1.000000000000000000, -0.000000000000000000 ) ) ;
#81 = APPROVAL_PERSON_ORGANIZATION ( #21, #410, #123 ) ;
#82 = CARTESIAN_POINT ( 'NONE',  ( 1.387778780781445676E-14, 2817.965330118411202, 0.000000000000000000 ) ) ;
#83 = VERTEX_POINT ( 'NONE', #270 ) ;
#84 = PERSON_AND_ORGANIZATION ( #243, #332 ) ;
#85 = VERTEX_POINT ( 'NONE', #92 ) ;
#86 = DIRECTION ( 'NONE',  ( 4.596983092540343816E-18, 1.000000000000000000, -0.000000000000000000 ) ) ;
#87 = EDGE_CURVE ( 'NONE', #230, #85, #28, .T. ) ;
#88 = PERSON_AND_ORGANIZATION ( #243, #332 ) ;
#89 = ORIENTED_EDGE ( 'NONE', *, *, #1, .T. ) ;
#90 = APPROVAL_DATE_TIME ( #249, #410 ) ;
#91 = CC_DESIGN_PERSON_AND_ORGANIZATION_ASSIGNMENT ( #88, #309, ( #278 ) ) ;
#92 = CARTESIAN_POINT ( 'NONE',  ( -21.14999999999999858, 9.722619240722826832E-17, 0.000000000000000000 ) ) ;
#93 = ORIENTED_EDGE ( 'NONE', *, *, #389, .F. ) ;
#94 = CIRCLE ( 'NONE', #305, 1.245000000000002993 ) ;
#95 = DIRECTION ( 'NONE',  ( 4.596983092540343816E-18, 1.000000000000000000, -0.000000000000000000 ) ) ;
#96 = DIRECTION ( 'NONE',  ( -1.000000000000000000, 0.000000000000000000, 0.000000000000000000 ) ) ;
#97 = CARTESIAN_POINT ( 'NONE',  ( 1.387778780781445676E-14, 2817.965330118411202, 0.000000000000000000 ) ) ;
#98 = TOROIDAL_SURFACE ( 'NONE', #129, 19.90499999999999403, 4.245000000000001883 ) ;
#99 = EDGE_CURVE ( 'NONE', #355, #408, #209, .T. ) ;
#100 = DIRECTION ( 'NONE',  ( 1.000000000000000000, -4.596983092540343816E-18, 0.000000000000000000 ) ) ;
#101 = CARTESIAN_POINT ( 'NONE',  ( 20.69435260391785647, 10.60110477583575062, 2.562227623939060434E-15 ) ) ;
#102 = DIRECTION ( 'NONE',  ( 4.596983092540343816E-18, 1.000000000000000000, -0.000000000000000000 ) ) ;
#103 = ADVANCED_FACE ( 'NONE', ( #63 ), #314, .F. ) ;
#104 = DIRECTION ( 'NONE',  ( -1.000000000000000000, 0.000000000000000000, 0.000000000000000000 ) ) ;
#105 = VERTEX_POINT ( 'NONE', #54 ) ;
#106 = DIRECTION ( 'NONE',  ( -1.000000000000000000, 0.000000000000000000, 0.000000000000000000 ) ) ;
#107 = ORIENTED_EDGE ( 'NONE', *, *, #219, .T. ) ;
#108 = VERTEX_POINT ( 'NONE', #183 ) ;
#109 = CIRCLE ( 'NONE', #353, 21.14999999999999858 ) ;
#110 = CIRCLE ( 'NONE', #379, 22.59640707118967740 ) ;
#111 = CARTESIAN_POINT ( 'NONE',  ( 4.242176512246419947E-15, -14.63999999999999702, 0.000000000000000000 ) ) ;
#112 = ORIENTED_EDGE ( 'NONE', *, *, #228, .F. ) ;
#113 = CARTESIAN_POINT ( 'NONE',  ( 24.14999999999999858, -1.110171416848492936E-16, 2.957522019940857930E-15 ) ) ;
#114 = EDGE_LOOP ( 'NONE', ( #20, #107, #198 ) ) ;
#115 = EDGE_LOOP ( 'NONE', ( #335, #390, #89, #121 ) ) ;
#116 = ADVANCED_FACE ( 'NONE', ( #24 ), #34, .F. ) ;
#117 = COORDINATED_UNIVERSAL_TIME_OFFSET ( 1, 0, .AHEAD. ) ;
#118 = UNCERTAINTY_MEASURE_WITH_UNIT (LENGTH_MEASURE( 1.000000000000000082E-05 ), #77, 'distance_accuracy_value', 'NONE');
#119 = DIRECTION ( 'NONE',  ( -1.000000000000000000, 0.000000000000000000, 0.000000000000000000 ) ) ;
#120 = APPLICATION_PROTOCOL_DEFINITION ( 'international standard', 'config_control_design', 1994, #400 ) ;
#121 = ORIENTED_EDGE ( 'NONE', *, *, #11, .F. ) ;
#122 = DIRECTION ( 'NONE',  ( -1.000000000000000000, 0.000000000000000000, 0.000000000000000000 ) ) ;
#123 = APPROVAL_ROLE ( '' ) ;
#124 = AXIS2_PLACEMENT_3D ( 'NONE', #157, #284, #326 ) ;
#125 = DIRECTION ( 'NONE',  ( -1.000000000000000000, 0.000000000000000000, 0.000000000000000000 ) ) ;
#126 = CARTESIAN_POINT ( 'NONE',  ( 9.679560408253449114E-16, 9.638323665360548631, 0.000000000000000000 ) ) ;
#127 = DIRECTION ( 'NONE',  ( 1.000000000000000000, -4.596983092540343816E-18, 0.000000000000000000 ) ) ;
#128 = CIRCLE ( 'NONE', #192, 21.14999999999999858 ) ;
#129 = AXIS2_PLACEMENT_3D ( 'NONE', #190, #382, #36 ) ;
#130 = PRODUCT_RELATED_PRODUCT_CATEGORY ( 'detail', '', ( #147 ) ) ;
#131 = AXIS2_PLACEMENT_3D ( 'NONE', #13, #229, #263 ) ;
#132 = DIRECTION ( 'NONE',  ( 4.596983092540343816E-18, 1.000000000000000000, -0.000000000000000000 ) ) ;
#133 = DIRECTION ( 'NONE',  ( -1.000000000000000000, 0.000000000000000000, 0.000000000000000000 ) ) ;
#134 = DIRECTION ( 'NONE',  ( -0.000000000000000000, 0.000000000000000000, -1.000000000000000000 ) ) ;
#135 = ORIENTED_EDGE ( 'NONE', *, *, #212, .T. ) ;
#136 = LOCAL_TIME ( 12, 8, 59.00000000000000000, #398 ) ;
#137 = ORIENTED_EDGE ( 'NONE', *, *, #293, .F. ) ;
#138 = ORIENTED_EDGE ( 'NONE', *, *, #205, .T. ) ;
#139 = PRODUCT_DEFINITION ( 'UNKNOWN', '', #152, #176 ) ;
#140 = FACE_OUTER_BOUND ( 'NONE', #114, .T. ) ;
#141 = ORIENTED_EDGE ( 'NONE', *, *, #322, .T. ) ;
#142 = CIRCLE ( 'NONE', #124, 20.69435260391785292 ) ;
#143 = SPHERICAL_SURFACE ( 'NONE', #256, 35.64000000000000057 ) ;
#144 = ORIENTED_EDGE ( 'NONE', *, *, #273, .F. ) ;
#145 = ADVANCED_FACE ( 'NONE', ( #272 ), #251, .T. ) ;
#146 = CARTESIAN_POINT ( 'NONE',  ( 21.15000000000001279, 2817.965330118411202, 2.590127980196652091E-15 ) ) ;
#147 = PRODUCT ( '3D_R175_DN48.3x3_17336235', '3D_R175_DN48.3x3_17336235', '', ( #300 ) ) ;
#148 = PERSON_AND_ORGANIZATION_ROLE ( 'creator' ) ;
#149 = VERTEX_POINT ( 'NONE', #101 ) ;
#150 = CIRCLE ( 'NONE', #199, 35.64000000000000057 ) ;
#151 = DIRECTION ( 'NONE',  ( 4.596983092540343816E-18, 1.000000000000000000, -0.000000000000000000 ) ) ;
#152 = PRODUCT_DEFINITION_FORMATION_WITH_SPECIFIED_SOURCE ( 'ANY', '', #147, .NOT_KNOWN. ) ;
#153 = MANIFOLD_SOLID_BREP ( 'Wandung1', #320 ) ;
#154 = PERSON_AND_ORGANIZATION ( #243, #332 ) ;
#155 = CARTESIAN_POINT ( 'NONE',  ( -21.14999999999999858, 9.638323665360463366, 0.000000000000000000 ) ) ;
#156 = DIRECTION ( 'NONE',  ( 0.000000000000000000, 0.000000000000000000, 1.000000000000000000 ) ) ;
#157 = CARTESIAN_POINT ( 'NONE',  ( 4.358209444137975769E-15, 10.60110477583575062, 0.000000000000000000 ) ) ;
#158 = ADVANCED_FACE ( 'NONE', ( #225 ), #98, .T. ) ;
#159 = DIRECTION ( 'NONE',  ( -1.000000000000000000, 0.000000000000000000, 0.000000000000000000 ) ) ;
#160 = DIRECTION ( 'NONE',  ( -1.000000000000000000, 0.000000000000000000, 0.000000000000000000 ) ) ;
#161 = CARTESIAN_POINT ( 'NONE',  ( -20.69435260391784936, 10.60110477583575062, 0.000000000000000000 ) ) ;
#162 = TOROIDAL_SURFACE ( 'NONE', #392, 19.90499999999999403, 4.245000000000001883 ) ;
#163 = CIRCLE ( 'NONE', #386, 24.15000000000000213 ) ;
#164 = DIRECTION ( 'NONE',  ( 4.596983092540343816E-18, 1.000000000000000000, -0.000000000000000000 ) ) ;
#165 = CARTESIAN_POINT ( 'NONE',  ( 9.236488298952508525E-16, 0.000000000000000000, 0.000000000000000000 ) ) ;
#166 = APPLICATION_CONTEXT ( 'configuration controlled 3d designs of mechanical parts and assemblies' ) ;
#167 = EDGE_LOOP ( 'NONE', ( #269, #358, #51 ) ) ;
#168 = EDGE_CURVE ( 'NONE', #338, #149, #44, .T. ) ;
#169 = EDGE_LOOP ( 'NONE', ( #385, #144, #53, #135 ) ) ;
#170 = CARTESIAN_POINT ( 'NONE',  ( 0.000000000000000000, 0.000000000000000000, 0.000000000000000000 ) ) ;
#171 = ORIENTED_EDGE ( 'NONE', *, *, #185, .T. ) ;
#172 = ORIENTED_EDGE ( 'NONE', *, *, #219, .F. ) ;
#173 = CALENDAR_DATE ( 2024, 18, 7 ) ;
#174 = EDGE_LOOP ( 'NONE', ( #299, #364, #12, #195 ) ) ;
#175 = PERSON_AND_ORGANIZATION ( #243, #332 ) ;
#176 = DESIGN_CONTEXT ( 'detailed design', #400, 'design' ) ;
#177 = CARTESIAN_POINT ( 'NONE',  ( 9.830467208461675759E-16, 12.92105925890885132, 0.000000000000000000 ) ) ;
#178 = DIRECTION ( 'NONE',  ( -0.000000000000000000, 0.000000000000000000, -1.000000000000000000 ) ) ;
#179 = CIRCLE ( 'NONE', #215, 32.63999999999999346 ) ;
#180 = AXIS2_PLACEMENT_3D ( 'NONE', #211, #151, #64 ) ;
#181 = DATE_AND_TIME ( #52, #302 ) ;
#182 = DIRECTION ( 'NONE',  ( -1.000000000000000000, 0.000000000000000000, 0.000000000000000000 ) ) ;
#183 = CARTESIAN_POINT ( 'NONE',  ( 2.393598464178456552E-15, 18.00000000000000000, 0.000000000000000000 ) ) ;
#184 = DIRECTION ( 'NONE',  ( -1.000000000000000000, 0.000000000000000000, 0.000000000000000000 ) ) ;
#185 = EDGE_CURVE ( 'NONE', #85, #14, #321, .T. ) ;
#186 = DIRECTION ( 'NONE',  ( 1.000000000000000000, 0.000000000000000000, 1.224646799147353454E-16 ) ) ;
#187 = AXIS2_PLACEMENT_3D ( 'NONE', #226, #233, #235 ) ;
#188 = CC_DESIGN_PERSON_AND_ORGANIZATION_ASSIGNMENT ( #154, #56, ( #139 ) ) ;
#189 = DIRECTION ( 'NONE',  ( 4.596983092540343816E-18, 1.000000000000000000, -0.000000000000000000 ) ) ;
#190 = CARTESIAN_POINT ( 'NONE',  ( 0.000000000000000000, 9.638323665360427839, 0.000000000000000000 ) ) ;
#191 = CARTESIAN_POINT ( 'NONE',  ( 4.242176512246419947E-15, -14.63999999999999702, 0.000000000000000000 ) ) ;
#192 = AXIS2_PLACEMENT_3D ( 'NONE', #2, #292, #125 ) ;
#193 = CARTESIAN_POINT ( 'NONE',  ( 19.90499999999999403, 9.638323665360427839, 2.437659453702806153E-15 ) ) ;
#194 = CARTESIAN_POINT ( 'NONE',  ( 4.242176512246419947E-15, -14.63999999999999702, 0.000000000000000000 ) ) ;
#195 = ORIENTED_EDGE ( 'NONE', *, *, #1, .F. ) ;
#196 = CC_DESIGN_PERSON_AND_ORGANIZATION_ASSIGNMENT ( #317, #33, ( #147 ) ) ;
#197 = DIRECTION ( 'NONE',  ( -1.000000000000000000, 4.596983092540343816E-18, 0.000000000000000000 ) ) ;
#198 = ORIENTED_EDGE ( 'NONE', *, *, #334, .F. ) ;
#199 = AXIS2_PLACEMENT_3D ( 'NONE', #371, #405, #245 ) ;
#200 = AXIS2_PLACEMENT_3D ( 'NONE', #22, #312, #375 ) ;
#201 = LOCAL_TIME ( 12, 8, 59.00000000000000000, #244 ) ;
#202 = DIRECTION ( 'NONE',  ( 1.000000000000000000, 0.000000000000000000, 0.000000000000000000 ) ) ;
#203 = EDGE_LOOP ( 'NONE', ( #141, #388 ) ) ;
#204 = ORIENTED_EDGE ( 'NONE', *, *, #74, .T. ) ;
#205 = EDGE_CURVE ( 'NONE', #59, #83, #258, .T. ) ;
#206 = SECURITY_CLASSIFICATION_LEVEL ( 'unclassified' ) ;
#207 = ORIENTED_EDGE ( 'NONE', *, *, #273, .T. ) ;
#208 = CALENDAR_DATE ( 2024, 18, 7 ) ;
#209 = LINE ( 'NONE', #318, #254 ) ;
#210 = APPROVAL_DATE_TIME ( #181, #15 ) ;
#211 = CARTESIAN_POINT ( 'NONE',  ( 1.387778780781445676E-14, 2817.965330118411202, 0.000000000000000000 ) ) ;
#212 = EDGE_CURVE ( 'NONE', #260, #149, #344, .T. ) ;
#213 = PERSON_AND_ORGANIZATION_ROLE ( 'design_supplier' ) ;
#214 = DIRECTION ( 'NONE',  ( 4.596983092540343816E-18, 1.000000000000000000, -0.000000000000000000 ) ) ;
#215 = AXIS2_PLACEMENT_3D ( 'NONE', #111, #134, #106 ) ;
#216 = AXIS2_PLACEMENT_3D ( 'NONE', #316, #86, #345 ) ;
#217 = ORIENTED_EDGE ( 'NONE', *, *, #99, .F. ) ;
#218 = LINE ( 'NONE', #146, #393 ) ;
#219 = EDGE_CURVE ( 'NONE', #149, #108, #330, .T. ) ;
#220 = CARTESIAN_POINT ( 'NONE',  ( -24.14999999999998437, 2817.965330118411202, 0.000000000000000000 ) ) ;
#221 = DIRECTION ( 'NONE',  ( -4.596983092540343816E-18, -1.000000000000000000, 0.000000000000000000 ) ) ;
#222 = LOCAL_TIME ( 12, 8, 59.00000000000000000, #117 ) ;
#223 = DIRECTION ( 'NONE',  ( 4.596983092540343816E-18, 1.000000000000000000, -0.000000000000000000 ) ) ;
#224 = DIRECTION ( 'NONE',  ( -1.224646799147353207E-16, 5.629680630014033300E-34, 1.000000000000000000 ) ) ;
#225 = FACE_OUTER_BOUND ( 'NONE', #174, .T. ) ;
#226 = CARTESIAN_POINT ( 'NONE',  ( 9.236488298952508525E-16, 0.000000000000000000, 0.000000000000000000 ) ) ;
#227 = ORIENTED_EDGE ( 'NONE', *, *, #212, .F. ) ;
#228 = EDGE_CURVE ( 'NONE', #83, #408, #163, .T. ) ;
#229 = DIRECTION ( 'NONE',  ( 4.596983092540343816E-18, 1.000000000000000000, -0.000000000000000000 ) ) ;
#230 = VERTEX_POINT ( 'NONE', #376 ) ;
#231 = DIRECTION ( 'NONE',  ( 0.000000000000000000, 0.000000000000000000, 1.000000000000000000 ) ) ;
#232 = VECTOR ( 'NONE', #70, 1000.000000000000000 ) ;
#233 = DIRECTION ( 'NONE',  ( 4.596983092540343816E-18, 1.000000000000000000, -0.000000000000000000 ) ) ;
#234 = ORIENTED_EDGE ( 'NONE', *, *, #308, .F. ) ;
#235 = DIRECTION ( 'NONE',  ( -1.000000000000000000, 4.596983092540343816E-18, 0.000000000000000000 ) ) ;
#236 = ORIENTED_EDGE ( 'NONE', *, *, #322, .F. ) ;
#237 = CARTESIAN_POINT ( 'NONE',  ( 1.638663304892475225E-31, 9.638323665360463366, 0.000000000000000000 ) ) ;
#238 = APPROVAL_PERSON_ORGANIZATION ( #175, #15, #271 ) ;
#239 = COORDINATED_UNIVERSAL_TIME_OFFSET ( 1, 0, .AHEAD. ) ;
#240 = CIRCLE ( 'NONE', #187, 24.14999999999999858 ) ;
#241 = ORIENTED_EDGE ( 'NONE', *, *, #257, .T. ) ;
#242 = ADVANCED_FACE ( 'NONE', ( #290, #71 ), #378, .T. ) ;
#243 = PERSON ( 'UNSPECIFIED', 'UNSPECIFIED', 'UNSPECIFIED', ('UNSPECIFIED'), ('UNSPECIFIED'), ('UNSPECIFIED') ) ;
#244 = COORDINATED_UNIVERSAL_TIME_OFFSET ( 1, 0, .AHEAD. ) ;
#245 = DIRECTION ( 'NONE',  ( 1.000000000000000000, 0.000000000000000000, 1.224646799147353207E-16 ) ) ;
#246 = CC_DESIGN_PERSON_AND_ORGANIZATION_ASSIGNMENT ( #84, #148, ( #152 ) ) ;
#247 = FACE_OUTER_BOUND ( 'NONE', #266, .T. ) ;
#248 = AXIS2_PLACEMENT_3D ( 'NONE', #73, #383, #319 ) ;
#249 = DATE_AND_TIME ( #208, #222 ) ;
#250 = ADVANCED_FACE ( 'NONE', ( #324 ), #259, .T. ) ;
#251 = CYLINDRICAL_SURFACE ( 'NONE', #362, 24.14999999999999858 ) ;
#252 = CARTESIAN_POINT ( 'NONE',  ( -2.551719616537040292E-34, -5.550857084242464680E-17, 0.000000000000000000 ) ) ;
#253 = CARTESIAN_POINT ( 'NONE',  ( -19.90499999999999403, 9.638323665360427839, 0.000000000000000000 ) ) ;
#254 = VECTOR ( 'NONE', #214, 1000.000000000000000 ) ;
#255 = AXIS2_PLACEMENT_3D ( 'NONE', #237, #95, #182 ) ;
#256 = AXIS2_PLACEMENT_3D ( 'NONE', #384, #268, #104 ) ;
#257 = EDGE_CURVE ( 'NONE', #149, #260, #142, .T. ) ;
#258 = LINE ( 'NONE', #220, #61 ) ;
#259 = SPHERICAL_SURFACE ( 'NONE', #248, 35.64000000000000057 ) ;
#260 = VERTEX_POINT ( 'NONE', #161 ) ;
#261 = FACE_OUTER_BOUND ( 'NONE', #49, .T. ) ;
#262 = ORIENTED_EDGE ( 'NONE', *, *, #27, .T. ) ;
#263 = DIRECTION ( 'NONE',  ( -1.000000000000000000, 4.596983092540343816E-18, 0.000000000000000000 ) ) ;
#264 = ORIENTED_EDGE ( 'NONE', *, *, #334, .T. ) ;
#265 = CARTESIAN_POINT ( 'NONE',  ( 24.15000000000000568, 9.638323665360548631, 2.957522019940858719E-15 ) ) ;
#266 = EDGE_LOOP ( 'NONE', ( #366, #204, #262, #78 ) ) ;
#267 = AXIS2_PLACEMENT_3D ( 'NONE', #193, #9, #327 ) ;
#268 = DIRECTION ( 'NONE',  ( 0.000000000000000000, 0.000000000000000000, 1.000000000000000000 ) ) ;
#269 = ORIENTED_EDGE ( 'NONE', *, *, #69, .F. ) ;
#270 = CARTESIAN_POINT ( 'NONE',  ( -24.15000000000000213, 9.638323665360548631, 0.000000000000000000 ) ) ;
#271 = APPROVAL_ROLE ( '' ) ;
#272 = FACE_OUTER_BOUND ( 'NONE', #304, .T. ) ;
#273 = EDGE_CURVE ( 'NONE', #14, #338, #128, .T. ) ;
#274 = AXIS2_PLACEMENT_3D ( 'NONE', #352, #132, #159 ) ;
#275 = PRODUCT_DEFINITION_SHAPE ( 'NONE', 'NONE',  #139 ) ;
#276 = CIRCLE ( 'NONE', #200, 22.59640707118967740 ) ;
#277 = PERSON_AND_ORGANIZATION ( #243, #332 ) ;
#278 = SECURITY_CLASSIFICATION ( '', '', #206 ) ;
#279 = DIRECTION ( 'NONE',  ( 4.596983092540343816E-18, 1.000000000000000000, -0.000000000000000000 ) ) ;
#280 = CARTESIAN_POINT ( 'NONE',  ( -22.59640707118967740, 12.92105925890885132, 0.000000000000000000 ) ) ;
#281 = ADVANCED_FACE ( 'NONE', ( #349 ), #42, .F. ) ;
#282 = CALENDAR_DATE ( 2024, 18, 7 ) ;
#283 = CYLINDRICAL_SURFACE ( 'NONE', #180, 21.14999999999999858 ) ;
#284 = DIRECTION ( 'NONE',  ( 4.596983092540343816E-18, 1.000000000000000000, -0.000000000000000000 ) ) ;
#285 = DIRECTION ( 'NONE',  ( 4.596983092540343816E-18, 1.000000000000000000, -0.000000000000000000 ) ) ;
#286 = CARTESIAN_POINT ( 'NONE',  ( 9.236488298952508525E-16, 0.000000000000000000, 0.000000000000000000 ) ) ;
#287 = EDGE_CURVE ( 'NONE', #75, #105, #19, .T. ) ;
#288 = AXIS2_PLACEMENT_3D ( 'NONE', #194, #303, #18 ) ;
#289 = AXIS2_PLACEMENT_3D ( 'NONE', #191, #68, #8 ) ;
#290 = FACE_BOUND ( 'NONE', #203, .T. ) ;
#291 = APPROVAL ( #31, 'UNSPECIFIED' ) ;
#292 = DIRECTION ( 'NONE',  ( 4.596983092540343816E-18, 1.000000000000000000, -0.000000000000000000 ) ) ;
#293 = EDGE_CURVE ( 'NONE', #408, #83, #343, .T. ) ;
#294 = CARTESIAN_POINT ( 'NONE',  ( 21.14999999999999858, 9.638323665360463366, 2.590127980196652091E-15 ) ) ;
#295 = ORIENTED_EDGE ( 'NONE', *, *, #74, .F. ) ;
#296 = AXIS2_PLACEMENT_3D ( 'NONE', #399, #178, #122 ) ;
#297 = AXIS2_PLACEMENT_3D ( 'NONE', #170, #231, #202 ) ;
#298 = DIRECTION ( 'NONE',  ( -1.000000000000000000, 4.596983092540343816E-18, 0.000000000000000000 ) ) ;
#299 = ORIENTED_EDGE ( 'NONE', *, *, #228, .T. ) ;
#300 = MECHANICAL_CONTEXT ( 'NONE', #166, 'mechanical' ) ;
#301 = ORIENTED_EDGE ( 'NONE', *, *, #55, .T. ) ;
#302 = LOCAL_TIME ( 12, 8, 59.00000000000000000, #239 ) ;
#303 = DIRECTION ( 'NONE',  ( 0.000000000000000000, 0.000000000000000000, 1.000000000000000000 ) ) ;
#304 = EDGE_LOOP ( 'NONE', ( #217, #397, #138, #137 ) ) ;
#305 = AXIS2_PLACEMENT_3D ( 'NONE', #253, #38, #160 ) ;
#306 = DATE_AND_TIME ( #173, #136 ) ;
#307 = EDGE_LOOP ( 'NONE', ( #295, #236, #171, #207 ) ) ;
#308 = EDGE_CURVE ( 'NONE', #14, #260, #94, .T. ) ;
#309 = PERSON_AND_ORGANIZATION_ROLE ( 'classification_officer' ) ;
#310 = EDGE_LOOP ( 'NONE', ( #331, #57, #241, #234 ) ) ;
#311 = CC_DESIGN_SECURITY_CLASSIFICATION ( #278, ( #152 ) ) ;
#312 = DIRECTION ( 'NONE',  ( 4.596983092540343816E-18, 1.000000000000000000, -0.000000000000000000 ) ) ;
#313 = CC_DESIGN_PERSON_AND_ORGANIZATION_ASSIGNMENT ( #401, #213, ( #152 ) ) ;
#314 = TOROIDAL_SURFACE ( 'NONE', #79, 19.90499999999999403, 1.245000000000002105 ) ;
#315 = TOROIDAL_SURFACE ( 'NONE', #131, 19.90499999999999403, 1.245000000000002105 ) ;
#316 = CARTESIAN_POINT ( 'NONE',  ( 9.236488298952508525E-16, 0.000000000000000000, 0.000000000000000000 ) ) ;
#317 = PERSON_AND_ORGANIZATION ( #243, #332 ) ;
#318 = CARTESIAN_POINT ( 'NONE',  ( 24.15000000000001279, 2817.965330118411202, 2.957522019940857930E-15 ) ) ;
#319 = DIRECTION ( 'NONE',  ( -1.000000000000000000, 0.000000000000000000, 0.000000000000000000 ) ) ;
#320 = CLOSED_SHELL ( 'NONE', ( #348, #103, #35, #396, #158, #377, #242, #145, #359, #250, #281, #406, #116 ) ) ;
#321 = LINE ( 'NONE', #37, #232 ) ;
#322 = EDGE_CURVE ( 'NONE', #85, #230, #109, .T. ) ;
#323 = DIRECTION ( 'NONE',  ( -1.000000000000000000, 0.000000000000000000, 0.000000000000000000 ) ) ;
#324 = FACE_OUTER_BOUND ( 'NONE', #167, .T. ) ;
#325 = AXIS2_PLACEMENT_3D ( 'NONE', #97, #164, #96 ) ;
#326 = DIRECTION ( 'NONE',  ( -1.000000000000000000, 0.000000000000000000, 0.000000000000000000 ) ) ;
#327 = DIRECTION ( 'NONE',  ( 1.000000000000000000, 0.000000000000000000, 1.224646799147353454E-16 ) ) ;
#328 =( NAMED_UNIT ( * ) PLANE_ANGLE_UNIT ( ) SI_UNIT ( $, .RADIAN. ) );
#329 = ORIENTED_EDGE ( 'NONE', *, *, #69, .T. ) ;
#330 = CIRCLE ( 'NONE', #289, 32.63999999999999346 ) ;
#331 = ORIENTED_EDGE ( 'NONE', *, *, #27, .F. ) ;
#332 = ORGANIZATION ( 'UNSPECIFIED', 'UNSPECIFIED', '' ) ;
#333 = CARTESIAN_POINT ( 'NONE',  ( 22.59640707118967740, 12.92105925890885132, 2.862391889568581841E-15 ) ) ;
#334 = EDGE_CURVE ( 'NONE', #260, #108, #179, .T. ) ;
#335 = ORIENTED_EDGE ( 'NONE', *, *, #367, .F. ) ;
#336 = EDGE_LOOP ( 'NONE', ( #26, #93 ) ) ;
#337 = DATE_AND_TIME ( #341, #201 ) ;
#338 = VERTEX_POINT ( 'NONE', #294 ) ;
#339 = EDGE_CURVE ( 'NONE', #59, #355, #5, .T. ) ;
#340 = VERTEX_POINT ( 'NONE', #333 ) ;
#341 = CALENDAR_DATE ( 2024, 18, 7 ) ;
#342 = CARTESIAN_POINT ( 'NONE',  ( 0.000000000000000000, 9.638323665360427839, 0.000000000000000000 ) ) ;
#343 = CIRCLE ( 'NONE', #72, 24.15000000000000213 ) ;
#344 = CIRCLE ( 'NONE', #274, 20.69435260391785292 ) ;
#345 = DIRECTION ( 'NONE',  ( 1.000000000000000000, -4.596983092540343816E-18, 0.000000000000000000 ) ) ;
#346 = ORIENTED_EDGE ( 'NONE', *, *, #99, .T. ) ;
#347 = CARTESIAN_POINT ( 'NONE',  ( 4.242176512246419947E-15, -14.63999999999999702, 0.000000000000000000 ) ) ;
#348 = ADVANCED_FACE ( 'NONE', ( #140 ), #16, .F. ) ;
#349 = FACE_OUTER_BOUND ( 'NONE', #307, .T. ) ;
#350 = CC_DESIGN_APPROVAL ( #291, ( #139 ) ) ;
#351 = DIRECTION ( 'NONE',  ( -1.000000000000000000, 0.000000000000000000, 0.000000000000000000 ) ) ;
#352 = CARTESIAN_POINT ( 'NONE',  ( 4.358209444137975769E-15, 10.60110477583575062, 0.000000000000000000 ) ) ;
#353 = AXIS2_PLACEMENT_3D ( 'NONE', #286, #380, #100 ) ;
#354 = CC_DESIGN_DATE_AND_TIME_ASSIGNMENT ( #62, #372, ( #139 ) ) ;
#355 = VERTEX_POINT ( 'NONE', #113 ) ;
#356 = CC_DESIGN_APPROVAL ( #15, ( #278 ) ) ;
#357 =( NAMED_UNIT ( * ) SI_UNIT ( $, .STERADIAN. ) SOLID_ANGLE_UNIT ( ) );
#358 = ORIENTED_EDGE ( 'NONE', *, *, #11, .T. ) ;
#359 = ADVANCED_FACE ( 'NONE', ( #391 ), #162, .T. ) ;
#360 = DIRECTION ( 'NONE',  ( -1.000000000000000000, 0.000000000000000000, 0.000000000000000000 ) ) ;
#361 = AXIS2_PLACEMENT_3D ( 'NONE', #347, #65, #3 ) ;
#362 = AXIS2_PLACEMENT_3D ( 'NONE', #39, #223, #351 ) ;
#363 = EDGE_LOOP ( 'NONE', ( #394, #346, #112, #46 ) ) ;
#364 = ORIENTED_EDGE ( 'NONE', *, *, #367, .T. ) ;
#365 = DIRECTION ( 'NONE',  ( 4.596983092540343816E-18, 1.000000000000000000, -0.000000000000000000 ) ) ;
#366 = ORIENTED_EDGE ( 'NONE', *, *, #87, .F. ) ;
#367 = EDGE_CURVE ( 'NONE', #408, #340, #40, .T. ) ;
#368 = DIRECTION ( 'NONE',  ( 4.596983092540343816E-18, 1.000000000000000000, -0.000000000000000000 ) ) ;
#369 = DIRECTION ( 'NONE',  ( 4.596983092540343816E-18, 1.000000000000000000, -0.000000000000000000 ) ) ;
#370 = DATE_TIME_ROLE ( 'classification_date' ) ;
#371 = CARTESIAN_POINT ( 'NONE',  ( 4.242176512246419947E-15, -14.63999999999999702, 0.000000000000000000 ) ) ;
#372 = DATE_TIME_ROLE ( 'creation_date' ) ;
#373 = DIRECTION ( 'NONE',  ( -1.000000000000000000, 4.596983092540343816E-18, 0.000000000000000000 ) ) ;
#374 = AXIS2_PLACEMENT_3D ( 'NONE', #252, #221, #127 ) ;
#375 = DIRECTION ( 'NONE',  ( -1.000000000000000000, 0.000000000000000000, 0.000000000000000000 ) ) ;
#376 = CARTESIAN_POINT ( 'NONE',  ( 21.14999999999999858, -9.722619240722826832E-17, 2.590127980196652091E-15 ) ) ;
#377 = ADVANCED_FACE ( 'NONE', ( #50 ), #43, .T. ) ;
#378 = PLANE ( 'NONE',  #374 ) ;
#379 = AXIS2_PLACEMENT_3D ( 'NONE', #177, #279, #184 ) ;
#380 = DIRECTION ( 'NONE',  ( 4.596983092540343816E-18, 1.000000000000000000, -0.000000000000000000 ) ) ;
#381 =( GEOMETRIC_REPRESENTATION_CONTEXT ( 3 ) GLOBAL_UNCERTAINTY_ASSIGNED_CONTEXT ( ( #118 ) ) GLOBAL_UNIT_ASSIGNED_CONTEXT ( ( #77, #328, #357 ) ) REPRESENTATION_CONTEXT ( 'NONE', 'WORKASPACE' ) );
#382 = DIRECTION ( 'NONE',  ( 4.596983092540343816E-18, 1.000000000000000000, -0.000000000000000000 ) ) ;
#383 = DIRECTION ( 'NONE',  ( 0.000000000000000000, 0.000000000000000000, 1.000000000000000000 ) ) ;
#384 = CARTESIAN_POINT ( 'NONE',  ( 4.242176512246419947E-15, -14.63999999999999702, 0.000000000000000000 ) ) ;
#385 = ORIENTED_EDGE ( 'NONE', *, *, #168, .F. ) ;
#386 = AXIS2_PLACEMENT_3D ( 'NONE', #7, #102, #133 ) ;
#387 = DIRECTION ( 'NONE',  ( 4.596983092540343816E-18, 1.000000000000000000, -0.000000000000000000 ) ) ;
#388 = ORIENTED_EDGE ( 'NONE', *, *, #87, .T. ) ;
#389 = EDGE_CURVE ( 'NONE', #355, #59, #240, .T. ) ;
#390 = ORIENTED_EDGE ( 'NONE', *, *, #293, .T. ) ;
#391 = FACE_OUTER_BOUND ( 'NONE', #115, .T. ) ;
#392 = AXIS2_PLACEMENT_3D ( 'NONE', #48, #80, #197 ) ;
#393 = VECTOR ( 'NONE', #368, 1000.000000000000000 ) ;
#394 = ORIENTED_EDGE ( 'NONE', *, *, #339, .T. ) ;
#395 = ADVANCED_BREP_SHAPE_REPRESENTATION ( '3D_R175_DN48.3x3_17336235', ( #153, #297 ), #381 ) ;
#396 = ADVANCED_FACE ( 'NONE', ( #261 ), #143, .T. ) ;
#397 = ORIENTED_EDGE ( 'NONE', *, *, #389, .T. ) ;
#398 = COORDINATED_UNIVERSAL_TIME_OFFSET ( 1, 0, .AHEAD. ) ;
#399 = CARTESIAN_POINT ( 'NONE',  ( -19.90499999999999403, 9.638323665360427839, 0.000000000000000000 ) ) ;
#400 = APPLICATION_CONTEXT ( 'configuration controlled 3d designs of mechanical parts and assemblies' ) ;
#401 = PERSON_AND_ORGANIZATION ( #243, #332 ) ;
#402 = CARTESIAN_POINT ( 'NONE',  ( 4.242176512246419947E-15, -14.63999999999999702, 0.000000000000000000 ) ) ;
#403 = LOCAL_TIME ( 12, 8, 59.00000000000000000, #58 ) ;
#404 = APPROVAL_ROLE ( '' ) ;
#405 = DIRECTION ( 'NONE',  ( -1.224646799147353207E-16, 5.629680630014033300E-34, 1.000000000000000000 ) ) ;
#406 = ADVANCED_FACE ( 'NONE', ( #10 ), #315, .F. ) ;
#407 = APPROVAL_STATUS ( 'not_yet_approved' ) ;
#408 = VERTEX_POINT ( 'NONE', #265 ) ;
#409 = APPROVAL_DATE_TIME ( #306, #291 ) ;
#410 = APPROVAL ( #407, 'UNSPECIFIED' ) ;
#411 = EDGE_LOOP ( 'NONE', ( #172, #227, #264 ) ) ;
ENDSEC;
END-ISO-10303-21;
