ISO-10303-21;
HEADER;
FILE_DESCRIPTION (( 'STEP AP203' ),
    '1' );
FILE_NAME ('11-0206-01_outokumpu.step',
    '2015-08-11T09:46:16',
    ( '' ),
    ( '' ),
    'SwSTEP 2.0',
    'SolidWorks 2008',
    '' );
FILE_SCHEMA (( 'CONFIG_CONTROL_DESIGN' ));
ENDSEC;

DATA;
#1 = CARTESIAN_POINT ( 'NONE',  ( 0.0000000000000000000, 0.0000000000000000000, -16.00000000000000000 ) ) ;
#2 = DIRECTION ( 'NONE',  ( -0.0000000000000000000, -0.0000000000000000000, 1.000000000000000000 ) ) ;
#3 = DIRECTION ( 'NONE',  ( 1.000000000000000000, 0.0000000000000000000, 0.0000000000000000000 ) ) ;
#4 = AXIS2_PLACEMENT_3D ( 'NONE', #1, #2, #3 ) ;
#5 = ORIENTED_EDGE ( 'NONE', *, *, #6, .T. ) ;
#6 = EDGE_CURVE ( 'NONE', #7, #8, #40, .T. ) ;
#7 = VERTEX_POINT ( 'NONE', #272 ) ;
#8 = VERTEX_POINT ( 'NONE', #266 ) ;
#9 = ORIENTED_EDGE ( 'NONE', *, *, #10, .T. ) ;
#10 = EDGE_CURVE ( 'NONE', #8, #11, #273, .T. ) ;
#11 = VERTEX_POINT ( 'NONE', #271 ) ;
#12 = ORIENTED_EDGE ( 'NONE', *, *, #13, .F. ) ;
#13 = EDGE_CURVE ( 'NONE', #14, #11, #264, .T. ) ;
#14 = VERTEX_POINT ( 'NONE', #263 ) ;
#15 = ORIENTED_EDGE ( 'NONE', *, *, #16, .F. ) ;
#16 = EDGE_CURVE ( 'NONE', #7, #14, #276, .T. ) ;
#17 = ADVANCED_FACE ( 'NONE', ( #277 ), #287, .T. ) ;
#18 = EDGE_LOOP ( 'NONE', ( #19, #23, #26, #29 ) ) ;
#19 = ORIENTED_EDGE ( 'NONE', *, *, #20, .F. ) ;
#20 = EDGE_CURVE ( 'NONE', #21, #22, #282, .T. ) ;
#21 = VERTEX_POINT ( 'NONE', #137 ) ;
#22 = VERTEX_POINT ( 'NONE', #140 ) ;
#23 = ORIENTED_EDGE ( 'NONE', *, *, #24, .T. ) ;
#24 = EDGE_CURVE ( 'NONE', #21, #25, #143, .T. ) ;
#25 = VERTEX_POINT ( 'NONE', #138 ) ;
#26 = ORIENTED_EDGE ( 'NONE', *, *, #27, .T. ) ;
#27 = EDGE_CURVE ( 'NONE', #25, #28, #134, .T. ) ;
#28 = VERTEX_POINT ( 'NONE', #158 ) ;
#29 = ORIENTED_EDGE ( 'NONE', *, *, #30, .F. ) ;
#30 = EDGE_CURVE ( 'NONE', #22, #28, #162, .T. ) ;
#31 = VERTEX_POINT ( 'NONE', #157 ) ;
#32 = VERTEX_POINT ( 'NONE', #156 ) ;
#33 = EDGE_CURVE ( 'NONE', #31, #32, #155, .T. ) ;
#34 = ORIENTED_EDGE ( 'NONE', *, *, #33, .F. ) ;
#35 = ADVANCED_FACE ( 'NONE', ( #154 ), #171, .F. ) ;
#36 = SECURITY_CLASSIFICATION_LEVEL ( 'unclassified' ) ;
#37 = CC_DESIGN_PERSON_AND_ORGANIZATION_ASSIGNMENT ( #39, #41, ( #317 ) ) ;
#38 = EDGE_LOOP ( 'NONE', ( #34, #106, #103, #77 ) ) ;
#39 = PERSON_AND_ORGANIZATION ( #346, #345 ) ;
#40 = CIRCLE ( 'NONE', #4, 4.133434344266837500 ) ;
#41 = PERSON_AND_ORGANIZATION_ROLE ( 'design_supplier' ) ;
#42 = CC_DESIGN_PERSON_AND_ORGANIZATION_ASSIGNMENT ( #44, #43, ( #45 ) ) ;
#43 = PERSON_AND_ORGANIZATION_ROLE ( 'classification_officer' ) ;
#44 = PERSON_AND_ORGANIZATION ( #346, #345 ) ;
#45 = SECURITY_CLASSIFICATION ( '', '', #36 ) ;
#46 = ORIENTED_EDGE ( 'NONE', *, *, #16, .T. ) ;
#47 = ORIENTED_EDGE ( 'NONE', *, *, #65, .F. ) ;
#48 = CLOSED_SHELL ( 'NONE', ( #108, #17, #35, #79, #87, #69, #52, #61, #93, #99 ) ) ;
#49 = ORIENTED_EDGE ( 'NONE', *, *, #6, .F. ) ;
#50 = ORIENTED_EDGE ( 'NONE', *, *, #51, .F. ) ;
#51 = EDGE_CURVE ( 'NONE', #8, #7, #176, .T. ) ;
#52 = ADVANCED_FACE ( 'NONE', ( #177, #169 ), #168, .F. ) ;
#53 = EDGE_LOOP ( 'NONE', ( #54, #56 ) ) ;
#54 = ORIENTED_EDGE ( 'NONE', *, *, #55, .T. ) ;
#55 = EDGE_CURVE ( 'NONE', #32, #31, #187, .T. ) ;
#56 = ORIENTED_EDGE ( 'NONE', *, *, #33, .T. ) ;
#57 = EDGE_LOOP ( 'NONE', ( #58, #60 ) ) ;
#58 = ORIENTED_EDGE ( 'NONE', *, *, #59, .T. ) ;
#59 = EDGE_CURVE ( 'NONE', #22, #21, #214, .T. ) ;
#60 = ORIENTED_EDGE ( 'NONE', *, *, #20, .T. ) ;
#61 = ADVANCED_FACE ( 'NONE', ( #215 ), #186, .F. ) ;
#62 = EDGE_LOOP ( 'NONE', ( #89, #90, #91, #92 ) ) ;
#63 = ORIENTED_EDGE ( 'NONE', *, *, #83, .F. ) ;
#64 = ORIENTED_EDGE ( 'NONE', *, *, #65, .T. ) ;
#65 = EDGE_CURVE ( 'NONE', #11, #14, #182, .T. ) ;
#66 = ORIENTED_EDGE ( 'NONE', *, *, #86, .T. ) ;
#67 = ORIENTED_EDGE ( 'NONE', *, *, #68, .F. ) ;
#68 = EDGE_CURVE ( 'NONE', #28, #25, #248, .T. ) ;
#69 = ADVANCED_FACE ( 'NONE', ( #249, #211 ), #210, .F. ) ;
#70 = EDGE_LOOP ( 'NONE', ( #71, #73 ) ) ;
#71 = ORIENTED_EDGE ( 'NONE', *, *, #72, .F. ) ;
#72 = EDGE_CURVE ( 'NONE', #76, #105, #208, .T. ) ;
#73 = ORIENTED_EDGE ( 'NONE', *, *, #75, .F. ) ;
#74 = EDGE_LOOP ( 'NONE', ( #49, #50 ) ) ;
#75 = EDGE_CURVE ( 'NONE', #105, #76, #199, .T. ) ;
#76 = VERTEX_POINT ( 'NONE', #195 ) ;
#77 = ORIENTED_EDGE ( 'NONE', *, *, #78, .F. ) ;
#78 = EDGE_CURVE ( 'NONE', #32, #76, #194, .T. ) ;
#79 = ADVANCED_FACE ( 'NONE', ( #190 ), #243, .T. ) ;
#80 = EDGE_LOOP ( 'NONE', ( #81, #82, #84, #85 ) ) ;
#81 = ORIENTED_EDGE ( 'NONE', *, *, #13, .T. ) ;
#82 = ORIENTED_EDGE ( 'NONE', *, *, #83, .T. ) ;
#83 = EDGE_CURVE ( 'NONE', #11, #28, #238, .T. ) ;
#84 = ORIENTED_EDGE ( 'NONE', *, *, #27, .F. ) ;
#85 = ORIENTED_EDGE ( 'NONE', *, *, #86, .F. ) ;
#86 = EDGE_CURVE ( 'NONE', #14, #25, #234, .T. ) ;
#87 = ADVANCED_FACE ( 'NONE', ( #230 ), #227, .T. ) ;
#88 = EDGE_LOOP ( 'NONE', ( #63, #64, #66, #67 ) ) ;
#89 = ORIENTED_EDGE ( 'NONE', *, *, #104, .F. ) ;
#90 = ORIENTED_EDGE ( 'NONE', *, *, #55, .F. ) ;
#91 = ORIENTED_EDGE ( 'NONE', *, *, #78, .T. ) ;
#92 = ORIENTED_EDGE ( 'NONE', *, *, #72, .T. ) ;
#93 = ADVANCED_FACE ( 'NONE', ( #256 ), #259, .T. ) ;
#94 = EDGE_LOOP ( 'NONE', ( #95, #96, #97, #98 ) ) ;
#95 = ORIENTED_EDGE ( 'NONE', *, *, #24, .F. ) ;
#96 = ORIENTED_EDGE ( 'NONE', *, *, #59, .F. ) ;
#97 = ORIENTED_EDGE ( 'NONE', *, *, #30, .T. ) ;
#98 = ORIENTED_EDGE ( 'NONE', *, *, #68, .T. ) ;
#99 = ADVANCED_FACE ( 'NONE', ( #258 ), #253, .T. ) ;
#100 = EDGE_LOOP ( 'NONE', ( #101, #102, #46, #47 ) ) ;
#101 = ORIENTED_EDGE ( 'NONE', *, *, #10, .F. ) ;
#102 = ORIENTED_EDGE ( 'NONE', *, *, #51, .T. ) ;
#103 = ORIENTED_EDGE ( 'NONE', *, *, #75, .T. ) ;
#104 = EDGE_CURVE ( 'NONE', #31, #105, #306, .T. ) ;
#105 = VERTEX_POINT ( 'NONE', #302 ) ;
#106 = ORIENTED_EDGE ( 'NONE', *, *, #104, .T. ) ;
#107 = MANIFOLD_SOLID_BREP ( 'NONE', #48 ) ;
#108 = ADVANCED_FACE ( 'NONE', ( #309 ), #308, .T. ) ;
#109 = EDGE_LOOP ( 'NONE', ( #5, #9, #12, #15 ) ) ;
#110 = SHAPE_DEFINITION_REPRESENTATION ( #111, #294 ) ;
#111 = PRODUCT_DEFINITION_SHAPE ( 'NONE', 'NONE',  #338 ) ;
#112 = PRODUCT_RELATED_PRODUCT_CATEGORY ( 'detail', '', ( #347 ) ) ;
#113 = CC_DESIGN_SECURITY_CLASSIFICATION ( #45, ( #317 ) ) ;
#114 = CC_DESIGN_APPROVAL ( #122, ( #45 ) ) ;
#115 = APPROVAL_DATE_TIME ( #116, #122 ) ;
#116 = DATE_AND_TIME ( #117, #118 ) ;
#117 = CALENDAR_DATE ( 2015, 11, 8 ) ;
#118 = LOCAL_TIME ( 11, 46, 16.00000000000000000, #119 ) ;
#119 = COORDINATED_UNIVERSAL_TIME_OFFSET ( 1, 0, .AHEAD. ) ;
#120 = APPROVAL_PERSON_ORGANIZATION ( #124, #122, #121 ) ;
#121 = APPROVAL_ROLE ( '' ) ;
#122 = APPROVAL ( #123, 'UNSPECIFIED' ) ;
#123 = APPROVAL_STATUS ( 'not_yet_approved' ) ;
#124 = PERSON_AND_ORGANIZATION ( #346, #345 ) ;
#125 = CC_DESIGN_DATE_AND_TIME_ASSIGNMENT ( #127, #126, ( #45 ) ) ;
#126 = DATE_TIME_ROLE ( 'classification_date' ) ;
#127 = DATE_AND_TIME ( #128, #129 ) ;
#128 = CALENDAR_DATE ( 2015, 11, 8 ) ;
#129 = LOCAL_TIME ( 11, 46, 16.00000000000000000, #130 ) ;
#130 = COORDINATED_UNIVERSAL_TIME_OFFSET ( 1, 0, .AHEAD. ) ;
#131 = DIRECTION ( 'NONE',  ( -0.0000000000000000000, -0.0000000000000000000, 1.000000000000000000 ) ) ;
#132 = DIRECTION ( 'NONE',  ( 1.000000000000000000, 0.0000000000000000000, 0.0000000000000000000 ) ) ;
#133 = CARTESIAN_POINT ( 'NONE',  ( 0.0000000000000000000, 4.283000000000000400, -2.168404344971008900E-016 ) ) ;
#134 = CIRCLE ( 'NONE', #148, 4.283000000000000400 ) ;
#135 = DIRECTION ( 'NONE',  ( -1.000000000000000000, 0.0000000000000000000, -0.0000000000000000000 ) ) ;
#136 = DIRECTION ( 'NONE',  ( 0.0000000000000000000, 0.0000000000000000000, -1.000000000000000000 ) ) ;
#137 = CARTESIAN_POINT ( 'NONE',  ( 4.133434344266873900, 5.153409487259043800E-016, 0.0000000000000000000 ) ) ;
#138 = CARTESIAN_POINT ( 'NONE',  ( 4.283000000000000400, 0.0000000000000000000, -0.1495656557331247500 ) ) ;
#139 = VECTOR ( 'NONE', #141, 1000.000000000000000 ) ;
#140 = CARTESIAN_POINT ( 'NONE',  ( -4.133434344266873900, 0.0000000000000000000, 0.0000000000000000000 ) ) ;
#141 = DIRECTION ( 'NONE',  ( 0.7071067811865519000, 8.659274570719408400E-017, -0.7071067811865431300 ) ) ;
#142 = CARTESIAN_POINT ( 'NONE',  ( 4.133434344266873900, 5.061829961096845500E-016, 0.0000000000000000000 ) ) ;
#143 = LINE ( 'NONE', #142, #139 ) ;
#144 = DIRECTION ( 'NONE',  ( -0.0000000000000000000, -0.0000000000000000000, 1.000000000000000000 ) ) ;
#145 = CARTESIAN_POINT ( 'NONE',  ( 0.0000000000000000000, 0.0000000000000000000, -0.1495656557331247500 ) ) ;
#146 = CARTESIAN_POINT ( 'NONE',  ( 0.0000000000000000000, 0.0000000000000000000, -15.85043434426684400 ) ) ;
#147 = DIRECTION ( 'NONE',  ( 1.000000000000000000, 0.0000000000000000000, 0.0000000000000000000 ) ) ;
#148 = AXIS2_PLACEMENT_3D ( 'NONE', #145, #144, #147 ) ;
#149 = AXIS2_PLACEMENT_3D ( 'NONE', #146, #167, #166 ) ;
#150 = DIRECTION ( 'NONE',  ( 0.0000000000000000000, 1.000000000000000000, 2.168404344971007900E-016 ) ) ;
#151 = DIRECTION ( 'NONE',  ( -0.0000000000000000000, 2.168404344971007900E-016, -1.000000000000000000 ) ) ;
#152 = CARTESIAN_POINT ( 'NONE',  ( 0.0000000000000000000, -3.469446951953615000E-015, 0.0000000000000000000 ) ) ;
#153 = AXIS2_PLACEMENT_3D ( 'NONE', #152, #151, #150 ) ;
#154 = FACE_OUTER_BOUND ( 'NONE', #38, .T. ) ;
#155 = CIRCLE ( 'NONE', #153, 3.100000000000001000 ) ;
#156 = CARTESIAN_POINT ( 'NONE',  ( 0.0000000000000000000, 3.099999999999997900, 6.722053469410126500E-016 ) ) ;
#157 = CARTESIAN_POINT ( 'NONE',  ( 3.796279696849374200E-016, -3.100000000000005000, -6.722053469410127500E-016 ) ) ;
#158 = CARTESIAN_POINT ( 'NONE',  ( -4.283000000000000400, 5.244989013421242100E-016, -0.1495656557331247500 ) ) ;
#159 = DIRECTION ( 'NONE',  ( -0.7071067811865519000, 0.0000000000000000000, -0.7071067811865431300 ) ) ;
#160 = VECTOR ( 'NONE', #159, 1000.000000000000000 ) ;
#161 = CARTESIAN_POINT ( 'NONE',  ( -4.133434344266873900, 0.0000000000000000000, 0.0000000000000000000 ) ) ;
#162 = LINE ( 'NONE', #161, #160 ) ;
#163 = CARTESIAN_POINT ( 'NONE',  ( 0.0000000000000000000, 0.0000000000000000000, -16.00000000000001100 ) ) ;
#164 = AXIS2_PLACEMENT_3D ( 'NONE', #163, #172, #178 ) ;
#165 = AXIS2_PLACEMENT_3D ( 'NONE', #133, #136, #135 ) ;
#166 = DIRECTION ( 'NONE',  ( 1.000000000000000000, 0.0000000000000000000, 0.0000000000000000000 ) ) ;
#167 = DIRECTION ( 'NONE',  ( -0.0000000000000000000, -0.0000000000000000000, 1.000000000000000000 ) ) ;
#168 = PLANE ( 'NONE',  #165 ) ;
#169 = FACE_OUTER_BOUND ( 'NONE', #57, .T. ) ;
#170 = DIRECTION ( 'NONE',  ( 1.000000000000000000, 0.0000000000000000000, 0.0000000000000000000 ) ) ;
#171 = CYLINDRICAL_SURFACE ( 'NONE', #164, 3.100000000000001400 ) ;
#172 = DIRECTION ( 'NONE',  ( -0.0000000000000000000, 2.168404344971007900E-016, -1.000000000000000000 ) ) ;
#173 = DIRECTION ( 'NONE',  ( -0.0000000000000000000, -0.0000000000000000000, 1.000000000000000000 ) ) ;
#174 = CARTESIAN_POINT ( 'NONE',  ( 0.0000000000000000000, 0.0000000000000000000, -16.00000000000000000 ) ) ;
#175 = AXIS2_PLACEMENT_3D ( 'NONE', #174, #173, #170 ) ;
#176 = CIRCLE ( 'NONE', #175, 4.133434344266837500 ) ;
#177 = FACE_BOUND ( 'NONE', #53, .T. ) ;
#178 = DIRECTION ( 'NONE',  ( 0.0000000000000000000, 1.000000000000000000, 0.0000000000000000000 ) ) ;
#179 = DIRECTION ( 'NONE',  ( -0.0000000000000000000, -0.0000000000000000000, 1.000000000000000000 ) ) ;
#180 = CARTESIAN_POINT ( 'NONE',  ( 0.0000000000000000000, 0.0000000000000000000, -15.85043434426684400 ) ) ;
#181 = AXIS2_PLACEMENT_3D ( 'NONE', #180, #179, #250 ) ;
#182 = CIRCLE ( 'NONE', #181, 4.283000000000000400 ) ;
#183 = DIRECTION ( 'NONE',  ( 0.0000000000000000000, 1.000000000000000000, 0.0000000000000000000 ) ) ;
#184 = DIRECTION ( 'NONE',  ( -0.0000000000000000000, 2.168404344971007900E-016, -1.000000000000000000 ) ) ;
#185 = AXIS2_PLACEMENT_3D ( 'NONE', #218, #184, #183 ) ;
#186 = CYLINDRICAL_SURFACE ( 'NONE', #185, 3.100000000000001400 ) ;
#187 = CIRCLE ( 'NONE', #251, 3.100000000000001000 ) ;
#188 = CARTESIAN_POINT ( 'NONE',  ( 0.0000000000000000000, -3.469446951953615000E-015, 0.0000000000000000000 ) ) ;
#189 = CARTESIAN_POINT ( 'NONE',  ( 0.0000000000000000000, 0.0000000000000000000, 0.0000000000000000000 ) ) ;
#190 = FACE_OUTER_BOUND ( 'NONE', #80, .T. ) ;
#191 = DIRECTION ( 'NONE',  ( -0.0000000000000000000, 2.168404344971007900E-016, -1.000000000000000000 ) ) ;
#192 = VECTOR ( 'NONE', #191, 1000.000000000000000 ) ;
#193 = CARTESIAN_POINT ( 'NONE',  ( 0.0000000000000000000, 3.100000000000001400, -16.00000000000001100 ) ) ;
#194 = LINE ( 'NONE', #193, #192 ) ;
#195 = CARTESIAN_POINT ( 'NONE',  ( 0.0000000000000000000, 3.100000000000001900, -16.00000000000000000 ) ) ;
#196 = DIRECTION ( 'NONE',  ( 0.0000000000000000000, 1.000000000000000000, 0.0000000000000000000 ) ) ;
#197 = DIRECTION ( 'NONE',  ( -0.0000000000000000000, 2.168404344971007900E-016, -1.000000000000000000 ) ) ;
#198 = AXIS2_PLACEMENT_3D ( 'NONE', #204, #197, #196 ) ;
#199 = CIRCLE ( 'NONE', #198, 3.100000000000001900 ) ;
#200 = DIRECTION ( 'NONE',  ( 0.0000000000000000000, 1.000000000000000000, 0.0000000000000000000 ) ) ;
#201 = DIRECTION ( 'NONE',  ( -0.0000000000000000000, 2.168404344971007900E-016, -1.000000000000000000 ) ) ;
#202 = CARTESIAN_POINT ( 'NONE',  ( 0.0000000000000000000, -2.111187854076827300E-030, -16.00000000000000000 ) ) ;
#203 = AXIS2_PLACEMENT_3D ( 'NONE', #202, #201, #200 ) ;
#204 = CARTESIAN_POINT ( 'NONE',  ( 0.0000000000000000000, -2.111187854076827300E-030, -16.00000000000000000 ) ) ;
#205 = DIRECTION ( 'NONE',  ( 1.000000000000000000, 0.0000000000000000000, 0.0000000000000000000 ) ) ;
#206 = DIRECTION ( 'NONE',  ( 0.0000000000000000000, -0.0000000000000000000, 1.000000000000000000 ) ) ;
#207 = AXIS2_PLACEMENT_3D ( 'NONE', #209, #206, #205 ) ;
#208 = CIRCLE ( 'NONE', #203, 3.100000000000001900 ) ;
#209 = CARTESIAN_POINT ( 'NONE',  ( 0.0000000000000000000, 4.282999999999999500, -16.00000000000000000 ) ) ;
#210 = PLANE ( 'NONE',  #207 ) ;
#211 = FACE_OUTER_BOUND ( 'NONE', #74, .T. ) ;
#212 = DIRECTION ( 'NONE',  ( -0.0000000000000000000, -0.0000000000000000000, 1.000000000000000000 ) ) ;
#213 = AXIS2_PLACEMENT_3D ( 'NONE', #189, #212, #219 ) ;
#214 = CIRCLE ( 'NONE', #213, 4.133434344266873900 ) ;
#215 = FACE_OUTER_BOUND ( 'NONE', #62, .T. ) ;
#216 = DIRECTION ( 'NONE',  ( 0.0000000000000000000, 1.000000000000000000, 2.168404344971007900E-016 ) ) ;
#217 = DIRECTION ( 'NONE',  ( -0.0000000000000000000, 2.168404344971007900E-016, -1.000000000000000000 ) ) ;
#218 = CARTESIAN_POINT ( 'NONE',  ( 0.0000000000000000000, 0.0000000000000000000, -16.00000000000001100 ) ) ;
#219 = DIRECTION ( 'NONE',  ( 1.000000000000000000, 0.0000000000000000000, 0.0000000000000000000 ) ) ;
#220 = CC_DESIGN_APPROVAL ( #314, ( #317 ) ) ;
#221 = APPROVAL_DATE_TIME ( #222, #314 ) ;
#222 = DATE_AND_TIME ( #228, #229 ) ;
#223 = DIRECTION ( 'NONE',  ( 1.000000000000000000, 0.0000000000000000000, 0.0000000000000000000 ) ) ;
#224 = DIRECTION ( 'NONE',  ( -0.0000000000000000000, -0.0000000000000000000, 1.000000000000000000 ) ) ;
#225 = CARTESIAN_POINT ( 'NONE',  ( 0.0000000000000000000, 0.0000000000000000000, -4.336808689942017700E-016 ) ) ;
#226 = AXIS2_PLACEMENT_3D ( 'NONE', #225, #224, #223 ) ;
#227 = CYLINDRICAL_SURFACE ( 'NONE', #226, 4.283000000000000400 ) ;
#228 = CALENDAR_DATE ( 2015, 11, 8 ) ;
#229 = LOCAL_TIME ( 11, 46, 16.00000000000000000, #311 ) ;
#230 = FACE_OUTER_BOUND ( 'NONE', #88, .T. ) ;
#231 = DIRECTION ( 'NONE',  ( -0.0000000000000000000, -0.0000000000000000000, 1.000000000000000000 ) ) ;
#232 = VECTOR ( 'NONE', #231, 1000.000000000000000 ) ;
#233 = CARTESIAN_POINT ( 'NONE',  ( 4.283000000000000400, 0.0000000000000000000, -4.336808689942017700E-016 ) ) ;
#234 = LINE ( 'NONE', #233, #232 ) ;
#235 = DIRECTION ( 'NONE',  ( -0.0000000000000000000, -0.0000000000000000000, 1.000000000000000000 ) ) ;
#236 = VECTOR ( 'NONE', #235, 1000.000000000000000 ) ;
#237 = CARTESIAN_POINT ( 'NONE',  ( -4.283000000000000400, 5.244989013421242100E-016, -4.336808689942017700E-016 ) ) ;
#238 = LINE ( 'NONE', #237, #236 ) ;
#239 = DIRECTION ( 'NONE',  ( 1.000000000000000000, 0.0000000000000000000, 0.0000000000000000000 ) ) ;
#240 = DIRECTION ( 'NONE',  ( -0.0000000000000000000, -0.0000000000000000000, 1.000000000000000000 ) ) ;
#241 = CARTESIAN_POINT ( 'NONE',  ( 0.0000000000000000000, 0.0000000000000000000, -4.336808689942017700E-016 ) ) ;
#242 = AXIS2_PLACEMENT_3D ( 'NONE', #241, #240, #239 ) ;
#243 = CYLINDRICAL_SURFACE ( 'NONE', #242, 4.283000000000000400 ) ;
#244 = DIRECTION ( 'NONE',  ( 1.000000000000000000, 0.0000000000000000000, 0.0000000000000000000 ) ) ;
#245 = DIRECTION ( 'NONE',  ( -0.0000000000000000000, -0.0000000000000000000, 1.000000000000000000 ) ) ;
#246 = CARTESIAN_POINT ( 'NONE',  ( 0.0000000000000000000, 0.0000000000000000000, -0.1495656557331247500 ) ) ;
#247 = AXIS2_PLACEMENT_3D ( 'NONE', #246, #245, #244 ) ;
#248 = CIRCLE ( 'NONE', #247, 4.283000000000000400 ) ;
#249 = FACE_BOUND ( 'NONE', #70, .T. ) ;
#250 = DIRECTION ( 'NONE',  ( 1.000000000000000000, 0.0000000000000000000, 0.0000000000000000000 ) ) ;
#251 = AXIS2_PLACEMENT_3D ( 'NONE', #188, #217, #216 ) ;
#252 = DIRECTION ( 'NONE',  ( 0.0000000000000000000, 0.0000000000000000000, -1.000000000000000000 ) ) ;
#253 = CONICAL_SURFACE ( 'NONE', #149, 4.283000000000000400, 0.7853981633974714800 ) ;
#254 = AXIS2_PLACEMENT_3D ( 'NONE', #257, #252, #255 ) ;
#255 = DIRECTION ( 'NONE',  ( -1.000000000000000000, 0.0000000000000000000, 0.0000000000000000000 ) ) ;
#256 = FACE_OUTER_BOUND ( 'NONE', #94, .T. ) ;
#257 = CARTESIAN_POINT ( 'NONE',  ( 0.0000000000000000000, 0.0000000000000000000, 0.0000000000000000000 ) ) ;
#258 = FACE_OUTER_BOUND ( 'NONE', #100, .T. ) ;
#259 = CONICAL_SURFACE ( 'NONE', #254, 4.133434344266873900, 0.7853981633974545000 ) ;
#260 = CC_DESIGN_PERSON_AND_ORGANIZATION_ASSIGNMENT ( #262, #261, ( #317 ) ) ;
#261 = PERSON_AND_ORGANIZATION_ROLE ( 'creator' ) ;
#262 = PERSON_AND_ORGANIZATION ( #346, #345 ) ;
#263 = CARTESIAN_POINT ( 'NONE',  ( 4.283000000000000400, 0.0000000000000000000, -15.85043434426684400 ) ) ;
#264 = CIRCLE ( 'NONE', #265, 4.283000000000000400 ) ;
#265 = AXIS2_PLACEMENT_3D ( 'NONE', #269, #267, #288 ) ;
#266 = CARTESIAN_POINT ( 'NONE',  ( -4.133434344266837500, 5.153409487259021100E-016, -16.00000000000000000 ) ) ;
#267 = DIRECTION ( 'NONE',  ( -0.0000000000000000000, -0.0000000000000000000, 1.000000000000000000 ) ) ;
#268 = CARTESIAN_POINT ( 'NONE',  ( -4.283000000000000400, 5.244989013421242100E-016, -15.85043434426684400 ) ) ;
#269 = CARTESIAN_POINT ( 'NONE',  ( 0.0000000000000000000, 0.0000000000000000000, -15.85043434426684400 ) ) ;
#270 = DIRECTION ( 'NONE',  ( -0.7071067811865638900, 8.659274570719555100E-017, 0.7071067811865311400 ) ) ;
#271 = CARTESIAN_POINT ( 'NONE',  ( -4.283000000000000400, 5.244989013421242100E-016, -15.85043434426684400 ) ) ;
#272 = CARTESIAN_POINT ( 'NONE',  ( 4.133434344266837500, 0.0000000000000000000, -16.00000000000000000 ) ) ;
#273 = LINE ( 'NONE', #268, #279 ) ;
#274 = VECTOR ( 'NONE', #278, 1000.000000000000000 ) ;
#275 = CARTESIAN_POINT ( 'NONE',  ( 4.283000000000000400, 0.0000000000000000000, -15.85043434426684400 ) ) ;
#276 = LINE ( 'NONE', #275, #274 ) ;
#277 = FACE_OUTER_BOUND ( 'NONE', #18, .T. ) ;
#278 = DIRECTION ( 'NONE',  ( 0.7071067811865638900, 0.0000000000000000000, 0.7071067811865311400 ) ) ;
#279 = VECTOR ( 'NONE', #270, 1000.000000000000000 ) ;
#280 = CARTESIAN_POINT ( 'NONE',  ( 0.0000000000000000000, 0.0000000000000000000, 0.0000000000000000000 ) ) ;
#281 = AXIS2_PLACEMENT_3D ( 'NONE', #280, #131, #132 ) ;
#282 = CIRCLE ( 'NONE', #281, 4.133434344266873900 ) ;
#283 = DIRECTION ( 'NONE',  ( -1.000000000000000000, 0.0000000000000000000, 0.0000000000000000000 ) ) ;
#284 = DIRECTION ( 'NONE',  ( 0.0000000000000000000, 0.0000000000000000000, -1.000000000000000000 ) ) ;
#285 = CARTESIAN_POINT ( 'NONE',  ( 0.0000000000000000000, 0.0000000000000000000, 0.0000000000000000000 ) ) ;
#286 = AXIS2_PLACEMENT_3D ( 'NONE', #285, #284, #283 ) ;
#287 = CONICAL_SURFACE ( 'NONE', #286, 4.133434344266873900, 0.7853981633974545000 ) ;
#288 = DIRECTION ( 'NONE',  ( 1.000000000000000000, 0.0000000000000000000, 0.0000000000000000000 ) ) ;
#289 =( NAMED_UNIT ( * ) SI_UNIT ( $, .STERADIAN. ) SOLID_ANGLE_UNIT ( ) );
#290 = UNCERTAINTY_MEASURE_WITH_UNIT (LENGTH_MEASURE( 1.000000000000000100E-005 ), #310, 'distance_accuracy_value', 'NONE');
#291 = DIRECTION ( 'NONE',  ( -0.0000000000000000000, 2.168404344971007900E-016, -1.000000000000000000 ) ) ;
#292 = VECTOR ( 'NONE', #291, 1000.000000000000000 ) ;
#293 = APPLICATION_CONTEXT ( 'configuration controlled 3d designs of mechanical parts and assemblies' ) ;
#294 = ADVANCED_BREP_SHAPE_REPRESENTATION ( '11-0206-01_outokumpu', ( #107, #297 ), #295 ) ;
#295 =( GEOMETRIC_REPRESENTATION_CONTEXT ( 3 ) GLOBAL_UNCERTAINTY_ASSIGNED_CONTEXT ( ( #290 ) ) GLOBAL_UNIT_ASSIGNED_CONTEXT ( ( #310, #305, #289 ) ) REPRESENTATION_CONTEXT ( 'NONE', 'WORKASPACE' ) );
#296 = CARTESIAN_POINT ( 'NONE',  ( 3.796279696849371800E-016, -3.100000000000001400, -16.00000000000001100 ) ) ;
#297 = AXIS2_PLACEMENT_3D ( 'NONE', #300, #299, #298 ) ;
#298 = DIRECTION ( 'NONE',  ( 1.000000000000000000, 0.0000000000000000000, 0.0000000000000000000 ) ) ;
#299 = DIRECTION ( 'NONE',  ( 0.0000000000000000000, 0.0000000000000000000, 1.000000000000000000 ) ) ;
#300 = CARTESIAN_POINT ( 'NONE',  ( 0.0000000000000000000, 0.0000000000000000000, 0.0000000000000000000 ) ) ;
#301 = AXIS2_PLACEMENT_3D ( 'NONE', #307, #303, #304 ) ;
#302 = CARTESIAN_POINT ( 'NONE',  ( 3.796279696849371800E-016, -3.100000000000001900, -16.00000000000000000 ) ) ;
#303 = DIRECTION ( 'NONE',  ( -0.0000000000000000000, -0.0000000000000000000, 1.000000000000000000 ) ) ;
#304 = DIRECTION ( 'NONE',  ( 1.000000000000000000, 0.0000000000000000000, 0.0000000000000000000 ) ) ;
#305 =( NAMED_UNIT ( * ) PLANE_ANGLE_UNIT ( ) SI_UNIT ( $, .RADIAN. ) );
#306 = LINE ( 'NONE', #296, #292 ) ;
#307 = CARTESIAN_POINT ( 'NONE',  ( 0.0000000000000000000, 0.0000000000000000000, -15.85043434426684400 ) ) ;
#308 = CONICAL_SURFACE ( 'NONE', #301, 4.283000000000000400, 0.7853981633974714800 ) ;
#309 = FACE_OUTER_BOUND ( 'NONE', #109, .T. ) ;
#310 =( LENGTH_UNIT ( ) NAMED_UNIT ( * ) SI_UNIT ( .MILLI., .METRE. ) );
#311 = COORDINATED_UNIVERSAL_TIME_OFFSET ( 1, 0, .AHEAD. ) ;
#312 = APPROVAL_PERSON_ORGANIZATION ( #316, #314, #313 ) ;
#313 = APPROVAL_ROLE ( '' ) ;
#314 = APPROVAL ( #315, 'UNSPECIFIED' ) ;
#315 = APPROVAL_STATUS ( 'not_yet_approved' ) ;
#316 = PERSON_AND_ORGANIZATION ( #346, #345 ) ;
#317 = PRODUCT_DEFINITION_FORMATION_WITH_SPECIFIED_SOURCE ( 'ANY', '', #347, .NOT_KNOWN. ) ;
#318 = CC_DESIGN_DATE_AND_TIME_ASSIGNMENT ( #320, #319, ( #338 ) ) ;
#319 = DATE_TIME_ROLE ( 'creation_date' ) ;
#320 = DATE_AND_TIME ( #321, #322 ) ;
#321 = CALENDAR_DATE ( 2015, 11, 8 ) ;
#322 = LOCAL_TIME ( 11, 46, 16.00000000000000000, #323 ) ;
#323 = COORDINATED_UNIVERSAL_TIME_OFFSET ( 1, 0, .AHEAD. ) ;
#324 = CC_DESIGN_PERSON_AND_ORGANIZATION_ASSIGNMENT ( #326, #325, ( #338 ) ) ;
#325 = PERSON_AND_ORGANIZATION_ROLE ( 'creator' ) ;
#326 = PERSON_AND_ORGANIZATION ( #346, #345 ) ;
#327 = CC_DESIGN_APPROVAL ( #335, ( #338 ) ) ;
#328 = APPROVAL_DATE_TIME ( #329, #335 ) ;
#329 = DATE_AND_TIME ( #330, #331 ) ;
#330 = CALENDAR_DATE ( 2015, 11, 8 ) ;
#331 = LOCAL_TIME ( 11, 46, 16.00000000000000000, #332 ) ;
#332 = COORDINATED_UNIVERSAL_TIME_OFFSET ( 1, 0, .AHEAD. ) ;
#333 = APPROVAL_PERSON_ORGANIZATION ( #337, #335, #334 ) ;
#334 = APPROVAL_ROLE ( '' ) ;
#335 = APPROVAL ( #336, 'UNSPECIFIED' ) ;
#336 = APPROVAL_STATUS ( 'not_yet_approved' ) ;
#337 = PERSON_AND_ORGANIZATION ( #346, #345 ) ;
#338 = PRODUCT_DEFINITION ( 'UNKNOWN', '', #317, #339 ) ;
#339 = DESIGN_CONTEXT ( 'detailed design', #341, 'design' ) ;
#340 = APPLICATION_PROTOCOL_DEFINITION ( 'international standard', 'config_control_design', 1994, #341 ) ;
#341 = APPLICATION_CONTEXT ( 'configuration controlled 3d designs of mechanical parts and assemblies' ) ;
#342 = CC_DESIGN_PERSON_AND_ORGANIZATION_ASSIGNMENT ( #344, #343, ( #347 ) ) ;
#343 = PERSON_AND_ORGANIZATION_ROLE ( 'design_owner' ) ;
#344 = PERSON_AND_ORGANIZATION ( #346, #345 ) ;
#345 = ORGANIZATION ( 'UNSPECIFIED', 'UNSPECIFIED', '' ) ;
#346 = PERSON ( 'UNSPECIFIED', 'UNSPECIFIED', 'UNSPECIFIED', ('UNSPECIFIED'), ('UNSPECIFIED'), ('UNSPECIFIED') ) ;
#347 = PRODUCT ( '11-0206-01_outokumpu', '11-0206-01_outokumpu', '', ( #348 ) ) ;
#348 = MECHANICAL_CONTEXT ( 'NONE', #293, 'mechanical' ) ;
#349 = APPLICATION_PROTOCOL_DEFINITION ( 'international standard', 'config_control_design', 1994, #293 ) ;
ENDSEC;
END-ISO-10303-21;
