ISO-10303-21;
HEADER;
FILE_DESCRIPTION (( 'STEP AP203' ),
    '1' );
FILE_NAME ('3D_M2060_32-25_174121050.STEP',
    '2024-09-05T10:17:17',
    ( '' ),
    ( '' ),
    'SwSTEP 2.0',
    'SolidWorks 2024',
    '' );
FILE_SCHEMA (( 'CONFIG_CONTROL_DESIGN' ));
ENDSEC;

DATA;
#1 = EDGE_CURVE ( 'NONE', #135, #165, #161, .T. ) ;
#2 = FACE_OUTER_BOUND ( 'NONE', #227, .T. ) ;
#3 = PRODUCT_DEFINITION_SHAPE ( 'NONE', 'NONE',  #27 ) ;
#4 = CARTESIAN_POINT ( 'NONE',  ( 11.00000000000000000, 0.000000000000000000, 0.000000000000000000 ) ) ;
#5 = DATE_AND_TIME ( #100, #50 ) ;
#6 = DIRECTION ( 'NONE',  ( 1.000000000000000000, 0.000000000000000000, 0.000000000000000000 ) ) ;
#7 = ADVANCED_FACE ( 'NONE', ( #237 ), #242, .F. ) ;
#8 = AXIS2_PLACEMENT_3D ( 'NONE', #105, #154, #139 ) ;
#9 = DIRECTION ( 'NONE',  ( 0.000000000000000000, 0.000000000000000000, -1.000000000000000000 ) ) ;
#10 = ORIENTED_EDGE ( 'NONE', *, *, #103, .F. ) ;
#11 = APPROVAL_STATUS ( 'not_yet_approved' ) ;
#12 = DIRECTION ( 'NONE',  ( 1.000000000000000000, 0.000000000000000000, 0.000000000000000000 ) ) ;
#13 = CIRCLE ( 'NONE', #188, 16.00000000000000000 ) ;
#14 = LINE ( 'NONE', #206, #107 ) ;
#15 = ORIENTED_EDGE ( 'NONE', *, *, #175, .T. ) ;
#16 = FACE_BOUND ( 'NONE', #143, .T. ) ;
#17 = DATE_AND_TIME ( #182, #67 ) ;
#18 = PRODUCT_RELATED_PRODUCT_CATEGORY ( 'detail', '', ( #194 ) ) ;
#19 = APPROVAL_ROLE ( '' ) ;
#20 = DIRECTION ( 'NONE',  ( -0.9647638212377321887, 3.222258888032611890E-17, -0.2631174057921087384 ) ) ;
#21 = APPROVAL_PERSON_ORGANIZATION ( #158, #163, #36 ) ;
#22 = CARTESIAN_POINT ( 'NONE',  ( 0.000000000000000000, 0.000000000000000000, 0.000000000000000000 ) ) ;
#23 = APPLICATION_CONTEXT ( 'configuration controlled 3d designs of mechanical parts and assemblies' ) ;
#24 = ADVANCED_FACE ( 'NONE', ( #174 ), #181, .T. ) ;
#25 = CONICAL_SURFACE ( 'NONE', #134, 13.00000000000000178, 0.2662520491509253184 ) ;
#26 = ORIENTED_EDGE ( 'NONE', *, *, #229, .F. ) ;
#27 = PRODUCT_DEFINITION ( 'UNKNOWN', '', #222, #201 ) ;
#28 = APPLICATION_PROTOCOL_DEFINITION ( 'international standard', 'config_control_design', 1994, #35 ) ;
#29 = CARTESIAN_POINT ( 'NONE',  ( 0.000000000000000000, 0.000000000000000000, 14.44521532941026720 ) ) ;
#30 = ORIENTED_EDGE ( 'NONE', *, *, #168, .F. ) ;
#31 = AXIS2_PLACEMENT_3D ( 'NONE', #171, #197, #118 ) ;
#32 = CARTESIAN_POINT ( 'NONE',  ( 10.60532389131183706, 0.000000000000000000, 0.000000000000000000 ) ) ;
#33 = UNCERTAINTY_MEASURE_WITH_UNIT (LENGTH_MEASURE( 1.000000000000000082E-05 ), #132, 'distance_accuracy_value', 'NONE');
#34 = ORIENTED_EDGE ( 'NONE', *, *, #39, .T. ) ;
#35 = APPLICATION_CONTEXT ( 'configuration controlled 3d designs of mechanical parts and assemblies' ) ;
#36 = APPROVAL_ROLE ( '' ) ;
#37 = CARTESIAN_POINT ( 'NONE',  ( 0.000000000000000000, 0.000000000000000000, 0.000000000000000000 ) ) ;
#38 = AXIS2_PLACEMENT_3D ( 'NONE', #22, #58, #114 ) ;
#39 = EDGE_CURVE ( 'NONE', #153, #47, #226, .T. ) ;
#40 = APPROVAL_PERSON_ORGANIZATION ( #243, #64, #19 ) ;
#41 = ADVANCED_FACE ( 'NONE', ( #102, #2 ), #192, .T. ) ;
#42 = ORIENTED_EDGE ( 'NONE', *, *, #229, .T. ) ;
#43 = AXIS2_PLACEMENT_3D ( 'NONE', #186, #151, #208 ) ;
#44 = CARTESIAN_POINT ( 'NONE',  ( 10.60532389131183706, 0.000000000000000000, 11.55285426814340255 ) ) ;
#45 = EDGE_CURVE ( 'NONE', #124, #165, #195, .T. ) ;
#46 = CARTESIAN_POINT ( 'NONE',  ( 0.000000000000000000, 0.000000000000000000, 0.000000000000000000 ) ) ;
#47 = VERTEX_POINT ( 'NONE', #29 ) ;
#48 = CARTESIAN_POINT ( 'NONE',  ( 11.00000000000000000, 0.000000000000000000, 0.000000000000000000 ) ) ;
#49 = EDGE_LOOP ( 'NONE', ( #221, #75, #183, #215 ) ) ;
#50 = LOCAL_TIME ( 12, 17, 17.00000000000000000, #140 ) ;
#51 = ORIENTED_EDGE ( 'NONE', *, *, #53, .F. ) ;
#52 = PERSON_AND_ORGANIZATION_ROLE ( 'creator' ) ;
#53 = EDGE_CURVE ( 'NONE', #165, #135, #13, .T. ) ;
#54 = PERSON_AND_ORGANIZATION ( #79, #116 ) ;
#55 = AXIS2_PLACEMENT_3D ( 'NONE', #46, #115, #9 ) ;
#56 = EDGE_LOOP ( 'NONE', ( #97, #42, #81, #77 ) ) ;
#57 = VECTOR ( 'NONE', #60, 1000.000000000000000 ) ;
#58 = DIRECTION ( 'NONE',  ( 1.000000000000000000, 0.000000000000000000, 0.000000000000000000 ) ) ;
#59 = ADVANCED_FACE ( 'NONE', ( #236 ), #25, .T. ) ;
#60 = DIRECTION ( 'NONE',  ( -0.9647638212377321887, 0.000000000000000000, 0.2631174057921087384 ) ) ;
#61 = CIRCLE ( 'NONE', #198, 11.44521532941026720 ) ;
#62 = EDGE_LOOP ( 'NONE', ( #196, #200, #30, #111 ) ) ;
#63 = CARTESIAN_POINT ( 'NONE',  ( 11.00000000000000000, 7.960204194457796463E-16, -13.00000000000000178 ) ) ;
#64 = APPROVAL ( #248, 'UNSPECIFIED' ) ;
#65 = PERSON_AND_ORGANIZATION ( #79, #116 ) ;
#66 = DIRECTION ( 'NONE',  ( 0.000000000000000000, 0.000000000000000000, 1.000000000000000000 ) ) ;
#67 = LOCAL_TIME ( 12, 17, 17.00000000000000000, #231 ) ;
#68 = LOCAL_TIME ( 12, 17, 17.00000000000000000, #108 ) ;
#69 = CARTESIAN_POINT ( 'NONE',  ( 11.00000000000000000, 1.585331651743553354E-15, -11.44521532941026720 ) ) ;
#70 = APPROVAL_ROLE ( '' ) ;
#71 = CARTESIAN_POINT ( 'NONE',  ( 11.00000000000000000, 0.000000000000000000, 0.000000000000000000 ) ) ;
#72 = VERTEX_POINT ( 'NONE', #69 ) ;
#73 = SECURITY_CLASSIFICATION ( '', '', #185 ) ;
#74 = DATE_AND_TIME ( #127, #68 ) ;
#75 = ORIENTED_EDGE ( 'NONE', *, *, #138, .F. ) ;
#76 = AXIS2_PLACEMENT_3D ( 'NONE', #71, #141, #220 ) ;
#77 = ORIENTED_EDGE ( 'NONE', *, *, #39, .F. ) ;
#78 = DATE_AND_TIME ( #109, #210 ) ;
#79 = PERSON ( 'UNSPECIFIED', 'UNSPECIFIED', 'UNSPECIFIED', ('UNSPECIFIED'), ('UNSPECIFIED'), ('UNSPECIFIED') ) ;
#80 = CLOSED_SHELL ( 'NONE', ( #7, #59, #41, #244, #24, #148 ) ) ;
#81 = ORIENTED_EDGE ( 'NONE', *, *, #219, .T. ) ;
#82 = CC_DESIGN_APPROVAL ( #91, ( #27 ) ) ;
#83 = DIRECTION ( 'NONE',  ( -0.9647638212377321887, 0.000000000000000000, 0.2631174057921087384 ) ) ;
#84 = DIRECTION ( 'NONE',  ( 1.000000000000000000, 0.000000000000000000, 0.000000000000000000 ) ) ;
#85 = DIRECTION ( 'NONE',  ( -1.000000000000000000, -0.000000000000000000, -0.000000000000000000 ) ) ;
#86 = CIRCLE ( 'NONE', #76, 13.00000000000000178 ) ;
#87 = DIRECTION ( 'NONE',  ( 1.000000000000000000, 0.000000000000000000, 0.000000000000000000 ) ) ;
#88 = CC_DESIGN_PERSON_AND_ORGANIZATION_ASSIGNMENT ( #123, #89, ( #27 ) ) ;
#89 = PERSON_AND_ORGANIZATION_ROLE ( 'creator' ) ;
#90 = CARTESIAN_POINT ( 'NONE',  ( 11.00000000000000000, 0.000000000000000000, 0.000000000000000000 ) ) ;
#91 = APPROVAL ( #193, 'UNSPECIFIED' ) ;
#92 = CIRCLE ( 'NONE', #146, 14.44521532941026543 ) ;
#93 = DATE_TIME_ROLE ( 'classification_date' ) ;
#94 = CARTESIAN_POINT ( 'NONE',  ( 0.000000000000000000, 0.000000000000000000, 0.000000000000000000 ) ) ;
#95 = CC_DESIGN_PERSON_AND_ORGANIZATION_ASSIGNMENT ( #65, #117, ( #194 ) ) ;
#96 = VECTOR ( 'NONE', #20, 1000.000000000000000 ) ;
#97 = ORIENTED_EDGE ( 'NONE', *, *, #212, .F. ) ;
#98 = CC_DESIGN_APPROVAL ( #64, ( #73 ) ) ;
#99 = VERTEX_POINT ( 'NONE', #63 ) ;
#100 = CALENDAR_DATE ( 2024, 5, 9 ) ;
#101 = CARTESIAN_POINT ( 'NONE',  ( 10.60532389131183706, 0.000000000000000000, 0.000000000000000000 ) ) ;
#102 = FACE_BOUND ( 'NONE', #184, .T. ) ;
#103 = EDGE_CURVE ( 'NONE', #99, #124, #137, .T. ) ;
#104 = DIRECTION ( 'NONE',  ( -1.000000000000000000, -0.000000000000000000, -0.000000000000000000 ) ) ;
#105 = CARTESIAN_POINT ( 'NONE',  ( 0.000000000000000000, 0.000000000000000000, 0.000000000000000000 ) ) ;
#106 = CC_DESIGN_PERSON_AND_ORGANIZATION_ASSIGNMENT ( #54, #52, ( #222 ) ) ;
#107 = VECTOR ( 'NONE', #129, 1000.000000000000000 ) ;
#108 = COORDINATED_UNIVERSAL_TIME_OFFSET ( 1, 0, .AHEAD. ) ;
#109 = CALENDAR_DATE ( 2024, 5, 9 ) ;
#110 = AXIS2_PLACEMENT_3D ( 'NONE', #94, #164, #150 ) ;
#111 = ORIENTED_EDGE ( 'NONE', *, *, #219, .F. ) ;
#112 = APPLICATION_PROTOCOL_DEFINITION ( 'international standard', 'config_control_design', 1994, #23 ) ;
#113 = AXIS2_PLACEMENT_3D ( 'NONE', #101, #216, #66 ) ;
#114 = DIRECTION ( 'NONE',  ( 0.000000000000000000, 0.000000000000000000, -1.000000000000000000 ) ) ;
#115 = DIRECTION ( 'NONE',  ( 1.000000000000000000, 0.000000000000000000, 0.000000000000000000 ) ) ;
#116 = ORGANIZATION ( 'UNSPECIFIED', 'UNSPECIFIED', '' ) ;
#117 = PERSON_AND_ORGANIZATION_ROLE ( 'design_owner' ) ;
#118 = DIRECTION ( 'NONE',  ( 0.000000000000000000, 0.000000000000000000, -1.000000000000000000 ) ) ;
#119 = EDGE_CURVE ( 'NONE', #228, #72, #61, .T. ) ;
#120 = PERSON_AND_ORGANIZATION ( #79, #116 ) ;
#121 = CARTESIAN_POINT ( 'NONE',  ( 11.00000000000000000, 0.000000000000000000, 0.000000000000000000 ) ) ;
#122 = FACE_OUTER_BOUND ( 'NONE', #56, .T. ) ;
#123 = PERSON_AND_ORGANIZATION ( #79, #116 ) ;
#124 = VERTEX_POINT ( 'NONE', #239 ) ;
#125 = CC_DESIGN_PERSON_AND_ORGANIZATION_ASSIGNMENT ( #211, #187, ( #73 ) ) ;
#126 = PERSON_AND_ORGANIZATION ( #79, #116 ) ;
#127 = CALENDAR_DATE ( 2024, 5, 9 ) ;
#128 = COORDINATED_UNIVERSAL_TIME_OFFSET ( 1, 0, .AHEAD. ) ;
#129 = DIRECTION ( 'NONE',  ( -0.9647638212377321887, 3.222258888032611890E-17, -0.2631174057921087384 ) ) ;
#130 = AXIS2_PLACEMENT_3D ( 'NONE', #90, #136, #217 ) ;
#131 = PERSON_AND_ORGANIZATION_ROLE ( 'design_supplier' ) ;
#132 =( LENGTH_UNIT ( ) NAMED_UNIT ( * ) SI_UNIT ( .MILLI., .METRE. ) );
#133 = PLANE ( 'NONE',  #38 ) ;
#134 = AXIS2_PLACEMENT_3D ( 'NONE', #4, #85, #238 ) ;
#135 = VERTEX_POINT ( 'NONE', #240 ) ;
#136 = DIRECTION ( 'NONE',  ( -1.000000000000000000, -0.000000000000000000, -0.000000000000000000 ) ) ;
#137 = CIRCLE ( 'NONE', #214, 13.00000000000000178 ) ;
#138 = EDGE_CURVE ( 'NONE', #124, #99, #86, .T. ) ;
#139 = DIRECTION ( 'NONE',  ( 0.000000000000000000, 0.000000000000000000, -1.000000000000000000 ) ) ;
#140 = COORDINATED_UNIVERSAL_TIME_OFFSET ( 1, 0, .AHEAD. ) ;
#141 = DIRECTION ( 'NONE',  ( 1.000000000000000000, 0.000000000000000000, 0.000000000000000000 ) ) ;
#142 = CC_DESIGN_PERSON_AND_ORGANIZATION_ASSIGNMENT ( #126, #131, ( #222 ) ) ;
#143 = EDGE_LOOP ( 'NONE', ( #156, #34 ) ) ;
#144 = CARTESIAN_POINT ( 'NONE',  ( 0.000000000000000000, -9.797174393178825657E-16, 16.00000000000000000 ) ) ;
#145 = ORIENTED_EDGE ( 'NONE', *, *, #119, .F. ) ;
#146 = AXIS2_PLACEMENT_3D ( 'NONE', #37, #12, #179 ) ;
#147 = LINE ( 'NONE', #44, #57 ) ;
#148 = ADVANCED_FACE ( 'NONE', ( #122 ), #157, .F. ) ;
#149 = VECTOR ( 'NONE', #83, 1000.000000000000000 ) ;
#150 = DIRECTION ( 'NONE',  ( 1.000000000000000000, 0.000000000000000000, 0.000000000000000000 ) ) ;
#151 = DIRECTION ( 'NONE',  ( 1.000000000000000000, 0.000000000000000000, 0.000000000000000000 ) ) ;
#152 = DIRECTION ( 'NONE',  ( 0.000000000000000000, 0.000000000000000000, -1.000000000000000000 ) ) ;
#153 = VERTEX_POINT ( 'NONE', #223 ) ;
#154 = DIRECTION ( 'NONE',  ( 1.000000000000000000, 0.000000000000000000, 0.000000000000000000 ) ) ;
#155 = DIRECTION ( 'NONE',  ( 0.000000000000000000, 0.000000000000000000, -1.000000000000000000 ) ) ;
#156 = ORIENTED_EDGE ( 'NONE', *, *, #168, .T. ) ;
#157 = CONICAL_SURFACE ( 'NONE', #191, 11.55285426814340255, 0.2662520491509253184 ) ;
#158 = PERSON_AND_ORGANIZATION ( #79, #116 ) ;
#159 = DIRECTION ( 'NONE',  ( 0.000000000000000000, 0.000000000000000000, 1.000000000000000000 ) ) ;
#160 = ORIENTED_EDGE ( 'NONE', *, *, #1, .F. ) ;
#161 = CIRCLE ( 'NONE', #55, 16.00000000000000000 ) ;
#162 = ORIENTED_EDGE ( 'NONE', *, *, #1, .T. ) ;
#163 = APPROVAL ( #11, 'UNSPECIFIED' ) ;
#164 = DIRECTION ( 'NONE',  ( 0.000000000000000000, 0.000000000000000000, 1.000000000000000000 ) ) ;
#165 = VERTEX_POINT ( 'NONE', #144 ) ;
#166 = LOCAL_TIME ( 12, 17, 17.00000000000000000, #225 ) ;
#167 =( NAMED_UNIT ( * ) SI_UNIT ( $, .STERADIAN. ) SOLID_ANGLE_UNIT ( ) );
#168 = EDGE_CURVE ( 'NONE', #47, #153, #92, .T. ) ;
#169 = ORIENTED_EDGE ( 'NONE', *, *, #45, .F. ) ;
#170 = ADVANCED_BREP_SHAPE_REPRESENTATION ( '3D_M2060_32-25_174121050', ( #209, #110 ), #235 ) ;
#171 = CARTESIAN_POINT ( 'NONE',  ( 11.00000000000000000, 0.000000000000000000, 0.000000000000000000 ) ) ;
#172 = CARTESIAN_POINT ( 'NONE',  ( 0.000000000000000000, 0.000000000000000000, 0.000000000000000000 ) ) ;
#173 = DIRECTION ( 'NONE',  ( 0.000000000000000000, 0.000000000000000000, -1.000000000000000000 ) ) ;
#174 = FACE_OUTER_BOUND ( 'NONE', #49, .T. ) ;
#175 = EDGE_CURVE ( 'NONE', #99, #135, #14, .T. ) ;
#176 = LINE ( 'NONE', #249, #96 ) ;
#177 = APPROVAL_DATE_TIME ( #5, #91 ) ;
#178 = DATE_AND_TIME ( #199, #166 ) ;
#179 = DIRECTION ( 'NONE',  ( 0.000000000000000000, 0.000000000000000000, -1.000000000000000000 ) ) ;
#180 = APPROVAL_DATE_TIME ( #78, #64 ) ;
#181 = CONICAL_SURFACE ( 'NONE', #130, 13.00000000000000178, 0.2662520491509253184 ) ;
#182 = CALENDAR_DATE ( 2024, 5, 9 ) ;
#183 = ORIENTED_EDGE ( 'NONE', *, *, #45, .T. ) ;
#184 = EDGE_LOOP ( 'NONE', ( #145, #26 ) ) ;
#185 = SECURITY_CLASSIFICATION_LEVEL ( 'unclassified' ) ;
#186 = CARTESIAN_POINT ( 'NONE',  ( 11.00000000000000000, 0.000000000000000000, 0.000000000000000000 ) ) ;
#187 = PERSON_AND_ORGANIZATION_ROLE ( 'classification_officer' ) ;
#188 = AXIS2_PLACEMENT_3D ( 'NONE', #172, #6, #173 ) ;
#189 = CC_DESIGN_DATE_AND_TIME_ASSIGNMENT ( #17, #93, ( #73 ) ) ;
#190 = ORIENTED_EDGE ( 'NONE', *, *, #103, .T. ) ;
#191 = AXIS2_PLACEMENT_3D ( 'NONE', #32, #104, #159 ) ;
#192 = PLANE ( 'NONE',  #31 ) ;
#193 = APPROVAL_STATUS ( 'not_yet_approved' ) ;
#194 = PRODUCT ( '3D_M2060_32-25_174121050', '3D_M2060_32-25_174121050', '', ( #232 ) ) ;
#195 = LINE ( 'NONE', #218, #149 ) ;
#196 = ORIENTED_EDGE ( 'NONE', *, *, #119, .T. ) ;
#197 = DIRECTION ( 'NONE',  ( 1.000000000000000000, 0.000000000000000000, 0.000000000000000000 ) ) ;
#198 = AXIS2_PLACEMENT_3D ( 'NONE', #121, #87, #155 ) ;
#199 = CALENDAR_DATE ( 2024, 5, 9 ) ;
#200 = ORIENTED_EDGE ( 'NONE', *, *, #212, .T. ) ;
#201 = DESIGN_CONTEXT ( 'detailed design', #35, 'design' ) ;
#202 = DATE_TIME_ROLE ( 'creation_date' ) ;
#203 = CC_DESIGN_SECURITY_CLASSIFICATION ( #73, ( #222 ) ) ;
#204 = CC_DESIGN_APPROVAL ( #163, ( #222 ) ) ;
#205 = ORIENTED_EDGE ( 'NONE', *, *, #138, .T. ) ;
#206 = CARTESIAN_POINT ( 'NONE',  ( 11.00000000000000000, 1.592040838891559293E-15, -13.00000000000000178 ) ) ;
#207 = EDGE_LOOP ( 'NONE', ( #51, #160 ) ) ;
#208 = DIRECTION ( 'NONE',  ( 0.000000000000000000, 0.000000000000000000, -1.000000000000000000 ) ) ;
#209 = MANIFOLD_SOLID_BREP ( 'Wandung2', #80 ) ;
#210 = LOCAL_TIME ( 12, 17, 17.00000000000000000, #128 ) ;
#211 = PERSON_AND_ORGANIZATION ( #79, #116 ) ;
#212 = EDGE_CURVE ( 'NONE', #72, #153, #176, .T. ) ;
#213 =( NAMED_UNIT ( * ) PLANE_ANGLE_UNIT ( ) SI_UNIT ( $, .RADIAN. ) );
#214 = AXIS2_PLACEMENT_3D ( 'NONE', #48, #84, #152 ) ;
#215 = ORIENTED_EDGE ( 'NONE', *, *, #53, .T. ) ;
#216 = DIRECTION ( 'NONE',  ( -1.000000000000000000, -0.000000000000000000, -0.000000000000000000 ) ) ;
#217 = DIRECTION ( 'NONE',  ( 0.000000000000000000, 0.000000000000000000, 1.000000000000000000 ) ) ;
#218 = CARTESIAN_POINT ( 'NONE',  ( 11.00000000000000000, 0.000000000000000000, 13.00000000000000178 ) ) ;
#219 = EDGE_CURVE ( 'NONE', #228, #47, #147, .T. ) ;
#220 = DIRECTION ( 'NONE',  ( 0.000000000000000000, 0.000000000000000000, -1.000000000000000000 ) ) ;
#221 = ORIENTED_EDGE ( 'NONE', *, *, #175, .F. ) ;
#222 = PRODUCT_DEFINITION_FORMATION_WITH_SPECIFIED_SOURCE ( 'ANY', '', #194, .NOT_KNOWN. ) ;
#223 = CARTESIAN_POINT ( 'NONE',  ( 0.000000000000000000, 1.769028671615656471E-15, -14.44521532941026720 ) ) ;
#224 = APPROVAL_DATE_TIME ( #74, #163 ) ;
#225 = COORDINATED_UNIVERSAL_TIME_OFFSET ( 1, 0, .AHEAD. ) ;
#226 = CIRCLE ( 'NONE', #8, 14.44521532941026543 ) ;
#227 = EDGE_LOOP ( 'NONE', ( #205, #190 ) ) ;
#228 = VERTEX_POINT ( 'NONE', #233 ) ;
#229 = EDGE_CURVE ( 'NONE', #72, #228, #230, .T. ) ;
#230 = CIRCLE ( 'NONE', #43, 11.44521532941026720 ) ;
#231 = COORDINATED_UNIVERSAL_TIME_OFFSET ( 1, 0, .AHEAD. ) ;
#232 = MECHANICAL_CONTEXT ( 'NONE', #23, 'mechanical' ) ;
#233 = CARTESIAN_POINT ( 'NONE',  ( 11.00000000000000000, 0.000000000000000000, 11.44521532941026720 ) ) ;
#234 = SHAPE_DEFINITION_REPRESENTATION ( #3, #170 ) ;
#235 =( GEOMETRIC_REPRESENTATION_CONTEXT ( 3 ) GLOBAL_UNCERTAINTY_ASSIGNED_CONTEXT ( ( #33 ) ) GLOBAL_UNIT_ASSIGNED_CONTEXT ( ( #132, #213, #167 ) ) REPRESENTATION_CONTEXT ( 'NONE', 'WORKASPACE' ) );
#236 = FACE_OUTER_BOUND ( 'NONE', #245, .T. ) ;
#237 = FACE_OUTER_BOUND ( 'NONE', #62, .T. ) ;
#238 = DIRECTION ( 'NONE',  ( 0.000000000000000000, 0.000000000000000000, 1.000000000000000000 ) ) ;
#239 = CARTESIAN_POINT ( 'NONE',  ( 11.00000000000000000, 7.960204194457796463E-16, 13.00000000000000178 ) ) ;
#240 = CARTESIAN_POINT ( 'NONE',  ( 0.000000000000000000, 2.939152317953647894E-15, -16.00000000000000000 ) ) ;
#241 = CC_DESIGN_DATE_AND_TIME_ASSIGNMENT ( #178, #202, ( #27 ) ) ;
#242 = CONICAL_SURFACE ( 'NONE', #113, 11.55285426814340255, 0.2662520491509253184 ) ;
#243 = PERSON_AND_ORGANIZATION ( #79, #116 ) ;
#244 = ADVANCED_FACE ( 'NONE', ( #16, #247 ), #133, .F. ) ;
#245 = EDGE_LOOP ( 'NONE', ( #10, #15, #162, #169 ) ) ;
#246 = APPROVAL_PERSON_ORGANIZATION ( #120, #91, #70 ) ;
#247 = FACE_OUTER_BOUND ( 'NONE', #207, .T. ) ;
#248 = APPROVAL_STATUS ( 'not_yet_approved' ) ;
#249 = CARTESIAN_POINT ( 'NONE',  ( 10.60532389131183706, 1.414816600049765688E-15, -11.55285426814340255 ) ) ;
ENDSEC;
END-ISO-10303-21;
