ISO-10303-21;
HEADER;
FILE_DESCRIPTION(('STEP AP214'),'1');
FILE_NAME('V-Boerdel-DN15.stp','2023-07-13T07:41:40',(' '),(' '),'Spatial InterOp 3D',' ',' ');
FILE_SCHEMA(('automotive_design'));
ENDSEC;
DATA;
#1=PRODUCT_DEFINITION_CONTEXT('',#16,'design');
#2=APPLICATION_PROTOCOL_DEFINITION('INTERNATIONAL STANDARD','automotive_design',1994,#16);
#3=PRODUCT_CATEGORY_RELATIONSHIP('NONE','NONE',#17,#18);
#4=SHAPE_DEFINITION_REPRESENTATION(#19,#20);
#5=PRODUCT_DEFINITION_CONTEXT('',#21,'design');
#6=APPLICATION_PROTOCOL_DEFINITION('INTERNATIONAL STANDARD','automotive_design',1994,#21);
#7=PRODUCT_CATEGORY_RELATIONSHIP('NONE','NONE',#22,#23);
#8=CONTEXT_DEPENDENT_SHAPE_REPRESENTATION(#24,#25);
#9=SHAPE_DEFINITION_REPRESENTATION(#26,#27);
#10=SHAPE_REPRESENTATION_RELATIONSHIP('NONE','NONE',#27,#28);
#11=MECHANICAL_DESIGN_GEOMETRIC_PRESENTATION_REPRESENTATION(' ',(#29,#30,#31,#32,#33,#34,#35,#36,#37,#38,#39,#40,#41,#42),#12);
#12= (GEOMETRIC_REPRESENTATION_CONTEXT(3)GLOBAL_UNCERTAINTY_ASSIGNED_CONTEXT((#45))GLOBAL_UNIT_ASSIGNED_CONTEXT((#47,#48,#49))REPRESENTATION_CONTEXT('NONE','WORKSPACE'));
#16=APPLICATION_CONTEXT(' ');
#17=PRODUCT_CATEGORY('part','NONE');
#18=PRODUCT_RELATED_PRODUCT_CATEGORY('detail',' ',(#51));
#19=PRODUCT_DEFINITION_SHAPE('NONE','NONE',#52);
#20=SHAPE_REPRESENTATION('3D-Arbeitsebene',(#53,#54),#55);
#21=APPLICATION_CONTEXT(' ');
#22=PRODUCT_CATEGORY('part','NONE');
#23=PRODUCT_RELATED_PRODUCT_CATEGORY('detail',' ',(#56));
#24=(REPRESENTATION_RELATIONSHIP('','',#27,#20)REPRESENTATION_RELATIONSHIP_WITH_TRANSFORMATION(#59)SHAPE_REPRESENTATION_RELATIONSHIP());
#25=PRODUCT_DEFINITION_SHAPE('NAUO-PROD-DEF','NAUO-PROD-DEF',#61);
#26=PRODUCT_DEFINITION_SHAPE('NONE','NONE',#62);
#27=SHAPE_REPRESENTATION('3D-Arbeitsebene',(#53),#55);
#28=ADVANCED_BREP_SHAPE_REPRESENTATION('',(#63),#12);
#29=STYLED_ITEM('',(#64),#65);
#30=STYLED_ITEM('',(#66),#67);
#31=STYLED_ITEM('',(#68),#69);
#32=STYLED_ITEM('',(#70),#71);
#33=STYLED_ITEM('',(#72),#73);
#34=STYLED_ITEM('',(#74),#75);
#35=STYLED_ITEM('',(#76),#77);
#36=STYLED_ITEM('',(#78),#79);
#37=STYLED_ITEM('',(#80),#81);
#38=STYLED_ITEM('',(#82),#83);
#39=STYLED_ITEM('',(#84),#85);
#40=STYLED_ITEM('',(#86),#87);
#41=STYLED_ITEM('',(#88),#89);
#42=STYLED_ITEM('',(#90),#63);
#45=UNCERTAINTY_MEASURE_WITH_UNIT(LENGTH_MEASURE(1.0E-006),#47,'','');
#47= (CONVERSION_BASED_UNIT('MILLIMETRE',#93)LENGTH_UNIT()NAMED_UNIT(#96));
#48= (NAMED_UNIT(#98)PLANE_ANGLE_UNIT()SI_UNIT($,.RADIAN.));
#49= (NAMED_UNIT(#98)SOLID_ANGLE_UNIT()SI_UNIT($,.STERADIAN.));
#51=PRODUCT('3D-Arbeitsebene','3D-Arbeitsebene','PART-3D-Arbeitsebene-DESC',(#104));
#52=PRODUCT_DEFINITION('3D-Arbeitsebene','3D-Arbeitsebene',#105,#1);
#53=AXIS2_PLACEMENT_3D('',#106,#107,#108);
#54=AXIS2_PLACEMENT_3D('',#109,#110,#111);
#55= (GEOMETRIC_REPRESENTATION_CONTEXT(3)GLOBAL_UNCERTAINTY_ASSIGNED_CONTEXT((#114))GLOBAL_UNIT_ASSIGNED_CONTEXT((#116,#117,#118))REPRESENTATION_CONTEXT('NONE','WORKSPACE'));
#56=PRODUCT('3D-Arbeitsebene','3D-Arbeitsebene','PART-3D-Arbeitsebene-DESC',(#120));
#59=ITEM_DEFINED_TRANSFORMATION('','',#53,#54);
#61=NEXT_ASSEMBLY_USAGE_OCCURRENCE('3D-Arbeitsebene','3D-Arbeitsebene','3D-Arbeitsebene',#52,#62,$);
#62=PRODUCT_DEFINITION('3D-Arbeitsebene','3D-Arbeitsebene',#121,#5);
#63=MANIFOLD_SOLID_BREP('',#122);
#64=PRESENTATION_STYLE_ASSIGNMENT((#123));
#65=ADVANCED_FACE('',(#124),#125,.F.);
#66=PRESENTATION_STYLE_ASSIGNMENT((#126));
#67=ADVANCED_FACE('',(#127),#128,.T.);
#68=PRESENTATION_STYLE_ASSIGNMENT((#129));
#69=ADVANCED_FACE('',(#130),#131,.T.);
#70=PRESENTATION_STYLE_ASSIGNMENT((#132));
#71=ADVANCED_FACE('',(#133),#134,.F.);
#72=PRESENTATION_STYLE_ASSIGNMENT((#135));
#73=ADVANCED_FACE('',(#136),#137,.T.);
#74=PRESENTATION_STYLE_ASSIGNMENT((#138));
#75=ADVANCED_FACE('',(#139,#140),#141,.T.);
#76=PRESENTATION_STYLE_ASSIGNMENT((#142));
#77=ADVANCED_FACE('',(#143),#144,.T.);
#78=PRESENTATION_STYLE_ASSIGNMENT((#145));
#79=ADVANCED_FACE('',(#146),#147,.F.);
#80=PRESENTATION_STYLE_ASSIGNMENT((#148));
#81=ADVANCED_FACE('',(#149,#150),#151,.T.);
#82=PRESENTATION_STYLE_ASSIGNMENT((#152));
#83=ADVANCED_FACE('',(#153),#154,.T.);
#84=PRESENTATION_STYLE_ASSIGNMENT((#155));
#85=ADVANCED_FACE('',(#156,#157),#158,.T.);
#86=PRESENTATION_STYLE_ASSIGNMENT((#159));
#87=ADVANCED_FACE('',(#160),#161,.T.);
#88=PRESENTATION_STYLE_ASSIGNMENT((#162));
#89=ADVANCED_FACE('',(#163),#164,.F.);
#90=PRESENTATION_STYLE_ASSIGNMENT((#165));
#93=LENGTH_MEASURE_WITH_UNIT(LENGTH_MEASURE(1.0),#166);
#96=DIMENSIONAL_EXPONENTS(1.0,0.0,0.0,0.0,0.0,0.0,0.0);
#98=DIMENSIONAL_EXPONENTS(0.0,0.0,0.0,0.0,0.0,0.0,0.0);
#104=PRODUCT_CONTEXT('',#16,'mechanical');
#105=PRODUCT_DEFINITION_FORMATION_WITH_SPECIFIED_SOURCE(' ','NONE',#51,.NOT_KNOWN.);
#106=CARTESIAN_POINT('',(0.0,0.0,0.0));
#107=DIRECTION('',(0.0,0.0,1.0));
#108=DIRECTION('',(1.0,0.0,0.0));
#109=CARTESIAN_POINT('',(0.0,0.0,0.0));
#110=DIRECTION('',(0.0,0.0,1.0));
#111=DIRECTION('',(1.0,0.0,0.0));
#114=UNCERTAINTY_MEASURE_WITH_UNIT(LENGTH_MEASURE(1.0E-006),#116,'','');
#116= (CONVERSION_BASED_UNIT('MILLIMETRE',#169)LENGTH_UNIT()NAMED_UNIT(#172));
#117= (NAMED_UNIT(#174)PLANE_ANGLE_UNIT()SI_UNIT($,.RADIAN.));
#118= (NAMED_UNIT(#174)SOLID_ANGLE_UNIT()SI_UNIT($,.STERADIAN.));
#120=PRODUCT_CONTEXT('',#21,'mechanical');
#121=PRODUCT_DEFINITION_FORMATION_WITH_SPECIFIED_SOURCE(' ','NONE',#56,.NOT_KNOWN.);
#122=CLOSED_SHELL('',(#65,#67,#69,#71,#73,#75,#77,#79,#81,#83,#85,#87,#89));
#123=SURFACE_STYLE_USAGE(.BOTH.,#180);
#124=FACE_OUTER_BOUND('',#181,.T.);
#125=CYLINDRICAL_SURFACE('',#182,8.65000000000009);
#126=SURFACE_STYLE_USAGE(.BOTH.,#183);
#127=FACE_OUTER_BOUND('',#184,.T.);
#128=TOROIDAL_SURFACE('',#185,14.6500000000001,6.0);
#129=SURFACE_STYLE_USAGE(.BOTH.,#186);
#130=FACE_OUTER_BOUND('',#187,.T.);
#131=CYLINDRICAL_SURFACE('',#188,22.5);
#132=SURFACE_STYLE_USAGE(.BOTH.,#189);
#133=FACE_OUTER_BOUND('',#190,.T.);
#134=TOROIDAL_SURFACE('',#191,13.6500000000001,3.0);
#135=SURFACE_STYLE_USAGE(.BOTH.,#192);
#136=FACE_OUTER_BOUND('',#193,.T.);
#137=CYLINDRICAL_SURFACE('',#194,10.6500000000001);
#138=SURFACE_STYLE_USAGE(.BOTH.,#195);
#139=FACE_OUTER_BOUND('',#196,.T.);
#140=FACE_BOUND('',#197,.T.);
#141=PLANE('',#198);
#142=SURFACE_STYLE_USAGE(.BOTH.,#199);
#143=FACE_OUTER_BOUND('',#200,.T.);
#144=CYLINDRICAL_SURFACE('',#201,10.6500000000001);
#145=SURFACE_STYLE_USAGE(.BOTH.,#202);
#146=FACE_OUTER_BOUND('',#203,.T.);
#147=TOROIDAL_SURFACE('',#204,13.6500000000001,3.0);
#148=SURFACE_STYLE_USAGE(.BOTH.,#205);
#149=FACE_OUTER_BOUND('',#206,.T.);
#150=FACE_BOUND('',#207,.T.);
#151=PLANE('',#208);
#152=SURFACE_STYLE_USAGE(.BOTH.,#209);
#153=FACE_OUTER_BOUND('',#210,.T.);
#154=CYLINDRICAL_SURFACE('',#211,22.5);
#155=SURFACE_STYLE_USAGE(.BOTH.,#212);
#156=FACE_BOUND('',#213,.T.);
#157=FACE_OUTER_BOUND('',#214,.T.);
#158=PLANE('',#215);
#159=SURFACE_STYLE_USAGE(.BOTH.,#216);
#160=FACE_OUTER_BOUND('',#217,.T.);
#161=TOROIDAL_SURFACE('',#218,14.6500000000001,6.0);
#162=SURFACE_STYLE_USAGE(.BOTH.,#219);
#163=FACE_OUTER_BOUND('',#220,.T.);
#164=CYLINDRICAL_SURFACE('',#221,8.65000000000009);
#165=SURFACE_STYLE_USAGE(.BOTH.,#222);
#166= (NAMED_UNIT(#96)LENGTH_UNIT()SI_UNIT(.MILLI.,.METRE.));
#169=LENGTH_MEASURE_WITH_UNIT(LENGTH_MEASURE(1.0),#224);
#172=DIMENSIONAL_EXPONENTS(1.0,0.0,0.0,0.0,0.0,0.0,0.0);
#174=DIMENSIONAL_EXPONENTS(0.0,0.0,0.0,0.0,0.0,0.0,0.0);
#180=SURFACE_SIDE_STYLE('',(#225));
#181=EDGE_LOOP('',(#226,#227,#228,#229,#230));
#182=AXIS2_PLACEMENT_3D('',#231,#232,#233);
#183=SURFACE_SIDE_STYLE('',(#234));
#184=EDGE_LOOP('',(#235,#236,#237,#238,#239));
#185=AXIS2_PLACEMENT_3D('',#240,#241,#242);
#186=SURFACE_SIDE_STYLE('',(#243));
#187=EDGE_LOOP('',(#244,#245,#246,#247));
#188=AXIS2_PLACEMENT_3D('',#248,#249,#250);
#189=SURFACE_SIDE_STYLE('',(#251));
#190=EDGE_LOOP('',(#252,#253,#254,#255,#256,#257));
#191=AXIS2_PLACEMENT_3D('',#258,#259,#260);
#192=SURFACE_SIDE_STYLE('',(#261));
#193=EDGE_LOOP('',(#262,#263,#264,#265,#266));
#194=AXIS2_PLACEMENT_3D('',#267,#268,#269);
#195=SURFACE_SIDE_STYLE('',(#270));
#196=EDGE_LOOP('',(#271,#272));
#197=EDGE_LOOP('',(#273,#274));
#198=AXIS2_PLACEMENT_3D('',#275,#276,#277);
#199=SURFACE_SIDE_STYLE('',(#278));
#200=EDGE_LOOP('',(#279,#280,#281,#282,#283));
#201=AXIS2_PLACEMENT_3D('',#284,#285,#286);
#202=SURFACE_SIDE_STYLE('',(#287));
#203=EDGE_LOOP('',(#288,#289,#290,#291,#292));
#204=AXIS2_PLACEMENT_3D('',#293,#294,#295);
#205=SURFACE_SIDE_STYLE('',(#296));
#206=EDGE_LOOP('',(#297,#298));
#207=EDGE_LOOP('',(#299,#300,#301));
#208=AXIS2_PLACEMENT_3D('',#302,#303,#304);
#209=SURFACE_SIDE_STYLE('',(#305));
#210=EDGE_LOOP('',(#306,#307,#308,#309));
#211=AXIS2_PLACEMENT_3D('',#310,#311,#312);
#212=SURFACE_SIDE_STYLE('',(#313));
#213=EDGE_LOOP('',(#314,#315,#316));
#214=EDGE_LOOP('',(#317,#318));
#215=AXIS2_PLACEMENT_3D('',#319,#320,#321);
#216=SURFACE_SIDE_STYLE('',(#322));
#217=EDGE_LOOP('',(#323,#324,#325,#326,#327,#328));
#218=AXIS2_PLACEMENT_3D('',#329,#330,#331);
#219=SURFACE_SIDE_STYLE('',(#332));
#220=EDGE_LOOP('',(#333,#334,#335,#336,#337));
#221=AXIS2_PLACEMENT_3D('',#338,#339,#340);
#222=SURFACE_SIDE_STYLE('',(#341));
#224= (NAMED_UNIT(#172)LENGTH_UNIT()SI_UNIT(.MILLI.,.METRE.));
#225=SURFACE_STYLE_FILL_AREA(#343);
#226=ORIENTED_EDGE('',*,*,#344,.F.);
#227=ORIENTED_EDGE('',*,*,#345,.F.);
#228=ORIENTED_EDGE('',*,*,#346,.F.);
#229=ORIENTED_EDGE('',*,*,#347,.T.);
#230=ORIENTED_EDGE('',*,*,#348,.T.);
#231=CARTESIAN_POINT('',(0.0,-7.5,0.0));
#232=DIRECTION('',(0.0,1.0,0.0));
#233=DIRECTION('',(-1.0,0.0,0.0));
#234=SURFACE_STYLE_FILL_AREA(#349);
#235=ORIENTED_EDGE('',*,*,#350,.F.);
#236=ORIENTED_EDGE('',*,*,#351,.T.);
#237=ORIENTED_EDGE('',*,*,#352,.F.);
#238=ORIENTED_EDGE('',*,*,#347,.F.);
#239=ORIENTED_EDGE('',*,*,#353,.F.);
#240=CARTESIAN_POINT('',(0.0,-6.0,0.0));
#241=DIRECTION('',(0.0,1.0,0.0));
#242=DIRECTION('',(0.0,0.0,1.0));
#243=SURFACE_STYLE_FILL_AREA(#354);
#244=ORIENTED_EDGE('',*,*,#355,.F.);
#245=ORIENTED_EDGE('',*,*,#356,.T.);
#246=ORIENTED_EDGE('',*,*,#357,.F.);
#247=ORIENTED_EDGE('',*,*,#358,.F.);
#248=CARTESIAN_POINT('',(0.0,-1.5,0.0));
#249=DIRECTION('',(0.0,1.0,0.0));
#250=DIRECTION('',(-1.0,0.0,0.0));
#251=SURFACE_STYLE_FILL_AREA(#359);
#252=ORIENTED_EDGE('',*,*,#360,.F.);
#253=ORIENTED_EDGE('',*,*,#361,.T.);
#254=ORIENTED_EDGE('',*,*,#362,.T.);
#255=ORIENTED_EDGE('',*,*,#363,.F.);
#256=ORIENTED_EDGE('',*,*,#364,.F.);
#257=ORIENTED_EDGE('',*,*,#365,.F.);
#258=CARTESIAN_POINT('',(0.0,-6.0,0.0));
#259=DIRECTION('',(0.0,1.0,0.0));
#260=DIRECTION('',(0.0,0.0,1.0));
#261=SURFACE_STYLE_FILL_AREA(#366);
#262=ORIENTED_EDGE('',*,*,#367,.F.);
#263=ORIENTED_EDGE('',*,*,#368,.T.);
#264=ORIENTED_EDGE('',*,*,#369,.F.);
#265=ORIENTED_EDGE('',*,*,#370,.F.);
#266=ORIENTED_EDGE('',*,*,#362,.F.);
#267=CARTESIAN_POINT('',(0.0,-7.5,0.0));
#268=DIRECTION('',(0.0,1.0,0.0));
#269=DIRECTION('',(-1.0,0.0,0.0));
#270=SURFACE_STYLE_FILL_AREA(#371);
#271=ORIENTED_EDGE('',*,*,#368,.F.);
#272=ORIENTED_EDGE('',*,*,#372,.F.);
#273=ORIENTED_EDGE('',*,*,#373,.T.);
#274=ORIENTED_EDGE('',*,*,#345,.T.);
#275=CARTESIAN_POINT('',(-9.65000000000009,-9.0,0.0));
#276=DIRECTION('',(0.0,-1.0,0.0));
#277=DIRECTION('',(1.0,0.0,0.0));
#278=SURFACE_STYLE_FILL_AREA(#374);
#279=ORIENTED_EDGE('',*,*,#367,.T.);
#280=ORIENTED_EDGE('',*,*,#361,.F.);
#281=ORIENTED_EDGE('',*,*,#375,.F.);
#282=ORIENTED_EDGE('',*,*,#369,.T.);
#283=ORIENTED_EDGE('',*,*,#372,.T.);
#284=CARTESIAN_POINT('',(0.0,-7.5,0.0));
#285=DIRECTION('',(0.0,1.0,0.0));
#286=DIRECTION('',(-1.0,0.0,0.0));
#287=SURFACE_STYLE_FILL_AREA(#376);
#288=ORIENTED_EDGE('',*,*,#360,.T.);
#289=ORIENTED_EDGE('',*,*,#377,.F.);
#290=ORIENTED_EDGE('',*,*,#363,.T.);
#291=ORIENTED_EDGE('',*,*,#370,.T.);
#292=ORIENTED_EDGE('',*,*,#375,.T.);
#293=CARTESIAN_POINT('',(0.0,-6.0,0.0));
#294=DIRECTION('',(0.0,1.0,0.0));
#295=DIRECTION('',(0.0,0.0,1.0));
#296=SURFACE_STYLE_FILL_AREA(#378);
#297=ORIENTED_EDGE('',*,*,#356,.F.);
#298=ORIENTED_EDGE('',*,*,#379,.F.);
#299=ORIENTED_EDGE('',*,*,#364,.T.);
#300=ORIENTED_EDGE('',*,*,#377,.T.);
#301=ORIENTED_EDGE('',*,*,#365,.T.);
#302=CARTESIAN_POINT('',(-18.075,-3.0,0.0));
#303=DIRECTION('',(0.0,-1.0,0.0));
#304=DIRECTION('',(1.0,0.0,0.0));
#305=SURFACE_STYLE_FILL_AREA(#380);
#306=ORIENTED_EDGE('',*,*,#355,.T.);
#307=ORIENTED_EDGE('',*,*,#381,.F.);
#308=ORIENTED_EDGE('',*,*,#357,.T.);
#309=ORIENTED_EDGE('',*,*,#379,.T.);
#310=CARTESIAN_POINT('',(0.0,-1.5,0.0));
#311=DIRECTION('',(0.0,1.0,0.0));
#312=DIRECTION('',(-1.0,0.0,0.0));
#313=SURFACE_STYLE_FILL_AREA(#382);
#314=ORIENTED_EDGE('',*,*,#383,.F.);
#315=ORIENTED_EDGE('',*,*,#384,.F.);
#316=ORIENTED_EDGE('',*,*,#351,.F.);
#317=ORIENTED_EDGE('',*,*,#358,.T.);
#318=ORIENTED_EDGE('',*,*,#381,.T.);
#319=CARTESIAN_POINT('',(-18.575,0.0,0.0));
#320=DIRECTION('',(0.0,1.0,0.0));
#321=DIRECTION('',(-1.0,0.0,0.0));
#322=SURFACE_STYLE_FILL_AREA(#385);
#323=ORIENTED_EDGE('',*,*,#350,.T.);
#324=ORIENTED_EDGE('',*,*,#386,.F.);
#325=ORIENTED_EDGE('',*,*,#348,.F.);
#326=ORIENTED_EDGE('',*,*,#352,.T.);
#327=ORIENTED_EDGE('',*,*,#384,.T.);
#328=ORIENTED_EDGE('',*,*,#383,.T.);
#329=CARTESIAN_POINT('',(0.0,-6.0,0.0));
#330=DIRECTION('',(0.0,1.0,0.0));
#331=DIRECTION('',(0.0,0.0,1.0));
#332=SURFACE_STYLE_FILL_AREA(#387);
#333=ORIENTED_EDGE('',*,*,#344,.T.);
#334=ORIENTED_EDGE('',*,*,#386,.T.);
#335=ORIENTED_EDGE('',*,*,#353,.T.);
#336=ORIENTED_EDGE('',*,*,#346,.T.);
#337=ORIENTED_EDGE('',*,*,#373,.F.);
#338=CARTESIAN_POINT('',(0.0,-7.5,0.0));
#339=DIRECTION('',(0.0,1.0,0.0));
#340=DIRECTION('',(-1.0,0.0,0.0));
#341=SURFACE_STYLE_FILL_AREA(#388);
#343=FILL_AREA_STYLE('',(#389));
#344=EDGE_CURVE('',#390,#391,#392,.T.);
#345=EDGE_CURVE('',#393,#390,#394,.T.);
#346=EDGE_CURVE('',#395,#393,#396,.T.);
#347=EDGE_CURVE('',#395,#397,#398,.T.);
#348=EDGE_CURVE('',#397,#391,#399,.T.);
#349=FILL_AREA_STYLE('',(#400));
#350=EDGE_CURVE('',#401,#402,#403,.T.);
#351=EDGE_CURVE('',#401,#404,#405,.T.);
#352=EDGE_CURVE('',#397,#404,#406,.T.);
#353=EDGE_CURVE('',#402,#395,#407,.T.);
#354=FILL_AREA_STYLE('',(#408));
#355=EDGE_CURVE('',#409,#410,#411,.T.);
#356=EDGE_CURVE('',#409,#412,#413,.T.);
#357=EDGE_CURVE('',#414,#412,#415,.T.);
#358=EDGE_CURVE('',#410,#414,#416,.T.);
#359=FILL_AREA_STYLE('',(#417));
#360=EDGE_CURVE('',#418,#419,#420,.T.);
#361=EDGE_CURVE('',#418,#421,#422,.T.);
#362=EDGE_CURVE('',#421,#423,#424,.T.);
#363=EDGE_CURVE('',#425,#423,#426,.T.);
#364=EDGE_CURVE('',#427,#425,#428,.T.);
#365=EDGE_CURVE('',#419,#427,#429,.T.);
#366=FILL_AREA_STYLE('',(#430));
#367=EDGE_CURVE('',#431,#421,#432,.T.);
#368=EDGE_CURVE('',#431,#433,#434,.T.);
#369=EDGE_CURVE('',#435,#433,#436,.T.);
#370=EDGE_CURVE('',#423,#435,#437,.T.);
#371=FILL_AREA_STYLE('',(#438));
#372=EDGE_CURVE('',#433,#431,#439,.T.);
#373=EDGE_CURVE('',#390,#393,#440,.T.);
#374=FILL_AREA_STYLE('',(#441));
#375=EDGE_CURVE('',#435,#418,#442,.T.);
#376=FILL_AREA_STYLE('',(#443));
#377=EDGE_CURVE('',#425,#419,#444,.T.);
#378=FILL_AREA_STYLE('',(#445));
#379=EDGE_CURVE('',#412,#409,#446,.T.);
#380=FILL_AREA_STYLE('',(#447));
#381=EDGE_CURVE('',#414,#410,#448,.T.);
#382=FILL_AREA_STYLE('',(#449));
#383=EDGE_CURVE('',#450,#401,#451,.T.);
#384=EDGE_CURVE('',#404,#450,#452,.T.);
#385=FILL_AREA_STYLE('',(#453));
#386=EDGE_CURVE('',#391,#402,#454,.T.);
#387=FILL_AREA_STYLE('',(#455));
#388=FILL_AREA_STYLE('',(#456));
#389=FILL_AREA_STYLE_COLOUR('',#457);
#390=VERTEX_POINT('',#458);
#391=VERTEX_POINT('',#459);
#392=LINE('',#460,#461);
#393=VERTEX_POINT('',#462);
#394=CIRCLE('',#463,8.65000000000009);
#395=VERTEX_POINT('',#464);
#396=LINE('',#465,#466);
#397=VERTEX_POINT('',#467);
#398=CIRCLE('',#468,8.65000000000009);
#399=CIRCLE('',#469,8.65000000000009);
#400=FILL_AREA_STYLE_COLOUR('',#470);
#401=VERTEX_POINT('',#471);
#402=VERTEX_POINT('',#472);
#403=CIRCLE('',#473,6.0);
#404=VERTEX_POINT('',#474);
#405=CIRCLE('',#475,14.6500000000001);
#406=CIRCLE('',#476,6.0);
#407=CIRCLE('',#477,8.65000000000009);
#408=FILL_AREA_STYLE_COLOUR('',#478);
#409=VERTEX_POINT('',#479);
#410=VERTEX_POINT('',#480);
#411=LINE('',#481,#482);
#412=VERTEX_POINT('',#483);
#413=CIRCLE('',#484,22.5);
#414=VERTEX_POINT('',#485);
#415=LINE('',#486,#487);
#416=CIRCLE('',#488,22.5);
#417=FILL_AREA_STYLE_COLOUR('',#489);
#418=VERTEX_POINT('',#490);
#419=VERTEX_POINT('',#491);
#420=CIRCLE('',#492,3.0);
#421=VERTEX_POINT('',#493);
#422=CIRCLE('',#494,10.6500000000001);
#423=VERTEX_POINT('',#495);
#424=CIRCLE('',#496,10.6500000000001);
#425=VERTEX_POINT('',#497);
#426=CIRCLE('',#498,3.0);
#427=VERTEX_POINT('',#499);
#428=CIRCLE('',#500,13.6500000000001);
#429=CIRCLE('',#501,13.6500000000001);
#430=FILL_AREA_STYLE_COLOUR('',#502);
#431=VERTEX_POINT('',#503);
#432=LINE('',#504,#505);
#433=VERTEX_POINT('',#506);
#434=CIRCLE('',#507,10.6500000000001);
#435=VERTEX_POINT('',#508);
#436=LINE('',#509,#510);
#437=CIRCLE('',#511,10.6500000000001);
#438=FILL_AREA_STYLE_COLOUR('',#512);
#439=CIRCLE('',#513,10.6500000000001);
#440=CIRCLE('',#514,8.65000000000009);
#441=FILL_AREA_STYLE_COLOUR('',#515);
#442=CIRCLE('',#516,10.6500000000001);
#443=FILL_AREA_STYLE_COLOUR('',#517);
#444=CIRCLE('',#518,13.6500000000001);
#445=FILL_AREA_STYLE_COLOUR('',#519);
#446=CIRCLE('',#520,22.5);
#447=FILL_AREA_STYLE_COLOUR('',#521);
#448=CIRCLE('',#522,22.5);
#449=FILL_AREA_STYLE_COLOUR('',#523);
#450=VERTEX_POINT('',#524);
#451=CIRCLE('',#525,14.6500000000001);
#452=CIRCLE('',#526,14.6500000000001);
#453=FILL_AREA_STYLE_COLOUR('',#527);
#454=CIRCLE('',#528,8.65000000000009);
#455=FILL_AREA_STYLE_COLOUR('',#529);
#456=FILL_AREA_STYLE_COLOUR('',#530);
#457=COLOUR_RGB('',1.0,1.0,0.0);
#458=CARTESIAN_POINT('',(-8.65000000000009,-9.0,0.0));
#459=CARTESIAN_POINT('',(-8.65000000000009,-6.0,0.0));
#460=CARTESIAN_POINT('',(-8.65000000000009,-7.5,-1.05931948126247E-015));
#461=VECTOR('',#531,1.0);
#462=CARTESIAN_POINT('',(8.65000000000009,-9.0,1.05931948126247E-015));
#463=AXIS2_PLACEMENT_3D('',#532,#533,#534);
#464=CARTESIAN_POINT('',(8.65000000000009,-6.0,1.05931948126247E-015));
#465=CARTESIAN_POINT('',(8.65000000000009,-7.5,1.05931948126247E-015));
#466=VECTOR('',#535,1.0);
#467=CARTESIAN_POINT('',(1.05931948126247E-015,-6.0,-8.65000000000009));
#468=AXIS2_PLACEMENT_3D('',#536,#537,#538);
#469=AXIS2_PLACEMENT_3D('',#539,#540,#541);
#470=COLOUR_RGB('',1.0,1.0,0.0);
#471=CARTESIAN_POINT('',(-1.79410756075088E-015,0.0,14.6500000000001));
#472=CARTESIAN_POINT('',(-1.05931948126247E-015,-6.0,8.65000000000009));
#473=AXIS2_PLACEMENT_3D('',#542,#543,#544);
#474=CARTESIAN_POINT('',(1.79410756075088E-015,0.0,-14.6500000000001));
#475=AXIS2_PLACEMENT_3D('',#545,#546,#547);
#476=AXIS2_PLACEMENT_3D('',#548,#549,#550);
#477=AXIS2_PLACEMENT_3D('',#551,#552,#553);
#478=COLOUR_RGB('',1.0,1.0,0.0);
#479=CARTESIAN_POINT('',(-22.5,-3.0,0.0));
#480=CARTESIAN_POINT('',(-22.5,0.0,0.0));
#481=CARTESIAN_POINT('',(-22.5,-1.5,-2.75545529808154E-015));
#482=VECTOR('',#554,1.0);
#483=CARTESIAN_POINT('',(22.5,-3.0,2.75545529808154E-015));
#484=AXIS2_PLACEMENT_3D('',#555,#556,#557);
#485=CARTESIAN_POINT('',(22.5,0.0,2.75545529808154E-015));
#486=CARTESIAN_POINT('',(22.5,-1.5,2.75545529808154E-015));
#487=VECTOR('',#558,1.0);
#488=AXIS2_PLACEMENT_3D('',#559,#560,#561);
#489=COLOUR_RGB('',1.0,1.0,0.0);
#490=CARTESIAN_POINT('',(1.30424884109194E-015,-6.0,-10.6500000000001));
#491=CARTESIAN_POINT('',(1.67164288083615E-015,-3.0,-13.6500000000001));
#492=AXIS2_PLACEMENT_3D('',#562,#563,#564);
#493=CARTESIAN_POINT('',(-10.6500000000001,-6.0,0.0));
#494=AXIS2_PLACEMENT_3D('',#565,#566,#567);
#495=CARTESIAN_POINT('',(-1.30424884109194E-015,-6.0,10.6500000000001));
#496=AXIS2_PLACEMENT_3D('',#568,#569,#570);
#497=CARTESIAN_POINT('',(-1.67164288083615E-015,-3.0,13.6500000000001));
#498=AXIS2_PLACEMENT_3D('',#571,#572,#573);
#499=CARTESIAN_POINT('',(-13.6500000000001,-3.0,0.0));
#500=AXIS2_PLACEMENT_3D('',#574,#575,#576);
#501=AXIS2_PLACEMENT_3D('',#577,#578,#579);
#502=COLOUR_RGB('',1.0,1.0,0.0);
#503=CARTESIAN_POINT('',(-10.6500000000001,-9.0,0.0));
#504=CARTESIAN_POINT('',(-10.6500000000001,-7.5,-1.30424884109194E-015));
#505=VECTOR('',#580,1.0);
#506=CARTESIAN_POINT('',(10.6500000000001,-9.0,1.30424884109194E-015));
#507=AXIS2_PLACEMENT_3D('',#581,#582,#583);
#508=CARTESIAN_POINT('',(10.6500000000001,-6.0,1.30424884109194E-015));
#509=CARTESIAN_POINT('',(10.6500000000001,-7.5,1.30424884109194E-015));
#510=VECTOR('',#584,1.0);
#511=AXIS2_PLACEMENT_3D('',#585,#586,#587);
#512=COLOUR_RGB('',1.0,1.0,0.0);
#513=AXIS2_PLACEMENT_3D('',#588,#589,#590);
#514=AXIS2_PLACEMENT_3D('',#591,#592,#593);
#515=COLOUR_RGB('',1.0,1.0,0.0);
#516=AXIS2_PLACEMENT_3D('',#594,#595,#596);
#517=COLOUR_RGB('',1.0,1.0,0.0);
#518=AXIS2_PLACEMENT_3D('',#597,#598,#599);
#519=COLOUR_RGB('',1.0,1.0,0.0);
#520=AXIS2_PLACEMENT_3D('',#600,#601,#602);
#521=COLOUR_RGB('',1.0,1.0,0.0);
#522=AXIS2_PLACEMENT_3D('',#603,#604,#605);
#523=COLOUR_RGB('',1.0,1.0,0.0);
#524=CARTESIAN_POINT('',(-14.6500000000001,0.0,0.0));
#525=AXIS2_PLACEMENT_3D('',#606,#607,#608);
#526=AXIS2_PLACEMENT_3D('',#609,#610,#611);
#527=COLOUR_RGB('',1.0,1.0,0.0);
#528=AXIS2_PLACEMENT_3D('',#612,#613,#614);
#529=COLOUR_RGB('',1.0,1.0,0.0);
#530=COLOUR_RGB('',1.0,1.0,0.0);
#531=DIRECTION('',(0.0,1.0,0.0));
#532=CARTESIAN_POINT('',(0.0,-9.0,0.0));
#533=DIRECTION('',(0.0,1.0,0.0));
#534=DIRECTION('',(-1.0,0.0,0.0));
#535=DIRECTION('',(0.0,-1.0,0.0));
#536=CARTESIAN_POINT('',(0.0,-6.0,0.0));
#537=DIRECTION('',(0.0,1.0,0.0));
#538=DIRECTION('',(-1.0,0.0,0.0));
#539=CARTESIAN_POINT('',(0.0,-6.0,0.0));
#540=DIRECTION('',(0.0,1.0,0.0));
#541=DIRECTION('',(-1.0,0.0,0.0));
#542=CARTESIAN_POINT('',(-1.79410756075088E-015,-6.0,14.6500000000001));
#543=DIRECTION('',(-1.0,0.0,-1.22464679914735E-016));
#544=DIRECTION('',(-1.22464679914735E-016,-0.0,1.0));
#545=CARTESIAN_POINT('',(0.0,0.0,0.0));
#546=DIRECTION('',(0.0,1.0,0.0));
#547=DIRECTION('',(-1.0,0.0,0.0));
#548=CARTESIAN_POINT('',(1.79410756075088E-015,-6.0,-14.6500000000001));
#549=DIRECTION('',(-1.0,0.0,-1.22464679914735E-016));
#550=DIRECTION('',(1.22464679914735E-016,0.0,-1.0));
#551=CARTESIAN_POINT('',(0.0,-6.0,0.0));
#552=DIRECTION('',(0.0,1.0,0.0));
#553=DIRECTION('',(-1.0,0.0,0.0));
#554=DIRECTION('',(0.0,1.0,0.0));
#555=CARTESIAN_POINT('',(0.0,-3.0,0.0));
#556=DIRECTION('',(0.0,1.0,0.0));
#557=DIRECTION('',(-1.0,0.0,0.0));
#558=DIRECTION('',(-0.0,-1.0,-0.0));
#559=CARTESIAN_POINT('',(0.0,0.0,0.0));
#560=DIRECTION('',(0.0,1.0,0.0));
#561=DIRECTION('',(-1.0,0.0,0.0));
#562=CARTESIAN_POINT('',(1.67164288083615E-015,-6.0,-13.6500000000001));
#563=DIRECTION('',(-1.0,0.0,-1.22464679914735E-016));
#564=DIRECTION('',(1.22464679914735E-016,-0.0,-1.0));
#565=CARTESIAN_POINT('',(0.0,-6.0,0.0));
#566=DIRECTION('',(0.0,1.0,0.0));
#567=DIRECTION('',(-1.0,0.0,0.0));
#568=CARTESIAN_POINT('',(0.0,-6.0,0.0));
#569=DIRECTION('',(0.0,1.0,0.0));
#570=DIRECTION('',(-1.0,0.0,0.0));
#571=CARTESIAN_POINT('',(-1.67164288083615E-015,-6.0,13.6500000000001));
#572=DIRECTION('',(-1.0,0.0,-1.22464679914735E-016));
#573=DIRECTION('',(-1.22464679914735E-016,0.0,1.0));
#574=CARTESIAN_POINT('',(0.0,-3.0,0.0));
#575=DIRECTION('',(0.0,1.0,0.0));
#576=DIRECTION('',(-1.0,0.0,0.0));
#577=CARTESIAN_POINT('',(0.0,-3.0,0.0));
#578=DIRECTION('',(0.0,1.0,0.0));
#579=DIRECTION('',(-1.0,0.0,0.0));
#580=DIRECTION('',(0.0,1.0,0.0));
#581=CARTESIAN_POINT('',(0.0,-9.0,0.0));
#582=DIRECTION('',(0.0,1.0,0.0));
#583=DIRECTION('',(-1.0,0.0,0.0));
#584=DIRECTION('',(-0.0,-1.0,-0.0));
#585=CARTESIAN_POINT('',(0.0,-6.0,0.0));
#586=DIRECTION('',(0.0,1.0,0.0));
#587=DIRECTION('',(-1.0,0.0,0.0));
#588=CARTESIAN_POINT('',(0.0,-9.0,0.0));
#589=DIRECTION('',(0.0,1.0,0.0));
#590=DIRECTION('',(-1.0,0.0,0.0));
#591=CARTESIAN_POINT('',(0.0,-9.0,0.0));
#592=DIRECTION('',(0.0,1.0,0.0));
#593=DIRECTION('',(-1.0,0.0,0.0));
#594=CARTESIAN_POINT('',(0.0,-6.0,0.0));
#595=DIRECTION('',(0.0,1.0,0.0));
#596=DIRECTION('',(-1.0,0.0,0.0));
#597=CARTESIAN_POINT('',(0.0,-3.0,0.0));
#598=DIRECTION('',(0.0,1.0,0.0));
#599=DIRECTION('',(-1.0,0.0,0.0));
#600=CARTESIAN_POINT('',(0.0,-3.0,0.0));
#601=DIRECTION('',(0.0,1.0,0.0));
#602=DIRECTION('',(-1.0,0.0,0.0));
#603=CARTESIAN_POINT('',(0.0,0.0,0.0));
#604=DIRECTION('',(0.0,1.0,0.0));
#605=DIRECTION('',(-1.0,0.0,0.0));
#606=CARTESIAN_POINT('',(0.0,0.0,0.0));
#607=DIRECTION('',(0.0,1.0,0.0));
#608=DIRECTION('',(-1.0,0.0,0.0));
#609=CARTESIAN_POINT('',(0.0,0.0,0.0));
#610=DIRECTION('',(0.0,1.0,0.0));
#611=DIRECTION('',(-1.0,0.0,0.0));
#612=CARTESIAN_POINT('',(0.0,-6.0,0.0));
#613=DIRECTION('',(0.0,1.0,0.0));
#614=DIRECTION('',(-1.0,0.0,0.0));
ENDSEC;
END-ISO-10303-21;
