ISO-10303-21;
HEADER;
FILE_DESCRIPTION (( 'STEP AP203' ),
    '1' );
FILE_NAME ('3D_R365_21.3x2_173371111.STEP',
    '2024-07-16T05:58:59',
    ( '' ),
    ( '' ),
    'SwSTEP 2.0',
    'SolidWorks 2024',
    '' );
FILE_SCHEMA (( 'CONFIG_CONTROL_DESIGN' ));
ENDSEC;

DATA;
#1 = EDGE_CURVE ( 'NONE', #303, #90, #65, .T. ) ;
#2 = FACE_BOUND ( 'NONE', #88, .T. ) ;
#3 = DATE_AND_TIME ( #6, #197 ) ;
#4 = ORIENTED_EDGE ( 'NONE', *, *, #343, .T. ) ;
#5 = DIRECTION ( 'NONE',  ( 4.596983092540343816E-18, 1.000000000000000000, -0.000000000000000000 ) ) ;
#6 = CALENDAR_DATE ( 2024, 16, 7 ) ;
#7 = ORIENTED_EDGE ( 'NONE', *, *, #207, .T. ) ;
#8 = LOCAL_TIME ( 7, 58, 59.00000000000000000, #109 ) ;
#9 = ORIENTED_EDGE ( 'NONE', *, *, #192, .F. ) ;
#10 = VECTOR ( 'NONE', #174, 1000.000000000000000 ) ;
#11 = ORIENTED_EDGE ( 'NONE', *, *, #66, .T. ) ;
#12 = ORIENTED_EDGE ( 'NONE', *, *, #22, .F. ) ;
#13 = AXIS2_PLACEMENT_3D ( 'NONE', #95, #17, #292 ) ;
#14 = EDGE_LOOP ( 'NONE', ( #4, #203, #9, #255 ) ) ;
#15 = ADVANCED_FACE ( 'NONE', ( #282 ), #38, .F. ) ;
#16 = DIRECTION ( 'NONE',  ( -1.000000000000000000, 0.000000000000000000, 0.000000000000000000 ) ) ;
#17 = DIRECTION ( 'NONE',  ( 4.596983092540343816E-18, 1.000000000000000000, -0.000000000000000000 ) ) ;
#18 = SPHERICAL_SURFACE ( 'NONE', #143, 13.04000000000001513 ) ;
#19 = AXIS2_PLACEMENT_3D ( 'NONE', #193, #334, #212 ) ;
#20 = SPHERICAL_SURFACE ( 'NONE', #183, 13.04000000000001513 ) ;
#21 = AXIS2_PLACEMENT_3D ( 'NONE', #260, #76, #96 ) ;
#22 = EDGE_CURVE ( 'NONE', #206, #340, #306, .T. ) ;
#23 = DIRECTION ( 'NONE',  ( -1.224646799147353207E-16, 5.629680630014033300E-34, 1.000000000000000000 ) ) ;
#24 = FACE_OUTER_BOUND ( 'NONE', #40, .T. ) ;
#25 = CARTESIAN_POINT ( 'NONE',  ( -10.64999999999999325, 2.073703574853258402, 0.000000000000000000 ) ) ;
#26 = AXIS2_PLACEMENT_3D ( 'NONE', #119, #145, #16 ) ;
#27 = DATE_TIME_ROLE ( 'creation_date' ) ;
#28 = CARTESIAN_POINT ( 'NONE',  ( 9.315465731025642501E-16, 1.718027464605944354, 0.000000000000000000 ) ) ;
#29 = DATE_AND_TIME ( #326, #126 ) ;
#30 = EDGE_CURVE ( 'NONE', #340, #230, #233, .T. ) ;
#31 = APPROVAL_DATE_TIME ( #29, #330 ) ;
#32 = CARTESIAN_POINT ( 'NONE',  ( 9.236488298952508525E-16, 0.000000000000000000, 0.000000000000000000 ) ) ;
#33 = DATE_AND_TIME ( #241, #309 ) ;
#34 = PERSON_AND_ORGANIZATION ( #43, #350 ) ;
#35 = VERTEX_POINT ( 'NONE', #93 ) ;
#36 = ORIENTED_EDGE ( 'NONE', *, *, #111, .F. ) ;
#37 = CIRCLE ( 'NONE', #108, 13.04000000000001513 ) ;
#38 = CYLINDRICAL_SURFACE ( 'NONE', #26, 8.649999999999995026 ) ;
#39 = ADVANCED_FACE ( 'NONE', ( #71 ), #357, .T. ) ;
#40 = EDGE_LOOP ( 'NONE', ( #87, #201, #232 ) ) ;
#41 = AXIS2_PLACEMENT_3D ( 'NONE', #315, #70, #253 ) ;
#42 = CARTESIAN_POINT ( 'NONE',  ( 2.976381580647722182E-14, -8.039999999999992042, 0.000000000000000000 ) ) ;
#43 = PERSON ( 'UNSPECIFIED', 'UNSPECIFIED', 'UNSPECIFIED', ('UNSPECIFIED'), ('UNSPECIFIED'), ('UNSPECIFIED') ) ;
#44 = CARTESIAN_POINT ( 'NONE',  ( 2.902529075295987653E-14, 5.000000000000023093, 0.000000000000000000 ) ) ;
#45 = DIRECTION ( 'NONE',  ( 1.000000000000000000, 0.000000000000000000, 0.000000000000000000 ) ) ;
#46 = CIRCLE ( 'NONE', #347, 10.27108703503066600 ) ;
#47 = DIRECTION ( 'NONE',  ( 0.000000000000000000, 0.000000000000000000, 1.000000000000000000 ) ) ;
#48 = CC_DESIGN_PERSON_AND_ORGANIZATION_ASSIGNMENT ( #132, #332, ( #63 ) ) ;
#49 = DIRECTION ( 'NONE',  ( 0.000000000000000000, 0.000000000000000000, 1.000000000000000000 ) ) ;
#50 = CARTESIAN_POINT ( 'NONE',  ( 1.387778780781445676E-14, 2817.965330118411202, 0.000000000000000000 ) ) ;
#51 = PERSON_AND_ORGANIZATION_ROLE ( 'creator' ) ;
#52 = ADVANCED_FACE ( 'NONE', ( #180 ), #162, .F. ) ;
#53 = CARTESIAN_POINT ( 'NONE',  ( 2.891202003923021925E-14, 7.000000000000023981, 0.000000000000000000 ) ) ;
#54 = AXIS2_PLACEMENT_3D ( 'NONE', #259, #210, #121 ) ;
#55 = DIRECTION ( 'NONE',  ( -1.000000000000000000, 4.596983092540343816E-18, 0.000000000000000000 ) ) ;
#56 = AXIS2_PLACEMENT_3D ( 'NONE', #322, #150, #74 ) ;
#57 = DIRECTION ( 'NONE',  ( 4.596983092540343816E-18, 1.000000000000000000, -0.000000000000000000 ) ) ;
#58 = ORIENTED_EDGE ( 'NONE', *, *, #89, .F. ) ;
#59 = CARTESIAN_POINT ( 'NONE',  ( 2.976381580647722182E-14, -8.039999999999992042, 0.000000000000000000 ) ) ;
#60 = COORDINATED_UNIVERSAL_TIME_OFFSET ( 1, 0, .AHEAD. ) ;
#61 = EDGE_CURVE ( 'NONE', #340, #206, #175, .T. ) ;
#62 = ORIENTED_EDGE ( 'NONE', *, *, #317, .T. ) ;
#63 = PRODUCT_DEFINITION_FORMATION_WITH_SPECIFIED_SOURCE ( 'ANY', '', #228, .NOT_KNOWN. ) ;
#64 = CARTESIAN_POINT ( 'NONE',  ( -10.64999999999998082, 2817.965330118411202, 0.000000000000000000 ) ) ;
#65 = LINE ( 'NONE', #64, #10 ) ;
#66 = EDGE_CURVE ( 'NONE', #230, #140, #337, .T. ) ;
#67 = CIRCLE ( 'NONE', #91, 10.64999999999999503 ) ;
#68 = ORIENTED_EDGE ( 'NONE', *, *, #177, .F. ) ;
#69 = ORIENTED_EDGE ( 'NONE', *, *, #192, .T. ) ;
#70 = DIRECTION ( 'NONE',  ( 4.596983092540343816E-18, 1.000000000000000000, -0.000000000000000000 ) ) ;
#71 = FACE_OUTER_BOUND ( 'NONE', #208, .T. ) ;
#72 = DIRECTION ( 'NONE',  ( -1.000000000000000000, 0.000000000000000000, 0.000000000000000000 ) ) ;
#73 = AXIS2_PLACEMENT_3D ( 'NONE', #299, #242, #55 ) ;
#74 = DIRECTION ( 'NONE',  ( -1.000000000000000000, 0.000000000000000000, 0.000000000000000000 ) ) ;
#75 =( NAMED_UNIT ( * ) SI_UNIT ( $, .STERADIAN. ) SOLID_ANGLE_UNIT ( ) );
#76 = DIRECTION ( 'NONE',  ( -1.224646799147353207E-16, 5.629680630014033300E-34, 1.000000000000000000 ) ) ;
#77 = CARTESIAN_POINT ( 'NONE',  ( 2.976381580647722182E-14, -8.039999999999992042, 0.000000000000000000 ) ) ;
#78 = CARTESIAN_POINT ( 'NONE',  ( 10.64999999999999680, -4.895786993555463668E-17, 1.304248841091930472E-15 ) ) ;
#79 = PERSON_AND_ORGANIZATION ( #43, #350 ) ;
#80 = DIRECTION ( 'NONE',  ( 1.000000000000000000, -4.596983092540343816E-18, 0.000000000000000000 ) ) ;
#81 = AXIS2_PLACEMENT_3D ( 'NONE', #28, #238, #271 ) ;
#82 = CARTESIAN_POINT ( 'NONE',  ( 10.27108703503066778, 2.946645125734725923, 1.281047113606673743E-15 ) ) ;
#83 = CALENDAR_DATE ( 2024, 16, 7 ) ;
#84 = ORIENTED_EDGE ( 'NONE', *, *, #151, .F. ) ;
#85 = DIRECTION ( 'NONE',  ( -1.000000000000000000, 0.000000000000000000, 0.000000000000000000 ) ) ;
#86 = ORIENTED_EDGE ( 'NONE', *, *, #249, .F. ) ;
#87 = ORIENTED_EDGE ( 'NONE', *, *, #66, .F. ) ;
#88 = EDGE_LOOP ( 'NONE', ( #226, #117 ) ) ;
#89 = EDGE_CURVE ( 'NONE', #110, #303, #181, .T. ) ;
#90 = VERTEX_POINT ( 'NONE', #25 ) ;
#91 = AXIS2_PLACEMENT_3D ( 'NONE', #275, #57, #304 ) ;
#92 = VERTEX_POINT ( 'NONE', #82 ) ;
#93 = CARTESIAN_POINT ( 'NONE',  ( 10.64999999999999680, 2.073703574853258402, 1.304248841091930472E-15 ) ) ;
#94 = ADVANCED_FACE ( 'NONE', ( #189 ), #227, .T. ) ;
#95 = CARTESIAN_POINT ( 'NONE',  ( 9.236488298952508525E-16, 0.000000000000000000, 0.000000000000000000 ) ) ;
#96 = DIRECTION ( 'NONE',  ( 1.000000000000000000, 0.000000000000000000, 1.224646799147353207E-16 ) ) ;
#97 = MANIFOLD_SOLID_BREP ( 'Wandung1', #289 ) ;
#98 = EDGE_CURVE ( 'NONE', #206, #140, #325, .T. ) ;
#99 = AXIS2_PLACEMENT_3D ( 'NONE', #77, #290, #237 ) ;
#100 = DIRECTION ( 'NONE',  ( -1.000000000000000000, 0.000000000000000000, 0.000000000000000000 ) ) ;
#101 = CIRCLE ( 'NONE', #354, 1.194999999999991180 ) ;
#102 = DIRECTION ( 'NONE',  ( 1.000000000000000000, 0.000000000000000000, 1.224646799147353207E-16 ) ) ;
#103 = CYLINDRICAL_SURFACE ( 'NONE', #149, 10.64999999999999503 ) ;
#104 = DIRECTION ( 'NONE',  ( 4.596983092540343816E-18, 1.000000000000000000, -0.000000000000000000 ) ) ;
#105 = CC_DESIGN_APPROVAL ( #330, ( #63 ) ) ;
#106 = DIRECTION ( 'NONE',  ( 1.000000000000000000, -4.596983092540343816E-18, 0.000000000000000000 ) ) ;
#107 = PLANE ( 'NONE',  #297 ) ;
#108 = AXIS2_PLACEMENT_3D ( 'NONE', #160, #273, #102 ) ;
#109 = COORDINATED_UNIVERSAL_TIME_OFFSET ( 1, 0, .AHEAD. ) ;
#110 = VERTEX_POINT ( 'NONE', #78 ) ;
#111 = EDGE_CURVE ( 'NONE', #35, #92, #270, .T. ) ;
#112 = DIRECTION ( 'NONE',  ( 0.000000000000000000, 0.000000000000000000, 1.000000000000000000 ) ) ;
#113 = APPROVAL_PERSON_ORGANIZATION ( #79, #330, #168 ) ;
#114 = ORIENTED_EDGE ( 'NONE', *, *, #317, .F. ) ;
#115 = ORIENTED_EDGE ( 'NONE', *, *, #98, .T. ) ;
#116 = ADVANCED_FACE ( 'NONE', ( #2, #222 ), #107, .T. ) ;
#117 = ORIENTED_EDGE ( 'NONE', *, *, #61, .T. ) ;
#118 = CARTESIAN_POINT ( 'NONE',  ( 8.649999999999996803, 1.718027464605944354, 1.059319481262459781E-15 ) ) ;
#119 = CARTESIAN_POINT ( 'NONE',  ( 1.387778780781445676E-14, 2817.965330118411202, 0.000000000000000000 ) ) ;
#120 = ORIENTED_EDGE ( 'NONE', *, *, #356, .T. ) ;
#121 = DIRECTION ( 'NONE',  ( 1.000000000000000000, -4.596983092540343816E-18, 0.000000000000000000 ) ) ;
#122 = EDGE_CURVE ( 'NONE', #311, #92, #46, .T. ) ;
#123 = EDGE_CURVE ( 'NONE', #230, #338, #37, .T. ) ;
#124 = TOROIDAL_SURFACE ( 'NONE', #329, 9.454999999999992966, 1.194999999999990736 ) ;
#125 = DIRECTION ( 'NONE',  ( -1.000000000000000000, 0.000000000000000000, 0.000000000000000000 ) ) ;
#126 = LOCAL_TIME ( 7, 58, 59.00000000000000000, #194 ) ;
#127 = DIRECTION ( 'NONE',  ( 4.596983092540343816E-18, 1.000000000000000000, -0.000000000000000000 ) ) ;
#128 = CARTESIAN_POINT ( 'NONE',  ( 2.976381580647722182E-14, -8.039999999999992042, 0.000000000000000000 ) ) ;
#129 = DIRECTION ( 'NONE',  ( 4.596983092540343816E-18, 1.000000000000000000, -0.000000000000000000 ) ) ;
#130 = COORDINATED_UNIVERSAL_TIME_OFFSET ( 1, 0, .AHEAD. ) ;
#131 = CARTESIAN_POINT ( 'NONE',  ( -8.649999999999993250, 1.718027464605944354, 0.000000000000000000 ) ) ;
#132 = PERSON_AND_ORGANIZATION ( #43, #350 ) ;
#133 = DIRECTION ( 'NONE',  ( -1.000000000000000000, 4.596983092540343816E-18, 0.000000000000000000 ) ) ;
#134 = DATE_AND_TIME ( #83, #8 ) ;
#135 = PRODUCT_DEFINITION ( 'UNKNOWN', '', #63, #157 ) ;
#136 = CARTESIAN_POINT ( 'NONE',  ( -9.454999999999991189, 2.073703574853341891, 0.000000000000000000 ) ) ;
#137 = AXIS2_PLACEMENT_3D ( 'NONE', #50, #104, #220 ) ;
#138 = ORIENTED_EDGE ( 'NONE', *, *, #264, .T. ) ;
#139 = DATE_TIME_ROLE ( 'classification_date' ) ;
#140 = VERTEX_POINT ( 'NONE', #131 ) ;
#141 = EDGE_LOOP ( 'NONE', ( #68, #336, #280, #307 ) ) ;
#142 = ORIENTED_EDGE ( 'NONE', *, *, #30, .T. ) ;
#143 = AXIS2_PLACEMENT_3D ( 'NONE', #213, #293, #324 ) ;
#144 = ORIENTED_EDGE ( 'NONE', *, *, #264, .F. ) ;
#145 = DIRECTION ( 'NONE',  ( 4.596983092540343816E-18, 1.000000000000000000, -0.000000000000000000 ) ) ;
#146 = EDGE_CURVE ( 'NONE', #35, #90, #153, .T. ) ;
#147 = VECTOR ( 'NONE', #170, 1000.000000000000000 ) ;
#148 = CARTESIAN_POINT ( 'NONE',  ( 1.387778780781445676E-14, 2817.965330118411202, 0.000000000000000000 ) ) ;
#149 = AXIS2_PLACEMENT_3D ( 'NONE', #148, #187, #155 ) ;
#150 = DIRECTION ( 'NONE',  ( 4.596983092540343816E-18, 1.000000000000000000, -0.000000000000000000 ) ) ;
#151 = EDGE_CURVE ( 'NONE', #90, #311, #101, .T. ) ;
#152 = FACE_OUTER_BOUND ( 'NONE', #14, .T. ) ;
#153 = CIRCLE ( 'NONE', #19, 10.64999999999999503 ) ;
#154 = DIRECTION ( 'NONE',  ( 1.000000000000000000, 0.000000000000000000, 0.000000000000000000 ) ) ;
#155 = DIRECTION ( 'NONE',  ( -1.000000000000000000, 0.000000000000000000, 0.000000000000000000 ) ) ;
#156 =( GEOMETRIC_REPRESENTATION_CONTEXT ( 3 ) GLOBAL_UNCERTAINTY_ASSIGNED_CONTEXT ( ( #352 ) ) GLOBAL_UNIT_ASSIGNED_CONTEXT ( ( #351, #349, #75 ) ) REPRESENTATION_CONTEXT ( 'NONE', 'WORKASPACE' ) );
#157 = DESIGN_CONTEXT ( 'detailed design', #185, 'design' ) ;
#158 = ADVANCED_BREP_SHAPE_REPRESENTATION ( '3D_R365_21.3x2_173371111', ( #97, #235 ), #156 ) ;
#159 = ADVANCED_FACE ( 'NONE', ( #359 ), #124, .T. ) ;
#160 = CARTESIAN_POINT ( 'NONE',  ( 2.976381580647722182E-14, -8.039999999999992042, 0.000000000000000000 ) ) ;
#161 = DATE_AND_TIME ( #272, #286 ) ;
#162 = CYLINDRICAL_SURFACE ( 'NONE', #137, 8.649999999999995026 ) ;
#163 = SHAPE_DEFINITION_REPRESENTATION ( #298, #158 ) ;
#164 = DIRECTION ( 'NONE',  ( -1.000000000000000000, 0.000000000000000000, 0.000000000000000000 ) ) ;
#165 = PERSON_AND_ORGANIZATION ( #43, #350 ) ;
#166 = CC_DESIGN_DATE_AND_TIME_ASSIGNMENT ( #161, #27, ( #135 ) ) ;
#167 = DIRECTION ( 'NONE',  ( -1.000000000000000000, 0.000000000000000000, 0.000000000000000000 ) ) ;
#168 = APPROVAL_ROLE ( '' ) ;
#169 = ORIENTED_EDGE ( 'NONE', *, *, #123, .F. ) ;
#170 = DIRECTION ( 'NONE',  ( 4.596983092540343816E-18, 1.000000000000000000, -0.000000000000000000 ) ) ;
#171 = PERSON_AND_ORGANIZATION ( #43, #350 ) ;
#172 = EDGE_LOOP ( 'NONE', ( #169, #114, #120 ) ) ;
#173 = VERTEX_POINT ( 'NONE', #53 ) ;
#174 = DIRECTION ( 'NONE',  ( 4.596983092540343816E-18, 1.000000000000000000, -0.000000000000000000 ) ) ;
#175 = CIRCLE ( 'NONE', #283, 8.649999999999995026 ) ;
#176 = EDGE_LOOP ( 'NONE', ( #251, #58 ) ) ;
#177 = EDGE_CURVE ( 'NONE', #110, #35, #244, .T. ) ;
#178 = AXIS2_PLACEMENT_3D ( 'NONE', #42, #49, #100 ) ;
#179 = ORIENTED_EDGE ( 'NONE', *, *, #111, .T. ) ;
#180 = FACE_OUTER_BOUND ( 'NONE', #287, .T. ) ;
#181 = CIRCLE ( 'NONE', #246, 10.64999999999999503 ) ;
#182 = FACE_OUTER_BOUND ( 'NONE', #279, .T. ) ;
#183 = AXIS2_PLACEMENT_3D ( 'NONE', #128, #267, #125 ) ;
#184 = APPLICATION_PROTOCOL_DEFINITION ( 'international standard', 'config_control_design', 1994, #312 ) ;
#185 = APPLICATION_CONTEXT ( 'configuration controlled 3d designs of mechanical parts and assemblies' ) ;
#186 = CARTESIAN_POINT ( 'NONE',  ( 0.000000000000000000, 0.000000000000000000, 0.000000000000000000 ) ) ;
#187 = DIRECTION ( 'NONE',  ( 4.596983092540343816E-18, 1.000000000000000000, -0.000000000000000000 ) ) ;
#188 = CC_DESIGN_PERSON_AND_ORGANIZATION_ASSIGNMENT ( #245, #223, ( #333 ) ) ;
#189 = FACE_OUTER_BOUND ( 'NONE', #250, .T. ) ;
#190 = DIRECTION ( 'NONE',  ( -4.596983092540343816E-18, -1.000000000000000000, 0.000000000000000000 ) ) ;
#191 = AXIS2_PLACEMENT_3D ( 'NONE', #59, #112, #85 ) ;
#192 = EDGE_CURVE ( 'NONE', #90, #35, #67, .T. ) ;
#193 = CARTESIAN_POINT ( 'NONE',  ( 9.331816101677930966E-16, 2.073703574853258402, 0.000000000000000000 ) ) ;
#194 = COORDINATED_UNIVERSAL_TIME_OFFSET ( 1, 0, .AHEAD. ) ;
#195 = DIRECTION ( 'NONE',  ( -0.000000000000000000, 0.000000000000000000, -1.000000000000000000 ) ) ;
#196 = APPROVAL_ROLE ( '' ) ;
#197 = LOCAL_TIME ( 7, 58, 59.00000000000000000, #60 ) ;
#198 = ORIENTED_EDGE ( 'NONE', *, *, #146, .T. ) ;
#199 = CARTESIAN_POINT ( 'NONE',  ( -8.649999999999980815, 2817.965330118411202, 0.000000000000000000 ) ) ;
#200 = PERSON_AND_ORGANIZATION_ROLE ( 'design_owner' ) ;
#201 = ORIENTED_EDGE ( 'NONE', *, *, #123, .T. ) ;
#202 = AXIS2_PLACEMENT_3D ( 'NONE', #247, #319, #72 ) ;
#203 = ORIENTED_EDGE ( 'NONE', *, *, #177, .T. ) ;
#204 = CC_DESIGN_SECURITY_CLASSIFICATION ( #333, ( #63 ) ) ;
#205 = ORIENTED_EDGE ( 'NONE', *, *, #122, .T. ) ;
#206 = VERTEX_POINT ( 'NONE', #240 ) ;
#207 = EDGE_CURVE ( 'NONE', #311, #173, #342, .T. ) ;
#208 = EDGE_LOOP ( 'NONE', ( #144, #225, #7 ) ) ;
#209 = CIRCLE ( 'NONE', #316, 8.649999999999995026 ) ;
#210 = DIRECTION ( 'NONE',  ( 4.596983092540343816E-18, 1.000000000000000000, -0.000000000000000000 ) ) ;
#211 = AXIS2_PLACEMENT_3D ( 'NONE', #294, #23, #323 ) ;
#212 = DIRECTION ( 'NONE',  ( -1.000000000000000000, 0.000000000000000000, 0.000000000000000000 ) ) ;
#213 = CARTESIAN_POINT ( 'NONE',  ( 2.976381580647722182E-14, -8.039999999999992042, 0.000000000000000000 ) ) ;
#214 = APPROVAL_PERSON_ORGANIZATION ( #221, #288, #295 ) ;
#215 = CARTESIAN_POINT ( 'NONE',  ( 9.236488298952508525E-16, 0.000000000000000000, 0.000000000000000000 ) ) ;
#216 = ADVANCED_FACE ( 'NONE', ( #285 ), #313, .T. ) ;
#217 = CARTESIAN_POINT ( 'NONE',  ( 1.734723475976807094E-15, 2.073703574853341891, 0.000000000000000000 ) ) ;
#218 = PERSON_AND_ORGANIZATION ( #43, #350 ) ;
#219 = VECTOR ( 'NONE', #129, 1000.000000000000000 ) ;
#220 = DIRECTION ( 'NONE',  ( -1.000000000000000000, 0.000000000000000000, 0.000000000000000000 ) ) ;
#221 = PERSON_AND_ORGANIZATION ( #43, #350 ) ;
#222 = FACE_OUTER_BOUND ( 'NONE', #176, .T. ) ;
#223 = PERSON_AND_ORGANIZATION_ROLE ( 'classification_officer' ) ;
#224 = APPROVAL_PERSON_ORGANIZATION ( #218, #339, #196 ) ;
#225 = ORIENTED_EDGE ( 'NONE', *, *, #249, .T. ) ;
#226 = ORIENTED_EDGE ( 'NONE', *, *, #22, .T. ) ;
#227 = TOROIDAL_SURFACE ( 'NONE', #73, 9.454999999999992966, 1.194999999999990736 ) ;
#228 = PRODUCT ( '3D_R365_21.3x2_173371111', '3D_R365_21.3x2_173371111', '', ( #265 ) ) ;
#229 = EDGE_LOOP ( 'NONE', ( #284, #12, #115, #62 ) ) ;
#230 = VERTEX_POINT ( 'NONE', #118 ) ;
#231 = ADVANCED_FACE ( 'NONE', ( #182 ), #263, .T. ) ;
#232 = ORIENTED_EDGE ( 'NONE', *, *, #356, .F. ) ;
#233 = LINE ( 'NONE', #318, #252 ) ;
#234 = FACE_OUTER_BOUND ( 'NONE', #172, .T. ) ;
#235 = AXIS2_PLACEMENT_3D ( 'NONE', #186, #47, #154 ) ;
#236 = CC_DESIGN_PERSON_AND_ORGANIZATION_ASSIGNMENT ( #34, #51, ( #63 ) ) ;
#237 = DIRECTION ( 'NONE',  ( -1.000000000000000000, 0.000000000000000000, 0.000000000000000000 ) ) ;
#238 = DIRECTION ( 'NONE',  ( 4.596983092540336883E-18, 1.000000000000000000, -0.000000000000000000 ) ) ;
#239 = DIRECTION ( 'NONE',  ( 4.596983092540336883E-18, 1.000000000000000000, -0.000000000000000000 ) ) ;
#240 = CARTESIAN_POINT ( 'NONE',  ( -8.649999999999993250, 3.976390375047394905E-17, 0.000000000000000000 ) ) ;
#241 = CALENDAR_DATE ( 2024, 16, 7 ) ;
#242 = DIRECTION ( 'NONE',  ( 4.596983092540343816E-18, 1.000000000000000000, -0.000000000000000000 ) ) ;
#243 = SECURITY_CLASSIFICATION_LEVEL ( 'unclassified' ) ;
#244 = LINE ( 'NONE', #353, #219 ) ;
#245 = PERSON_AND_ORGANIZATION ( #43, #350 ) ;
#246 = AXIS2_PLACEMENT_3D ( 'NONE', #215, #296, #301 ) ;
#247 = CARTESIAN_POINT ( 'NONE',  ( 2.976381580647722182E-14, -8.039999999999992042, 0.000000000000000000 ) ) ;
#248 = EDGE_LOOP ( 'NONE', ( #69, #179, #310, #84 ) ) ;
#249 = EDGE_CURVE ( 'NONE', #92, #311, #300, .T. ) ;
#250 = EDGE_LOOP ( 'NONE', ( #36, #198, #308, #86 ) ) ;
#251 = ORIENTED_EDGE ( 'NONE', *, *, #343, .F. ) ;
#252 = VECTOR ( 'NONE', #344, 1000.000000000000000 ) ;
#253 = DIRECTION ( 'NONE',  ( -1.000000000000000000, 0.000000000000000000, 0.000000000000000000 ) ) ;
#254 = ADVANCED_FACE ( 'NONE', ( #152 ), #103, .T. ) ;
#255 = ORIENTED_EDGE ( 'NONE', *, *, #1, .F. ) ;
#256 = PRODUCT_RELATED_PRODUCT_CATEGORY ( 'detail', '', ( #228 ) ) ;
#257 = CIRCLE ( 'NONE', #13, 10.64999999999999503 ) ;
#258 = ORIENTED_EDGE ( 'NONE', *, *, #98, .F. ) ;
#259 = CARTESIAN_POINT ( 'NONE',  ( 9.236488298952508525E-16, 0.000000000000000000, 0.000000000000000000 ) ) ;
#260 = CARTESIAN_POINT ( 'NONE',  ( 2.976381580647722182E-14, -8.039999999999992042, 0.000000000000000000 ) ) ;
#261 = CIRCLE ( 'NONE', #21, 15.04000000000001513 ) ;
#262 = CARTESIAN_POINT ( 'NONE',  ( 8.649999999999996803, -3.976390375047394905E-17, 1.059319481262459781E-15 ) ) ;
#263 = SPHERICAL_SURFACE ( 'NONE', #178, 15.04000000000001513 ) ;
#264 = EDGE_CURVE ( 'NONE', #92, #173, #261, .T. ) ;
#265 = MECHANICAL_CONTEXT ( 'NONE', #312, 'mechanical' ) ;
#266 = CIRCLE ( 'NONE', #99, 13.04000000000001513 ) ;
#267 = DIRECTION ( 'NONE',  ( 0.000000000000000000, 0.000000000000000000, 1.000000000000000000 ) ) ;
#268 = DIRECTION ( 'NONE',  ( 4.596983092540343816E-18, 1.000000000000000000, -0.000000000000000000 ) ) ;
#269 = APPROVAL_STATUS ( 'not_yet_approved' ) ;
#270 = CIRCLE ( 'NONE', #211, 1.194999999999991180 ) ;
#271 = DIRECTION ( 'NONE',  ( 1.000000000000000000, 0.000000000000000000, 0.000000000000000000 ) ) ;
#272 = CALENDAR_DATE ( 2024, 16, 7 ) ;
#273 = DIRECTION ( 'NONE',  ( -1.224646799147353207E-16, 5.629680630014033300E-34, 1.000000000000000000 ) ) ;
#274 = APPROVAL_STATUS ( 'not_yet_approved' ) ;
#275 = CARTESIAN_POINT ( 'NONE',  ( 9.331816101677930966E-16, 2.073703574853258402, 0.000000000000000000 ) ) ;
#276 = PERSON_AND_ORGANIZATION_ROLE ( 'creator' ) ;
#277 = ADVANCED_FACE ( 'NONE', ( #234 ), #20, .F. ) ;
#278 = APPROVAL_STATUS ( 'not_yet_approved' ) ;
#279 = EDGE_LOOP ( 'NONE', ( #205, #138, #314 ) ) ;
#280 = ORIENTED_EDGE ( 'NONE', *, *, #1, .T. ) ;
#281 = CC_DESIGN_PERSON_AND_ORGANIZATION_ASSIGNMENT ( #171, #276, ( #135 ) ) ;
#282 = FACE_OUTER_BOUND ( 'NONE', #229, .T. ) ;
#283 = AXIS2_PLACEMENT_3D ( 'NONE', #32, #5, #106 ) ;
#284 = ORIENTED_EDGE ( 'NONE', *, *, #30, .F. ) ;
#285 = FACE_OUTER_BOUND ( 'NONE', #141, .T. ) ;
#286 = LOCAL_TIME ( 7, 58, 59.00000000000000000, #328 ) ;
#287 = EDGE_LOOP ( 'NONE', ( #341, #142, #11, #258 ) ) ;
#288 = APPROVAL ( #274, 'UNSPECIFIED' ) ;
#289 = CLOSED_SHELL ( 'NONE', ( #291, #52, #231, #159, #254, #116, #216, #94, #39, #15, #277 ) ) ;
#290 = DIRECTION ( 'NONE',  ( -0.000000000000000000, 0.000000000000000000, -1.000000000000000000 ) ) ;
#291 = ADVANCED_FACE ( 'NONE', ( #24 ), #18, .F. ) ;
#292 = DIRECTION ( 'NONE',  ( -1.000000000000000000, 4.596983092540343816E-18, 0.000000000000000000 ) ) ;
#293 = DIRECTION ( 'NONE',  ( 0.000000000000000000, 0.000000000000000000, 1.000000000000000000 ) ) ;
#294 = CARTESIAN_POINT ( 'NONE',  ( 9.454999999999994742, 2.073703574853341891, 1.157903548593821607E-15 ) ) ;
#295 = APPROVAL_ROLE ( '' ) ;
#296 = DIRECTION ( 'NONE',  ( 4.596983092540343816E-18, 1.000000000000000000, -0.000000000000000000 ) ) ;
#297 = AXIS2_PLACEMENT_3D ( 'NONE', #331, #190, #80 ) ;
#298 = PRODUCT_DEFINITION_SHAPE ( 'NONE', 'NONE',  #135 ) ;
#299 = CARTESIAN_POINT ( 'NONE',  ( 1.734723475976807094E-15, 2.073703574853341891, 0.000000000000000000 ) ) ;
#300 = CIRCLE ( 'NONE', #56, 10.27108703503066600 ) ;
#301 = DIRECTION ( 'NONE',  ( -1.000000000000000000, 4.596983092540343816E-18, 0.000000000000000000 ) ) ;
#302 = APPROVAL_DATE_TIME ( #33, #339 ) ;
#303 = VERTEX_POINT ( 'NONE', #355 ) ;
#304 = DIRECTION ( 'NONE',  ( -1.000000000000000000, 0.000000000000000000, 0.000000000000000000 ) ) ;
#305 = APPLICATION_PROTOCOL_DEFINITION ( 'international standard', 'config_control_design', 1994, #185 ) ;
#306 = CIRCLE ( 'NONE', #54, 8.649999999999995026 ) ;
#307 = ORIENTED_EDGE ( 'NONE', *, *, #146, .F. ) ;
#308 = ORIENTED_EDGE ( 'NONE', *, *, #151, .T. ) ;
#309 = LOCAL_TIME ( 7, 58, 59.00000000000000000, #130 ) ;
#310 = ORIENTED_EDGE ( 'NONE', *, *, #122, .F. ) ;
#311 = VERTEX_POINT ( 'NONE', #321 ) ;
#312 = APPLICATION_CONTEXT ( 'configuration controlled 3d designs of mechanical parts and assemblies' ) ;
#313 = CYLINDRICAL_SURFACE ( 'NONE', #41, 10.64999999999999503 ) ;
#314 = ORIENTED_EDGE ( 'NONE', *, *, #207, .F. ) ;
#315 = CARTESIAN_POINT ( 'NONE',  ( 1.387778780781445676E-14, 2817.965330118411202, 0.000000000000000000 ) ) ;
#316 = AXIS2_PLACEMENT_3D ( 'NONE', #345, #239, #45 ) ;
#317 = EDGE_CURVE ( 'NONE', #140, #230, #209, .T. ) ;
#318 = CARTESIAN_POINT ( 'NONE',  ( 8.650000000000009237, 2817.965330118411202, 1.059319481262459781E-15 ) ) ;
#319 = DIRECTION ( 'NONE',  ( -0.000000000000000000, 0.000000000000000000, -1.000000000000000000 ) ) ;
#320 = CC_DESIGN_APPROVAL ( #288, ( #135 ) ) ;
#321 = CARTESIAN_POINT ( 'NONE',  ( -10.27108703503066423, 2.946645125734725923, 0.000000000000000000 ) ) ;
#322 = CARTESIAN_POINT ( 'NONE',  ( 9.371945077179704789E-16, 2.946645125734725923, 0.000000000000000000 ) ) ;
#323 = DIRECTION ( 'NONE',  ( 1.000000000000000000, 0.000000000000000000, 1.224646799147353700E-16 ) ) ;
#324 = DIRECTION ( 'NONE',  ( -1.000000000000000000, 0.000000000000000000, 0.000000000000000000 ) ) ;
#325 = LINE ( 'NONE', #199, #147 ) ;
#326 = CALENDAR_DATE ( 2024, 16, 7 ) ;
#327 = CARTESIAN_POINT ( 'NONE',  ( 9.371945077179704789E-16, 2.946645125734725923, 0.000000000000000000 ) ) ;
#328 = COORDINATED_UNIVERSAL_TIME_OFFSET ( 1, 0, .AHEAD. ) ;
#329 = AXIS2_PLACEMENT_3D ( 'NONE', #217, #268, #133 ) ;
#330 = APPROVAL ( #278, 'UNSPECIFIED' ) ;
#331 = CARTESIAN_POINT ( 'NONE',  ( -1.125292501702669100E-34, -2.447893496777731218E-17, 0.000000000000000000 ) ) ;
#332 = PERSON_AND_ORGANIZATION_ROLE ( 'design_supplier' ) ;
#333 = SECURITY_CLASSIFICATION ( '', '', #243 ) ;
#334 = DIRECTION ( 'NONE',  ( 4.596983092540343816E-18, 1.000000000000000000, -0.000000000000000000 ) ) ;
#335 = APPROVAL_DATE_TIME ( #3, #288 ) ;
#336 = ORIENTED_EDGE ( 'NONE', *, *, #89, .T. ) ;
#337 = CIRCLE ( 'NONE', #81, 8.649999999999995026 ) ;
#338 = VERTEX_POINT ( 'NONE', #44 ) ;
#339 = APPROVAL ( #269, 'UNSPECIFIED' ) ;
#340 = VERTEX_POINT ( 'NONE', #262 ) ;
#341 = ORIENTED_EDGE ( 'NONE', *, *, #61, .F. ) ;
#342 = CIRCLE ( 'NONE', #202, 15.04000000000001513 ) ;
#343 = EDGE_CURVE ( 'NONE', #303, #110, #257, .T. ) ;
#344 = DIRECTION ( 'NONE',  ( 4.596983092540343816E-18, 1.000000000000000000, -0.000000000000000000 ) ) ;
#345 = CARTESIAN_POINT ( 'NONE',  ( 9.315465731025642501E-16, 1.718027464605944354, 0.000000000000000000 ) ) ;
#346 = CC_DESIGN_PERSON_AND_ORGANIZATION_ASSIGNMENT ( #165, #200, ( #228 ) ) ;
#347 = AXIS2_PLACEMENT_3D ( 'NONE', #327, #127, #164 ) ;
#348 = CC_DESIGN_DATE_AND_TIME_ASSIGNMENT ( #134, #139, ( #333 ) ) ;
#349 =( NAMED_UNIT ( * ) PLANE_ANGLE_UNIT ( ) SI_UNIT ( $, .RADIAN. ) );
#350 = ORGANIZATION ( 'UNSPECIFIED', 'UNSPECIFIED', '' ) ;
#351 =( LENGTH_UNIT ( ) NAMED_UNIT ( * ) SI_UNIT ( .MILLI., .METRE. ) );
#352 = UNCERTAINTY_MEASURE_WITH_UNIT (LENGTH_MEASURE( 1.000000000000000082E-05 ), #351, 'distance_accuracy_value', 'NONE');
#353 = CARTESIAN_POINT ( 'NONE',  ( 10.65000000000000924, 2817.965330118411202, 1.304248841091930472E-15 ) ) ;
#354 = AXIS2_PLACEMENT_3D ( 'NONE', #136, #195, #167 ) ;
#355 = CARTESIAN_POINT ( 'NONE',  ( -10.64999999999999325, 4.895786993555463668E-17, 0.000000000000000000 ) ) ;
#356 = EDGE_CURVE ( 'NONE', #140, #338, #266, .T. ) ;
#357 = SPHERICAL_SURFACE ( 'NONE', #191, 15.04000000000001513 ) ;
#358 = CC_DESIGN_APPROVAL ( #339, ( #333 ) ) ;
#359 = FACE_OUTER_BOUND ( 'NONE', #248, .T. ) ;
ENDSEC;
END-ISO-10303-21;
