ISO-10303-21;
HEADER;
FILE_DESCRIPTION (( 'STEP AP203' ),
    '1' );
FILE_NAME ('3D-LR-131-SE_34-30_17106570.STEP',
    '2024-09-02T20:28:08',
    ( '' ),
    ( '' ),
    'SwSTEP 2.0',
    'SolidWorks 2024',
    '' );
FILE_SCHEMA (( 'CONFIG_CONTROL_DESIGN' ));
ENDSEC;

DATA;
#1 = ADVANCED_FACE ( 'NONE', ( #323 ), #354, .F. ) ;
#2 = DIRECTION ( 'NONE',  ( -1.000000000000000000, -0.000000000000000000, -0.000000000000000000 ) ) ;
#3 = DATE_AND_TIME ( #207, #297 ) ;
#4 = FACE_OUTER_BOUND ( 'NONE', #178, .T. ) ;
#5 = VECTOR ( 'NONE', #81, 999.9999999999998863 ) ;
#6 = DIRECTION ( 'NONE',  ( -1.000000000000000000, -0.000000000000000000, -0.000000000000000000 ) ) ;
#7 = EDGE_LOOP ( 'NONE', ( #180, #165, #151, #9 ) ) ;
#8 = DIRECTION ( 'NONE',  ( -1.000000000000000000, -0.000000000000000000, -0.000000000000000000 ) ) ;
#9 = ORIENTED_EDGE ( 'NONE', *, *, #321, .F. ) ;
#10 = CALENDAR_DATE ( 2024, 2, 9 ) ;
#11 = DIRECTION ( 'NONE',  ( 0.000000000000000000, 0.000000000000000000, 1.000000000000000000 ) ) ;
#12 = ORIENTED_EDGE ( 'NONE', *, *, #124, .T. ) ;
#13 = AXIS2_PLACEMENT_3D ( 'NONE', #58, #185, #83 ) ;
#14 = CIRCLE ( 'NONE', #126, 21.00000000000000000 ) ;
#15 = APPROVAL_STATUS ( 'not_yet_approved' ) ;
#16 = EDGE_CURVE ( 'NONE', #374, #17, #380, .T. ) ;
#17 = VERTEX_POINT ( 'NONE', #358 ) ;
#18 = CARTESIAN_POINT ( 'NONE',  ( -36.70332301863295754, 0.000000000000000000, 0.000000000000000000 ) ) ;
#19 = CIRCLE ( 'NONE', #49, 17.00000000000000000 ) ;
#20 = CARTESIAN_POINT ( 'NONE',  ( -10.25000000000000178, 0.000000000000000000, 0.000000000000000000 ) ) ;
#21 = CYLINDRICAL_SURFACE ( 'NONE', #24, 19.00000000000000000 ) ;
#22 = CC_DESIGN_DATE_AND_TIME_ASSIGNMENT ( #266, #36, ( #243 ) ) ;
#23 = EDGE_LOOP ( 'NONE', ( #350, #302, #286, #48 ) ) ;
#24 = AXIS2_PLACEMENT_3D ( 'NONE', #18, #319, #183 ) ;
#25 = LOCAL_TIME ( 22, 28, 8.000000000000000000, #34 ) ;
#26 = CYLINDRICAL_SURFACE ( 'NONE', #248, 15.00000000000000000 ) ;
#27 = DIRECTION ( 'NONE',  ( -1.000000000000000000, -0.000000000000000000, -0.000000000000000000 ) ) ;
#28 = EDGE_CURVE ( 'NONE', #145, #213, #148, .T. ) ;
#29 = CARTESIAN_POINT ( 'NONE',  ( 10.24999999999999645, 17.00000000000000000, 0.000000000000000000 ) ) ;
#30 = CARTESIAN_POINT ( 'NONE',  ( -8.697346038583082972, 2.449293598294706513E-15, -19.00000000000000000 ) ) ;
#31 = AXIS2_PLACEMENT_3D ( 'NONE', #127, #2, #261 ) ;
#32 = ADVANCED_FACE ( 'NONE', ( #51 ), #21, .T. ) ;
#33 = DIRECTION ( 'NONE',  ( -1.000000000000000000, -0.000000000000000000, -0.000000000000000000 ) ) ;
#34 = COORDINATED_UNIVERSAL_TIME_OFFSET ( 1, 0, .AHEAD. ) ;
#35 = CARTESIAN_POINT ( 'NONE',  ( -8.697346038583082972, 0.000000000000000000, 0.000000000000000000 ) ) ;
#36 = DATE_TIME_ROLE ( 'classification_date' ) ;
#37 = CARTESIAN_POINT ( 'NONE',  ( 1.249999999999997558, 19.00000000000000000, 0.000000000000000000 ) ) ;
#38 = ORIENTED_EDGE ( 'NONE', *, *, #306, .T. ) ;
#39 = AXIS2_PLACEMENT_3D ( 'NONE', #238, #373, #375 ) ;
#40 = DIRECTION ( 'NONE',  ( 0.000000000000000000, 0.000000000000000000, 1.000000000000000000 ) ) ;
#41 = CC_DESIGN_PERSON_AND_ORGANIZATION_ASSIGNMENT ( #290, #392, ( #399 ) ) ;
#42 = APPROVAL_STATUS ( 'not_yet_approved' ) ;
#43 = DIRECTION ( 'NONE',  ( -1.000000000000000000, -0.000000000000000000, -0.000000000000000000 ) ) ;
#44 = ORIENTED_EDGE ( 'NONE', *, *, #28, .F. ) ;
#45 = PERSON_AND_ORGANIZATION ( #230, #422 ) ;
#46 = APPLICATION_CONTEXT ( 'configuration controlled 3d designs of mechanical parts and assemblies' ) ;
#47 = DIRECTION ( 'NONE',  ( 0.000000000000000000, 0.000000000000000000, 1.000000000000000000 ) ) ;
#48 = ORIENTED_EDGE ( 'NONE', *, *, #16, .F. ) ;
#49 = AXIS2_PLACEMENT_3D ( 'NONE', #224, #125, #334 ) ;
#50 = ORIENTED_EDGE ( 'NONE', *, *, #124, .F. ) ;
#51 = FACE_OUTER_BOUND ( 'NONE', #405, .T. ) ;
#52 = FACE_OUTER_BOUND ( 'NONE', #389, .T. ) ;
#53 = CARTESIAN_POINT ( 'NONE',  ( -9.050000000000002487, 2.571758278209441661E-15, -21.00000000000000000 ) ) ;
#54 = CIRCLE ( 'NONE', #189, 19.00000000000000000 ) ;
#55 = APPROVAL_PERSON_ORGANIZATION ( #300, #379, #277 ) ;
#56 = LOCAL_TIME ( 22, 28, 8.000000000000000000, #162 ) ;
#57 =( NAMED_UNIT ( * ) SI_UNIT ( $, .STERADIAN. ) SOLID_ANGLE_UNIT ( ) );
#58 = CARTESIAN_POINT ( 'NONE',  ( 10.24999999999999467, 0.000000000000000000, 0.000000000000000000 ) ) ;
#59 = VERTEX_POINT ( 'NONE', #150 ) ;
#60 = FACE_BOUND ( 'NONE', #80, .T. ) ;
#61 = ADVANCED_FACE ( 'NONE', ( #287 ), #283, .T. ) ;
#62 = CC_DESIGN_APPROVAL ( #379, ( #243 ) ) ;
#63 = FACE_OUTER_BOUND ( 'NONE', #317, .T. ) ;
#64 = DESIGN_CONTEXT ( 'detailed design', #46, 'design' ) ;
#65 = FACE_OUTER_BOUND ( 'NONE', #253, .T. ) ;
#66 = DIRECTION ( 'NONE',  ( 0.000000000000000000, 0.000000000000000000, 1.000000000000000000 ) ) ;
#67 = DIRECTION ( 'NONE',  ( -1.000000000000000000, -0.000000000000000000, -0.000000000000000000 ) ) ;
#68 = CARTESIAN_POINT ( 'NONE',  ( 0.000000000000000000, 0.000000000000000000, 0.000000000000000000 ) ) ;
#69 = DIRECTION ( 'NONE',  ( -1.000000000000000000, -0.000000000000000000, -0.000000000000000000 ) ) ;
#70 = PERSON_AND_ORGANIZATION ( #230, #422 ) ;
#71 = CARTESIAN_POINT ( 'NONE',  ( -36.70332301863295754, 2.081899558550500280E-15, -17.00000000000000000 ) ) ;
#72 = ORIENTED_EDGE ( 'NONE', *, *, #215, .F. ) ;
#73 = DIRECTION ( 'NONE',  ( 0.000000000000000000, 0.000000000000000000, 1.000000000000000000 ) ) ;
#74 = EDGE_CURVE ( 'NONE', #252, #276, #356, .T. ) ;
#75 = CARTESIAN_POINT ( 'NONE',  ( -9.050000000000002487, 0.000000000000000000, 0.000000000000000000 ) ) ;
#76 = CC_DESIGN_PERSON_AND_ORGANIZATION_ASSIGNMENT ( #70, #131, ( #243 ) ) ;
#77 = CIRCLE ( 'NONE', #289, 19.00000000000000000 ) ;
#78 = APPROVAL_ROLE ( '' ) ;
#79 = CARTESIAN_POINT ( 'NONE',  ( -36.70332301863295754, 0.000000000000000000, 0.000000000000000000 ) ) ;
#80 = EDGE_LOOP ( 'NONE', ( #244, #419 ) ) ;
#81 = DIRECTION ( 'NONE',  ( -0.1736481776669254184, 0.000000000000000000, 0.9848077530122090195 ) ) ;
#82 = EDGE_LOOP ( 'NONE', ( #86, #121, #116, #203 ) ) ;
#83 = DIRECTION ( 'NONE',  ( 0.000000000000000000, 0.000000000000000000, 1.000000000000000000 ) ) ;
#84 = PRODUCT_DEFINITION_FORMATION_WITH_SPECIFIED_SOURCE ( 'ANY', '', #399, .NOT_KNOWN. ) ;
#85 =( NAMED_UNIT ( * ) PLANE_ANGLE_UNIT ( ) SI_UNIT ( $, .RADIAN. ) );
#86 = ORIENTED_EDGE ( 'NONE', *, *, #384, .F. ) ;
#87 = EDGE_LOOP ( 'NONE', ( #92, #305, #322, #423 ) ) ;
#88 = DIRECTION ( 'NONE',  ( -1.000000000000000000, -0.000000000000000000, -0.000000000000000000 ) ) ;
#89 = ORIENTED_EDGE ( 'NONE', *, *, #74, .T. ) ;
#90 = CIRCLE ( 'NONE', #166, 19.00000000000000000 ) ;
#91 = CONICAL_SURFACE ( 'NONE', #39, 21.00000000000000000, 1.396263401595468689 ) ;
#92 = ORIENTED_EDGE ( 'NONE', *, *, #258, .F. ) ;
#93 = DIRECTION ( 'NONE',  ( -1.000000000000000000, -0.000000000000000000, -0.000000000000000000 ) ) ;
#94 = EDGE_CURVE ( 'NONE', #347, #288, #381, .T. ) ;
#95 = UNCERTAINTY_MEASURE_WITH_UNIT (LENGTH_MEASURE( 1.000000000000000082E-05 ), #222, 'distance_accuracy_value', 'NONE');
#96 = CYLINDRICAL_SURFACE ( 'NONE', #296, 21.00000000000000000 ) ;
#97 = CONICAL_SURFACE ( 'NONE', #265, 21.00000000000000000, 1.396263401595468689 ) ;
#98 = DIRECTION ( 'NONE',  ( -1.000000000000000000, -0.000000000000000000, -0.000000000000000000 ) ) ;
#99 = DIRECTION ( 'NONE',  ( 0.000000000000000000, 0.000000000000000000, 1.000000000000000000 ) ) ;
#100 = CARTESIAN_POINT ( 'NONE',  ( -8.697346038583082972, 0.000000000000000000, 0.000000000000000000 ) ) ;
#101 = DIRECTION ( 'NONE',  ( -1.000000000000000000, -0.000000000000000000, -0.000000000000000000 ) ) ;
#102 = AXIS2_PLACEMENT_3D ( 'NONE', #398, #264, #270 ) ;
#103 = PERSON_AND_ORGANIZATION ( #230, #422 ) ;
#104 = CARTESIAN_POINT ( 'NONE',  ( -9.050000000000002487, 0.000000000000000000, 21.00000000000000000 ) ) ;
#105 = ORIENTED_EDGE ( 'NONE', *, *, #197, .F. ) ;
#106 = EDGE_CURVE ( 'NONE', #252, #217, #90, .T. ) ;
#107 = CARTESIAN_POINT ( 'NONE',  ( -10.25000000000000178, 1.836970198721029194E-15, -14.99999999999999822 ) ) ;
#108 = VERTEX_POINT ( 'NONE', #427 ) ;
#109 = CALENDAR_DATE ( 2024, 2, 9 ) ;
#110 = FACE_OUTER_BOUND ( 'NONE', #7, .T. ) ;
#111 = ORIENTED_EDGE ( 'NONE', *, *, #135, .T. ) ;
#112 = AXIS2_PLACEMENT_3D ( 'NONE', #29, #331, #294 ) ;
#113 = PERSON_AND_ORGANIZATION ( #230, #422 ) ;
#114 = LINE ( 'NONE', #137, #168 ) ;
#115 = ORIENTED_EDGE ( 'NONE', *, *, #355, .F. ) ;
#116 = ORIENTED_EDGE ( 'NONE', *, *, #16, .T. ) ;
#117 = EDGE_LOOP ( 'NONE', ( #140, #44, #337, #309 ) ) ;
#118 = AXIS2_PLACEMENT_3D ( 'NONE', #352, #88, #219 ) ;
#119 = VERTEX_POINT ( 'NONE', #129 ) ;
#120 = ORIENTED_EDGE ( 'NONE', *, *, #197, .T. ) ;
#121 = ORIENTED_EDGE ( 'NONE', *, *, #321, .T. ) ;
#122 =( GEOMETRIC_REPRESENTATION_CONTEXT ( 3 ) GLOBAL_UNCERTAINTY_ASSIGNED_CONTEXT ( ( #95 ) ) GLOBAL_UNIT_ASSIGNED_CONTEXT ( ( #222, #85, #57 ) ) REPRESENTATION_CONTEXT ( 'NONE', 'WORKASPACE' ) );
#123 = DIRECTION ( 'NONE',  ( 0.000000000000000000, 0.000000000000000000, 1.000000000000000000 ) ) ;
#124 = EDGE_CURVE ( 'NONE', #108, #119, #54, .T. ) ;
#125 = DIRECTION ( 'NONE',  ( -1.000000000000000000, -0.000000000000000000, -0.000000000000000000 ) ) ;
#126 = AXIS2_PLACEMENT_3D ( 'NONE', #170, #139, #275 ) ;
#127 = CARTESIAN_POINT ( 'NONE',  ( -36.70332301863295754, 0.000000000000000000, 0.000000000000000000 ) ) ;
#128 = CC_DESIGN_PERSON_AND_ORGANIZATION_ASSIGNMENT ( #113, #175, ( #84 ) ) ;
#129 = CARTESIAN_POINT ( 'NONE',  ( 1.249999999999994227, 0.000000000000000000, 19.00000000000000000 ) ) ;
#130 = DIRECTION ( 'NONE',  ( -1.000000000000000000, -0.000000000000000000, -0.000000000000000000 ) ) ;
#131 = PERSON_AND_ORGANIZATION_ROLE ( 'classification_officer' ) ;
#132 = PLANE ( 'NONE',  #396 ) ;
#133 = CIRCLE ( 'NONE', #149, 21.00000000000000000 ) ;
#134 = VERTEX_POINT ( 'NONE', #191 ) ;
#135 = EDGE_CURVE ( 'NONE', #17, #59, #388, .T. ) ;
#136 = CALENDAR_DATE ( 2024, 2, 9 ) ;
#137 = CARTESIAN_POINT ( 'NONE',  ( -36.70332301863295754, 0.000000000000000000, 19.00000000000000000 ) ) ;
#138 = EDGE_LOOP ( 'NONE', ( #318, #420, #105, #187 ) ) ;
#139 = DIRECTION ( 'NONE',  ( -1.000000000000000000, -0.000000000000000000, -0.000000000000000000 ) ) ;
#140 = ORIENTED_EDGE ( 'NONE', *, *, #313, .F. ) ;
#141 = DATE_TIME_ROLE ( 'creation_date' ) ;
#142 = CARTESIAN_POINT ( 'NONE',  ( -9.050000000000002487, 0.000000000000000000, 21.00000000000000000 ) ) ;
#143 = ORIENTED_EDGE ( 'NONE', *, *, #262, .F. ) ;
#144 = VECTOR ( 'NONE', #413, 1000.000000000000000 ) ;
#145 = VERTEX_POINT ( 'NONE', #400 ) ;
#146 = ORIENTED_EDGE ( 'NONE', *, *, #324, .F. ) ;
#147 = ADVANCED_FACE ( 'NONE', ( #192 ), #26, .F. ) ;
#148 = CIRCLE ( 'NONE', #13, 15.00000000000000000 ) ;
#149 = AXIS2_PLACEMENT_3D ( 'NONE', #202, #377, #11 ) ;
#150 = CARTESIAN_POINT ( 'NONE',  ( -10.25000000000000178, 2.571758278209441661E-15, -21.00000000000000000 ) ) ;
#151 = ORIENTED_EDGE ( 'NONE', *, *, #324, .T. ) ;
#152 = EDGE_CURVE ( 'NONE', #288, #347, #315, .T. ) ;
#153 = EDGE_LOOP ( 'NONE', ( #359, #353 ) ) ;
#154 = AXIS2_PLACEMENT_3D ( 'NONE', #79, #176, #73 ) ;
#155 = DIRECTION ( 'NONE',  ( -1.000000000000000000, 0.000000000000000000, -0.000000000000000000 ) ) ;
#156 = APPLICATION_PROTOCOL_DEFINITION ( 'international standard', 'config_control_design', 1994, #46 ) ;
#157 = PLANE ( 'NONE',  #278 ) ;
#158 = DIRECTION ( 'NONE',  ( 0.000000000000000000, 0.000000000000000000, 1.000000000000000000 ) ) ;
#159 = VECTOR ( 'NONE', #339, 1000.000000000000000 ) ;
#160 = DIRECTION ( 'NONE',  ( -1.000000000000000000, -0.000000000000000000, -0.000000000000000000 ) ) ;
#161 = DIRECTION ( 'NONE',  ( 0.000000000000000000, 0.000000000000000000, 1.000000000000000000 ) ) ;
#162 = COORDINATED_UNIVERSAL_TIME_OFFSET ( 1, 0, .AHEAD. ) ;
#163 = EDGE_CURVE ( 'NONE', #237, #134, #177, .T. ) ;
#164 = FACE_BOUND ( 'NONE', #268, .T. ) ;
#165 = ORIENTED_EDGE ( 'NONE', *, *, #106, .T. ) ;
#166 = AXIS2_PLACEMENT_3D ( 'NONE', #100, #67, #429 ) ;
#167 = DIRECTION ( 'NONE',  ( 0.000000000000000000, 0.000000000000000000, 1.000000000000000000 ) ) ;
#168 = VECTOR ( 'NONE', #246, 1000.000000000000000 ) ;
#169 = ORIENTED_EDGE ( 'NONE', *, *, #186, .F. ) ;
#170 = CARTESIAN_POINT ( 'NONE',  ( -10.25000000000000178, 0.000000000000000000, 0.000000000000000000 ) ) ;
#171 = ORIENTED_EDGE ( 'NONE', *, *, #262, .T. ) ;
#172 = DATE_AND_TIME ( #109, #184 ) ;
#173 = CARTESIAN_POINT ( 'NONE',  ( -10.25000000000000178, 0.000000000000000000, 14.99999999999999822 ) ) ;
#174 = VERTEX_POINT ( 'NONE', #232 ) ;
#175 = PERSON_AND_ORGANIZATION_ROLE ( 'design_supplier' ) ;
#176 = DIRECTION ( 'NONE',  ( -1.000000000000000000, -0.000000000000000000, -0.000000000000000000 ) ) ;
#177 = CIRCLE ( 'NONE', #421, 17.00000000000000000 ) ;
#178 = EDGE_LOOP ( 'NONE', ( #169, #50 ) ) ;
#179 = VECTOR ( 'NONE', #6, 1000.000000000000000 ) ;
#180 = ORIENTED_EDGE ( 'NONE', *, *, #74, .F. ) ;
#181 = ADVANCED_FACE ( 'NONE', ( #366 ), #96, .T. ) ;
#182 = ORIENTED_EDGE ( 'NONE', *, *, #360, .T. ) ;
#183 = DIRECTION ( 'NONE',  ( 0.000000000000000000, 0.000000000000000000, 1.000000000000000000 ) ) ;
#184 = LOCAL_TIME ( 22, 28, 8.000000000000000000, #401 ) ;
#185 = DIRECTION ( 'NONE',  ( -1.000000000000000000, -0.000000000000000000, -0.000000000000000000 ) ) ;
#186 = EDGE_CURVE ( 'NONE', #119, #108, #77, .T. ) ;
#187 = ORIENTED_EDGE ( 'NONE', *, *, #360, .F. ) ;
#188 = CYLINDRICAL_SURFACE ( 'NONE', #31, 21.00000000000000000 ) ;
#189 = AXIS2_PLACEMENT_3D ( 'NONE', #263, #93, #291 ) ;
#190 = APPROVAL_PERSON_ORGANIZATION ( #103, #216, #78 ) ;
#191 = CARTESIAN_POINT ( 'NONE',  ( 10.24999999999999467, 0.000000000000000000, 17.00000000000000000 ) ) ;
#192 = FACE_OUTER_BOUND ( 'NONE', #87, .T. ) ;
#193 = DIRECTION ( 'NONE',  ( 0.000000000000000000, 0.000000000000000000, 1.000000000000000000 ) ) ;
#194 = AXIS2_PLACEMENT_3D ( 'NONE', #68, #66, #195 ) ;
#195 = DIRECTION ( 'NONE',  ( 1.000000000000000000, 0.000000000000000000, 0.000000000000000000 ) ) ;
#196 = DIRECTION ( 'NONE',  ( -1.000000000000000000, -0.000000000000000000, -0.000000000000000000 ) ) ;
#197 = EDGE_CURVE ( 'NONE', #312, #174, #19, .T. ) ;
#198 = CALENDAR_DATE ( 2024, 2, 9 ) ;
#199 = LINE ( 'NONE', #316, #159 ) ;
#200 = ORIENTED_EDGE ( 'NONE', *, *, #306, .F. ) ;
#201 = APPROVAL_DATE_TIME ( #269, #372 ) ;
#202 = CARTESIAN_POINT ( 'NONE',  ( -9.050000000000002487, 0.000000000000000000, 0.000000000000000000 ) ) ;
#203 = ORIENTED_EDGE ( 'NONE', *, *, #403, .F. ) ;
#204 = DATE_AND_TIME ( #10, #428 ) ;
#205 = DIRECTION ( 'NONE',  ( -1.000000000000000000, -0.000000000000000000, -0.000000000000000000 ) ) ;
#206 = VECTOR ( 'NONE', #376, 1000.000000000000000 ) ;
#207 = CALENDAR_DATE ( 2024, 2, 9 ) ;
#208 = LINE ( 'NONE', #71, #382 ) ;
#209 = EDGE_LOOP ( 'NONE', ( #385, #412, #115, #200 ) ) ;
#210 = CC_DESIGN_DATE_AND_TIME_ASSIGNMENT ( #204, #141, ( #227 ) ) ;
#211 = CARTESIAN_POINT ( 'NONE',  ( 1.249999999999994227, 0.000000000000000000, 0.000000000000000000 ) ) ;
#212 = ORIENTED_EDGE ( 'NONE', *, *, #397, .F. ) ;
#213 = VERTEX_POINT ( 'NONE', #327 ) ;
#214 = AXIS2_PLACEMENT_3D ( 'NONE', #35, #402, #47 ) ;
#215 = EDGE_CURVE ( 'NONE', #134, #237, #250, .T. ) ;
#216 = APPROVAL ( #42, 'UNSPECIFIED' ) ;
#217 = VERTEX_POINT ( 'NONE', #299 ) ;
#218 = DIRECTION ( 'NONE',  ( 0.000000000000000000, 0.000000000000000000, 1.000000000000000000 ) ) ;
#219 = DIRECTION ( 'NONE',  ( 0.000000000000000000, 0.000000000000000000, 1.000000000000000000 ) ) ;
#220 = ORIENTED_EDGE ( 'NONE', *, *, #163, .F. ) ;
#221 = CLOSED_SHELL ( 'NONE', ( #61, #292, #390, #233, #147, #247, #1, #240, #181, #272, #32, #371, #426 ) ) ;
#222 =( LENGTH_UNIT ( ) NAMED_UNIT ( * ) SI_UNIT ( .MILLI., .METRE. ) );
#223 = ORIENTED_EDGE ( 'NONE', *, *, #403, .T. ) ;
#224 = CARTESIAN_POINT ( 'NONE',  ( 1.249999999999994227, 0.000000000000000000, 0.000000000000000000 ) ) ;
#225 = CARTESIAN_POINT ( 'NONE',  ( -36.70332301863295754, 0.000000000000000000, 0.000000000000000000 ) ) ;
#226 = CIRCLE ( 'NONE', #332, 21.00000000000000000 ) ;
#227 = PRODUCT_DEFINITION ( 'UNKNOWN', '', #84, #64 ) ;
#228 = CARTESIAN_POINT ( 'NONE',  ( 10.24999999999999467, 2.081899558550500280E-15, -17.00000000000000000 ) ) ;
#229 = DIRECTION ( 'NONE',  ( -1.000000000000000000, -0.000000000000000000, -0.000000000000000000 ) ) ;
#230 = PERSON ( 'UNSPECIFIED', 'UNSPECIFIED', 'UNSPECIFIED', ('UNSPECIFIED'), ('UNSPECIFIED'), ('UNSPECIFIED') ) ;
#231 = APPLICATION_CONTEXT ( 'configuration controlled 3d designs of mechanical parts and assemblies' ) ;
#232 = CARTESIAN_POINT ( 'NONE',  ( 1.249999999999994227, 2.081899558550500280E-15, -17.00000000000000000 ) ) ;
#233 = ADVANCED_FACE ( 'NONE', ( #365 ), #188, .T. ) ;
#234 = APPROVAL_PERSON_ORGANIZATION ( #45, #372, #245 ) ;
#235 = CARTESIAN_POINT ( 'NONE',  ( 1.249999999999994227, 0.000000000000000000, 17.00000000000000000 ) ) ;
#236 = LINE ( 'NONE', #308, #260 ) ;
#237 = VERTEX_POINT ( 'NONE', #228 ) ;
#238 = CARTESIAN_POINT ( 'NONE',  ( -9.050000000000002487, 0.000000000000000000, 0.000000000000000000 ) ) ;
#239 = AXIS2_PLACEMENT_3D ( 'NONE', #20, #362, #424 ) ;
#240 = ADVANCED_FACE ( 'NONE', ( #63, #60 ), #157, .T. ) ;
#241 = VECTOR ( 'NONE', #320, 999.9999999999998863 ) ;
#242 = CARTESIAN_POINT ( 'NONE',  ( -36.70332301863295754, 0.000000000000000000, 15.00000000000000000 ) ) ;
#243 = SECURITY_CLASSIFICATION ( '', '', #335 ) ;
#244 = ORIENTED_EDGE ( 'NONE', *, *, #152, .F. ) ;
#245 = APPROVAL_ROLE ( '' ) ;
#246 = DIRECTION ( 'NONE',  ( -1.000000000000000000, -0.000000000000000000, -0.000000000000000000 ) ) ;
#247 = ADVANCED_FACE ( 'NONE', ( #425, #65 ), #328, .T. ) ;
#248 = AXIS2_PLACEMENT_3D ( 'NONE', #256, #196, #395 ) ;
#249 = ORIENTED_EDGE ( 'NONE', *, *, #338, .F. ) ;
#250 = CIRCLE ( 'NONE', #255, 17.00000000000000000 ) ;
#251 = DIRECTION ( 'NONE',  ( -1.000000000000000000, -0.000000000000000000, -0.000000000000000000 ) ) ;
#252 = VERTEX_POINT ( 'NONE', #30 ) ;
#253 = EDGE_LOOP ( 'NONE', ( #72, #220 ) ) ;
#254 = AXIS2_PLACEMENT_3D ( 'NONE', #259, #229, #158 ) ;
#255 = AXIS2_PLACEMENT_3D ( 'NONE', #364, #33, #161 ) ;
#256 = CARTESIAN_POINT ( 'NONE',  ( -36.70332301863295754, 0.000000000000000000, 0.000000000000000000 ) ) ;
#257 = DIRECTION ( 'NONE',  ( 0.000000000000000000, 0.000000000000000000, 1.000000000000000000 ) ) ;
#258 = EDGE_CURVE ( 'NONE', #213, #145, #417, .T. ) ;
#259 = CARTESIAN_POINT ( 'NONE',  ( -10.25000000000000178, 0.000000000000000000, 0.000000000000000000 ) ) ;
#260 = VECTOR ( 'NONE', #43, 1000.000000000000000 ) ;
#261 = DIRECTION ( 'NONE',  ( 0.000000000000000000, 0.000000000000000000, 1.000000000000000000 ) ) ;
#262 = EDGE_CURVE ( 'NONE', #174, #312, #368, .T. ) ;
#263 = CARTESIAN_POINT ( 'NONE',  ( 1.249999999999994227, 0.000000000000000000, 0.000000000000000000 ) ) ;
#264 = DIRECTION ( 'NONE',  ( -1.000000000000000000, -0.000000000000000000, -0.000000000000000000 ) ) ;
#265 = AXIS2_PLACEMENT_3D ( 'NONE', #311, #8, #167 ) ;
#266 = DATE_AND_TIME ( #198, #56 ) ;
#267 = DIRECTION ( 'NONE',  ( 1.000000000000000000, 0.000000000000000000, 0.000000000000000000 ) ) ;
#268 = EDGE_LOOP ( 'NONE', ( #120, #171 ) ) ;
#269 = DATE_AND_TIME ( #136, #25 ) ;
#270 = DIRECTION ( 'NONE',  ( 0.000000000000000000, 0.000000000000000000, 1.000000000000000000 ) ) ;
#271 = EDGE_LOOP ( 'NONE', ( #280, #89, #212, #146 ) ) ;
#272 = ADVANCED_FACE ( 'NONE', ( #110 ), #97, .T. ) ;
#273 = PRODUCT_RELATED_PRODUCT_CATEGORY ( 'detail', '', ( #399 ) ) ;
#274 = APPROVAL_STATUS ( 'not_yet_approved' ) ;
#275 = DIRECTION ( 'NONE',  ( 0.000000000000000000, 0.000000000000000000, 1.000000000000000000 ) ) ;
#276 = VERTEX_POINT ( 'NONE', #279 ) ;
#277 = APPROVAL_ROLE ( '' ) ;
#278 = AXIS2_PLACEMENT_3D ( 'NONE', #325, #155, #293 ) ;
#279 = CARTESIAN_POINT ( 'NONE',  ( -9.050000000000002487, 2.571758278209441661E-15, -21.00000000000000000 ) ) ;
#280 = ORIENTED_EDGE ( 'NONE', *, *, #355, .T. ) ;
#281 = EDGE_CURVE ( 'NONE', #108, #252, #411, .T. ) ;
#282 = CARTESIAN_POINT ( 'NONE',  ( -36.70332301863295754, 0.000000000000000000, 0.000000000000000000 ) ) ;
#283 = CYLINDRICAL_SURFACE ( 'NONE', #363, 17.00000000000000000 ) ;
#284 = CC_DESIGN_APPROVAL ( #216, ( #227 ) ) ;
#285 = MANIFOLD_SOLID_BREP ( 'Rotation1', #221 ) ;
#286 = ORIENTED_EDGE ( 'NONE', *, *, #135, .F. ) ;
#287 = FACE_OUTER_BOUND ( 'NONE', #138, .T. ) ;
#288 = VERTEX_POINT ( 'NONE', #173 ) ;
#289 = AXIS2_PLACEMENT_3D ( 'NONE', #361, #69, #193 ) ;
#290 = PERSON_AND_ORGANIZATION ( #230, #422 ) ;
#291 = DIRECTION ( 'NONE',  ( 0.000000000000000000, 0.000000000000000000, 1.000000000000000000 ) ) ;
#292 = ADVANCED_FACE ( 'NONE', ( #336 ), #344, .T. ) ;
#293 = DIRECTION ( 'NONE',  ( -0.000000000000000000, 0.000000000000000000, 1.000000000000000000 ) ) ;
#294 = DIRECTION ( 'NONE',  ( 0.000000000000000000, 0.000000000000000000, -1.000000000000000000 ) ) ;
#295 = VECTOR ( 'NONE', #383, 1000.000000000000000 ) ;
#296 = AXIS2_PLACEMENT_3D ( 'NONE', #225, #98, #391 ) ;
#297 = LOCAL_TIME ( 22, 28, 8.000000000000000000, #407 ) ;
#298 = CARTESIAN_POINT ( 'NONE',  ( -10.25000000000000178, 0.000000000000000000, 0.000000000000000000 ) ) ;
#299 = CARTESIAN_POINT ( 'NONE',  ( -8.697346038583082972, 0.000000000000000000, 19.00000000000000000 ) ) ;
#300 = PERSON_AND_ORGANIZATION ( #230, #422 ) ;
#301 = CARTESIAN_POINT ( 'NONE',  ( -36.70332301863295754, 1.836970198721029589E-15, -15.00000000000000000 ) ) ;
#302 = ORIENTED_EDGE ( 'NONE', *, *, #384, .T. ) ;
#303 = CC_DESIGN_SECURITY_CLASSIFICATION ( #243, ( #84 ) ) ;
#304 = CARTESIAN_POINT ( 'NONE',  ( -36.70332301863295754, 2.326828918379970970E-15, -19.00000000000000000 ) ) ;
#305 = ORIENTED_EDGE ( 'NONE', *, *, #313, .T. ) ;
#306 = EDGE_CURVE ( 'NONE', #119, #217, #114, .T. ) ;
#307 = PERSON_AND_ORGANIZATION_ROLE ( 'creator' ) ;
#308 = CARTESIAN_POINT ( 'NONE',  ( -36.70332301863295754, 2.571758278209441661E-15, -21.00000000000000000 ) ) ;
#309 = ORIENTED_EDGE ( 'NONE', *, *, #152, .T. ) ;
#310 = PERSON_AND_ORGANIZATION_ROLE ( 'creator' ) ;
#311 = CARTESIAN_POINT ( 'NONE',  ( -9.050000000000002487, 0.000000000000000000, 0.000000000000000000 ) ) ;
#312 = VERTEX_POINT ( 'NONE', #235 ) ;
#313 = EDGE_CURVE ( 'NONE', #213, #347, #370, .T. ) ;
#314 = SHAPE_DEFINITION_REPRESENTATION ( #394, #329 ) ;
#315 = CIRCLE ( 'NONE', #367, 14.99999999999999822 ) ;
#316 = CARTESIAN_POINT ( 'NONE',  ( -36.70332301863295754, 0.000000000000000000, 17.00000000000000000 ) ) ;
#317 = EDGE_LOOP ( 'NONE', ( #111, #223 ) ) ;
#318 = ORIENTED_EDGE ( 'NONE', *, *, #215, .T. ) ;
#319 = DIRECTION ( 'NONE',  ( -1.000000000000000000, -0.000000000000000000, -0.000000000000000000 ) ) ;
#320 = DIRECTION ( 'NONE',  ( -0.1736481776669254184, 1.206041662501898854E-16, -0.9848077530122090195 ) ) ;
#321 = EDGE_CURVE ( 'NONE', #276, #374, #133, .T. ) ;
#322 = ORIENTED_EDGE ( 'NONE', *, *, #94, .T. ) ;
#323 = FACE_OUTER_BOUND ( 'NONE', #117, .T. ) ;
#324 = EDGE_CURVE ( 'NONE', #217, #374, #406, .T. ) ;
#325 = CARTESIAN_POINT ( 'NONE',  ( -10.25000000000000355, 14.99999999999999822, 0.000000000000000000 ) ) ;
#326 = CC_DESIGN_APPROVAL ( #372, ( #84 ) ) ;
#327 = CARTESIAN_POINT ( 'NONE',  ( 10.24999999999999467, 1.836970198721029589E-15, -15.00000000000000000 ) ) ;
#328 = PLANE ( 'NONE',  #112 ) ;
#329 = ADVANCED_BREP_SHAPE_REPRESENTATION ( '3D-LR-131-SE_34-30_17106570', ( #285, #194 ), #122 ) ;
#330 = APPLICATION_PROTOCOL_DEFINITION ( 'international standard', 'config_control_design', 1994, #231 ) ;
#331 = DIRECTION ( 'NONE',  ( 1.000000000000000000, 0.000000000000000000, 0.000000000000000000 ) ) ;
#332 = AXIS2_PLACEMENT_3D ( 'NONE', #75, #205, #40 ) ;
#333 = MECHANICAL_CONTEXT ( 'NONE', #231, 'mechanical' ) ;
#334 = DIRECTION ( 'NONE',  ( 0.000000000000000000, 0.000000000000000000, 1.000000000000000000 ) ) ;
#335 = SECURITY_CLASSIFICATION_LEVEL ( 'unclassified' ) ;
#336 = FACE_OUTER_BOUND ( 'NONE', #209, .T. ) ;
#337 = ORIENTED_EDGE ( 'NONE', *, *, #415, .T. ) ;
#338 = EDGE_CURVE ( 'NONE', #237, #174, #208, .T. ) ;
#339 = DIRECTION ( 'NONE',  ( -1.000000000000000000, -0.000000000000000000, -0.000000000000000000 ) ) ;
#340 = ORIENTED_EDGE ( 'NONE', *, *, #106, .F. ) ;
#341 = AXIS2_PLACEMENT_3D ( 'NONE', #282, #387, #123 ) ;
#342 = CIRCLE ( 'NONE', #214, 19.00000000000000000 ) ;
#343 = PERSON_AND_ORGANIZATION ( #230, #422 ) ;
#344 = CYLINDRICAL_SURFACE ( 'NONE', #154, 19.00000000000000000 ) ;
#345 = COORDINATED_UNIVERSAL_TIME_OFFSET ( 1, 0, .AHEAD. ) ;
#346 = FACE_OUTER_BOUND ( 'NONE', #271, .T. ) ;
#347 = VERTEX_POINT ( 'NONE', #107 ) ;
#348 = APPROVAL_DATE_TIME ( #172, #216 ) ;
#349 = DIRECTION ( 'NONE',  ( 0.000000000000000000, 0.000000000000000000, 1.000000000000000000 ) ) ;
#350 = ORIENTED_EDGE ( 'NONE', *, *, #397, .T. ) ;
#351 = AXIS2_PLACEMENT_3D ( 'NONE', #211, #101, #349 ) ;
#352 = CARTESIAN_POINT ( 'NONE',  ( -36.70332301863295754, 0.000000000000000000, 0.000000000000000000 ) ) ;
#353 = ORIENTED_EDGE ( 'NONE', *, *, #258, .T. ) ;
#354 = CYLINDRICAL_SURFACE ( 'NONE', #341, 15.00000000000000000 ) ;
#355 = EDGE_CURVE ( 'NONE', #217, #252, #342, .T. ) ;
#356 = LINE ( 'NONE', #53, #241 ) ;
#357 = CC_DESIGN_PERSON_AND_ORGANIZATION_ASSIGNMENT ( #369, #310, ( #227 ) ) ;
#358 = CARTESIAN_POINT ( 'NONE',  ( -10.25000000000000178, 0.000000000000000000, 21.00000000000000000 ) ) ;
#359 = ORIENTED_EDGE ( 'NONE', *, *, #28, .T. ) ;
#360 = EDGE_CURVE ( 'NONE', #134, #312, #199, .T. ) ;
#361 = CARTESIAN_POINT ( 'NONE',  ( 1.249999999999994227, 0.000000000000000000, 0.000000000000000000 ) ) ;
#362 = DIRECTION ( 'NONE',  ( -1.000000000000000000, -0.000000000000000000, -0.000000000000000000 ) ) ;
#363 = AXIS2_PLACEMENT_3D ( 'NONE', #418, #251, #218 ) ;
#364 = CARTESIAN_POINT ( 'NONE',  ( 10.24999999999999467, 0.000000000000000000, 0.000000000000000000 ) ) ;
#365 = FACE_OUTER_BOUND ( 'NONE', #23, .T. ) ;
#366 = FACE_OUTER_BOUND ( 'NONE', #82, .T. ) ;
#367 = AXIS2_PLACEMENT_3D ( 'NONE', #298, #160, #257 ) ;
#368 = CIRCLE ( 'NONE', #351, 17.00000000000000000 ) ;
#369 = PERSON_AND_ORGANIZATION ( #230, #422 ) ;
#370 = LINE ( 'NONE', #301, #206 ) ;
#371 = ADVANCED_FACE ( 'NONE', ( #164, #4 ), #132, .T. ) ;
#372 = APPROVAL ( #15, 'UNSPECIFIED' ) ;
#373 = DIRECTION ( 'NONE',  ( -1.000000000000000000, -0.000000000000000000, -0.000000000000000000 ) ) ;
#374 = VERTEX_POINT ( 'NONE', #104 ) ;
#375 = DIRECTION ( 'NONE',  ( 0.000000000000000000, 0.000000000000000000, 1.000000000000000000 ) ) ;
#376 = DIRECTION ( 'NONE',  ( -1.000000000000000000, -0.000000000000000000, -0.000000000000000000 ) ) ;
#377 = DIRECTION ( 'NONE',  ( -1.000000000000000000, -0.000000000000000000, -0.000000000000000000 ) ) ;
#378 = ORIENTED_EDGE ( 'NONE', *, *, #281, .F. ) ;
#379 = APPROVAL ( #274, 'UNSPECIFIED' ) ;
#380 = LINE ( 'NONE', #414, #295 ) ;
#381 = CIRCLE ( 'NONE', #239, 14.99999999999999822 ) ;
#382 = VECTOR ( 'NONE', #130, 1000.000000000000000 ) ;
#383 = DIRECTION ( 'NONE',  ( -1.000000000000000000, -0.000000000000000000, -0.000000000000000000 ) ) ;
#384 = EDGE_CURVE ( 'NONE', #276, #59, #236, .T. ) ;
#385 = ORIENTED_EDGE ( 'NONE', *, *, #186, .T. ) ;
#386 = CYLINDRICAL_SURFACE ( 'NONE', #118, 17.00000000000000000 ) ;
#387 = DIRECTION ( 'NONE',  ( -1.000000000000000000, -0.000000000000000000, -0.000000000000000000 ) ) ;
#388 = CIRCLE ( 'NONE', #254, 21.00000000000000000 ) ;
#389 = EDGE_LOOP ( 'NONE', ( #249, #409, #182, #143 ) ) ;
#390 = ADVANCED_FACE ( 'NONE', ( #346 ), #91, .T. ) ;
#391 = DIRECTION ( 'NONE',  ( 0.000000000000000000, 0.000000000000000000, 1.000000000000000000 ) ) ;
#392 = PERSON_AND_ORGANIZATION_ROLE ( 'design_owner' ) ;
#393 = CARTESIAN_POINT ( 'NONE',  ( 10.24999999999999467, 0.000000000000000000, 0.000000000000000000 ) ) ;
#394 = PRODUCT_DEFINITION_SHAPE ( 'NONE', 'NONE',  #227 ) ;
#395 = DIRECTION ( 'NONE',  ( 0.000000000000000000, 0.000000000000000000, 1.000000000000000000 ) ) ;
#396 = AXIS2_PLACEMENT_3D ( 'NONE', #37, #267, #404 ) ;
#397 = EDGE_CURVE ( 'NONE', #374, #276, #226, .T. ) ;
#398 = CARTESIAN_POINT ( 'NONE',  ( 10.24999999999999467, 0.000000000000000000, 0.000000000000000000 ) ) ;
#399 = PRODUCT ( '3D-LR-131-SE_34-30_17106570', '3D-LR-131-SE_34-30_17106570', '', ( #333 ) ) ;
#400 = CARTESIAN_POINT ( 'NONE',  ( 10.24999999999999467, 0.000000000000000000, 15.00000000000000000 ) ) ;
#401 = COORDINATED_UNIVERSAL_TIME_OFFSET ( 1, 0, .AHEAD. ) ;
#402 = DIRECTION ( 'NONE',  ( -1.000000000000000000, -0.000000000000000000, -0.000000000000000000 ) ) ;
#403 = EDGE_CURVE ( 'NONE', #59, #17, #14, .T. ) ;
#404 = DIRECTION ( 'NONE',  ( 0.000000000000000000, 0.000000000000000000, -1.000000000000000000 ) ) ;
#405 = EDGE_LOOP ( 'NONE', ( #378, #12, #38, #340 ) ) ;
#406 = LINE ( 'NONE', #142, #5 ) ;
#407 = COORDINATED_UNIVERSAL_TIME_OFFSET ( 1, 0, .AHEAD. ) ;
#408 = LINE ( 'NONE', #242, #144 ) ;
#409 = ORIENTED_EDGE ( 'NONE', *, *, #163, .T. ) ;
#410 = APPROVAL_DATE_TIME ( #3, #379 ) ;
#411 = LINE ( 'NONE', #304, #179 ) ;
#412 = ORIENTED_EDGE ( 'NONE', *, *, #281, .T. ) ;
#413 = DIRECTION ( 'NONE',  ( -1.000000000000000000, -0.000000000000000000, -0.000000000000000000 ) ) ;
#414 = CARTESIAN_POINT ( 'NONE',  ( -36.70332301863295754, 0.000000000000000000, 21.00000000000000000 ) ) ;
#415 = EDGE_CURVE ( 'NONE', #145, #288, #408, .T. ) ;
#416 = CC_DESIGN_PERSON_AND_ORGANIZATION_ASSIGNMENT ( #343, #307, ( #84 ) ) ;
#417 = CIRCLE ( 'NONE', #102, 15.00000000000000000 ) ;
#418 = CARTESIAN_POINT ( 'NONE',  ( -36.70332301863295754, 0.000000000000000000, 0.000000000000000000 ) ) ;
#419 = ORIENTED_EDGE ( 'NONE', *, *, #94, .F. ) ;
#420 = ORIENTED_EDGE ( 'NONE', *, *, #338, .T. ) ;
#421 = AXIS2_PLACEMENT_3D ( 'NONE', #393, #27, #99 ) ;
#422 = ORGANIZATION ( 'UNSPECIFIED', 'UNSPECIFIED', '' ) ;
#423 = ORIENTED_EDGE ( 'NONE', *, *, #415, .F. ) ;
#424 = DIRECTION ( 'NONE',  ( 0.000000000000000000, 0.000000000000000000, 1.000000000000000000 ) ) ;
#425 = FACE_BOUND ( 'NONE', #153, .T. ) ;
#426 = ADVANCED_FACE ( 'NONE', ( #52 ), #386, .T. ) ;
#427 = CARTESIAN_POINT ( 'NONE',  ( 1.249999999999994227, 2.326828918379970970E-15, -19.00000000000000000 ) ) ;
#428 = LOCAL_TIME ( 22, 28, 8.000000000000000000, #345 ) ;
#429 = DIRECTION ( 'NONE',  ( 0.000000000000000000, 0.000000000000000000, 1.000000000000000000 ) ) ;
ENDSEC;
END-ISO-10303-21;
