ISO-10303-21;
HEADER;
FILE_DESCRIPTION (( 'STEP AP203' ),
    '1' );
FILE_NAME ('3D_GR1244_33.7x2_188702220.STEP',
    '2024-10-14T11:26:28',
    ( '' ),
    ( '' ),
    'SwSTEP 2.0',
    'SolidWorks 2024',
    '' );
FILE_SCHEMA (( 'CONFIG_CONTROL_DESIGN' ));
ENDSEC;

DATA;
#1 = CARTESIAN_POINT ( 'NONE',  ( -8.110676647385524518, 15.00000000000000000, 0.000000000000000000 ) ) ;
#2 = CC_DESIGN_DATE_AND_TIME_ASSIGNMENT ( #63, #65, ( #231 ) ) ;
#3 = DIRECTION ( 'NONE',  ( -0.000000000000000000, -1.000000000000000000, -0.000000000000000000 ) ) ;
#4 = PRODUCT_DEFINITION_FORMATION_WITH_SPECIFIED_SOURCE ( 'ANY', '', #107, .NOT_KNOWN. ) ;
#5 = AXIS2_PLACEMENT_3D ( 'NONE', #216, #94, #21 ) ;
#6 = DIRECTION ( 'NONE',  ( -0.000000000000000000, -0.000000000000000000, -1.000000000000000000 ) ) ;
#7 = CARTESIAN_POINT ( 'NONE',  ( -8.110676647385524518, 15.00000000000000000, 0.000000000000000000 ) ) ;
#8 = LOCAL_TIME ( 13, 26, 28.00000000000000000, #86 ) ;
#9 = AXIS2_PLACEMENT_3D ( 'NONE', #123, #23, #99 ) ;
#10 = CIRCLE ( 'NONE', #171, 23.50000000000000000 ) ;
#11 = LOCAL_TIME ( 13, 26, 28.00000000000000000, #154 ) ;
#12 = APPROVAL_ROLE ( '' ) ;
#13 = VERTEX_POINT ( 'NONE', #87 ) ;
#14 = APPROVAL_ROLE ( '' ) ;
#15 = ORIENTED_EDGE ( 'NONE', *, *, #202, .F. ) ;
#16 = VERTEX_POINT ( 'NONE', #131 ) ;
#17 = FACE_OUTER_BOUND ( 'NONE', #90, .T. ) ;
#18 = EDGE_CURVE ( 'NONE', #174, #218, #71, .T. ) ;
#19 = DIRECTION ( 'NONE',  ( -0.000000000000000000, -1.000000000000000000, -0.000000000000000000 ) ) ;
#20 = APPROVAL_PERSON_ORGANIZATION ( #207, #166, #12 ) ;
#21 = DIRECTION ( 'NONE',  ( 0.000000000000000000, 0.000000000000000000, -1.000000000000000000 ) ) ;
#22 = ADVANCED_FACE ( 'NONE', ( #192, #112 ), #193, .F. ) ;
#23 = DIRECTION ( 'NONE',  ( -0.000000000000000000, -1.000000000000000000, -0.000000000000000000 ) ) ;
#24 = CLOSED_SHELL ( 'NONE', ( #146, #229, #96, #22, #200, #179 ) ) ;
#25 = DATE_AND_TIME ( #153, #42 ) ;
#26 = CIRCLE ( 'NONE', #211, 16.84999999999999787 ) ;
#27 = EDGE_CURVE ( 'NONE', #16, #212, #26, .T. ) ;
#28 = DIRECTION ( 'NONE',  ( 0.000000000000000000, 0.000000000000000000, -1.000000000000000000 ) ) ;
#29 = PERSON_AND_ORGANIZATION ( #170, #72 ) ;
#30 = ORIENTED_EDGE ( 'NONE', *, *, #61, .T. ) ;
#31 = ORIENTED_EDGE ( 'NONE', *, *, #57, .F. ) ;
#32 = ORIENTED_EDGE ( 'NONE', *, *, #27, .T. ) ;
#33 = LOCAL_TIME ( 13, 26, 28.00000000000000000, #85 ) ;
#34 = DIRECTION ( 'NONE',  ( -0.000000000000000000, -1.000000000000000000, -0.000000000000000000 ) ) ;
#35 = CIRCLE ( 'NONE', #151, 16.84999999999999432 ) ;
#36 = DIRECTION ( 'NONE',  ( -0.000000000000000000, -0.000000000000000000, -1.000000000000000000 ) ) ;
#37 = DIRECTION ( 'NONE',  ( 0.000000000000000000, 1.000000000000000000, 0.000000000000000000 ) ) ;
#38 = DIRECTION ( 'NONE',  ( -0.000000000000000000, 0.000000000000000000, 1.000000000000000000 ) ) ;
#39 = CC_DESIGN_PERSON_AND_ORGANIZATION_ASSIGNMENT ( #188, #187, ( #231 ) ) ;
#40 = CYLINDRICAL_SURFACE ( 'NONE', #9, 16.84999999999999787 ) ;
#41 = DESIGN_CONTEXT ( 'detailed design', #152, 'design' ) ;
#42 = LOCAL_TIME ( 13, 26, 28.00000000000000000, #113 ) ;
#43 = VECTOR ( 'NONE', #145, 1000.000000000000000 ) ;
#44 = SECURITY_CLASSIFICATION_LEVEL ( 'unclassified' ) ;
#45 = APPROVAL_STATUS ( 'not_yet_approved' ) ;
#46 = APPLICATION_PROTOCOL_DEFINITION ( 'international standard', 'config_control_design', 1994, #60 ) ;
#47 = AXIS2_PLACEMENT_3D ( 'NONE', #56, #38, #80 ) ;
#48 = ORIENTED_EDGE ( 'NONE', *, *, #18, .T. ) ;
#49 = APPROVAL_DATE_TIME ( #205, #78 ) ;
#50 = DIRECTION ( 'NONE',  ( 0.000000000000000000, 0.000000000000000000, 1.000000000000000000 ) ) ;
#51 = EDGE_LOOP ( 'NONE', ( #91, #69, #228 ) ) ;
#52 = DIRECTION ( 'NONE',  ( -0.000000000000000000, -1.000000000000000000, -0.000000000000000000 ) ) ;
#53 = CC_DESIGN_PERSON_AND_ORGANIZATION_ASSIGNMENT ( #108, #201, ( #4 ) ) ;
#54 = DIRECTION ( 'NONE',  ( -1.224646799147353207E-16, 0.000000000000000000, -1.000000000000000000 ) ) ;
#55 = PLANE ( 'NONE',  #186 ) ;
#56 = CARTESIAN_POINT ( 'NONE',  ( -8.110676647385524518, 14.25025764371072334, 0.000000000000000000 ) ) ;
#57 = EDGE_CURVE ( 'NONE', #129, #212, #77, .T. ) ;
#58 = CARTESIAN_POINT ( 'NONE',  ( -8.110676647385524518, 0.000000000000000000, 0.000000000000000000 ) ) ;
#59 = AXIS2_PLACEMENT_3D ( 'NONE', #58, #3, #181 ) ;
#60 = APPLICATION_CONTEXT ( 'configuration controlled 3d designs of mechanical parts and assemblies' ) ;
#61 = EDGE_CURVE ( 'NONE', #93, #129, #114, .T. ) ;
#62 = APPROVAL_STATUS ( 'not_yet_approved' ) ;
#63 = DATE_AND_TIME ( #105, #136 ) ;
#64 = EDGE_CURVE ( 'NONE', #13, #174, #10, .T. ) ;
#65 = DATE_TIME_ROLE ( 'classification_date' ) ;
#66 = PRODUCT_DEFINITION_SHAPE ( 'NONE', 'NONE',  #182 ) ;
#67 = APPLICATION_PROTOCOL_DEFINITION ( 'international standard', 'config_control_design', 1994, #152 ) ;
#68 = CIRCLE ( 'NONE', #118, 16.84999999999999787 ) ;
#69 = ORIENTED_EDGE ( 'NONE', *, *, #208, .T. ) ;
#70 = EDGE_LOOP ( 'NONE', ( #74, #142 ) ) ;
#71 = CIRCLE ( 'NONE', #103, 18.68636286407454250 ) ;
#72 = ORGANIZATION ( 'UNSPECIFIED', 'UNSPECIFIED', '' ) ;
#73 = ORIENTED_EDGE ( 'NONE', *, *, #75, .F. ) ;
#74 = ORIENTED_EDGE ( 'NONE', *, *, #213, .F. ) ;
#75 = EDGE_CURVE ( 'NONE', #218, #174, #161, .T. ) ;
#76 = DIRECTION ( 'NONE',  ( -0.000000000000000000, -1.000000000000000000, -0.000000000000000000 ) ) ;
#77 = LINE ( 'NONE', #147, #43 ) ;
#78 = APPROVAL ( #45, 'UNSPECIFIED' ) ;
#79 = DIRECTION ( 'NONE',  ( -1.000000000000000000, 0.000000000000000000, 0.000000000000000000 ) ) ;
#80 = DIRECTION ( 'NONE',  ( 1.000000000000000000, 0.000000000000000000, 0.000000000000000000 ) ) ;
#81 =( GEOMETRIC_REPRESENTATION_CONTEXT ( 3 ) GLOBAL_UNCERTAINTY_ASSIGNED_CONTEXT ( ( #100 ) ) GLOBAL_UNIT_ASSIGNED_CONTEXT ( ( #139, #106, #130 ) ) REPRESENTATION_CONTEXT ( 'NONE', 'WORKASPACE' ) );
#82 = CARTESIAN_POINT ( 'NONE',  ( -26.79703951146006702, 8.673617379884035472E-16, 0.000000000000000000 ) ) ;
#83 = CC_DESIGN_APPROVAL ( #166, ( #182 ) ) ;
#84 = PERSON_AND_ORGANIZATION ( #170, #72 ) ;
#85 = COORDINATED_UNIVERSAL_TIME_OFFSET ( 1, 0, .AHEAD. ) ;
#86 = COORDINATED_UNIVERSAL_TIME_OFFSET ( 1, 0, .AHEAD. ) ;
#87 = CARTESIAN_POINT ( 'NONE',  ( -8.110676647385526294, 37.75025764371072512, 0.000000000000000000 ) ) ;
#88 = SHAPE_DEFINITION_REPRESENTATION ( #66, #223 ) ;
#89 = AXIS2_PLACEMENT_3D ( 'NONE', #165, #6, #79 ) ;
#90 = EDGE_LOOP ( 'NONE', ( #194, #30 ) ) ;
#91 = ORIENTED_EDGE ( 'NONE', *, *, #64, .F. ) ;
#92 = ORIENTED_EDGE ( 'NONE', *, *, #176, .F. ) ;
#93 = VERTEX_POINT ( 'NONE', #163 ) ;
#94 = DIRECTION ( 'NONE',  ( -0.000000000000000000, -1.000000000000000000, -0.000000000000000000 ) ) ;
#95 = FACE_OUTER_BOUND ( 'NONE', #214, .T. ) ;
#96 = ADVANCED_FACE ( 'NONE', ( #95 ), #164, .F. ) ;
#97 = SPHERICAL_SURFACE ( 'NONE', #204, 23.50000000000000000 ) ;
#98 = FACE_OUTER_BOUND ( 'NONE', #51, .T. ) ;
#99 = DIRECTION ( 'NONE',  ( 0.000000000000000000, 0.000000000000000000, -1.000000000000000000 ) ) ;
#100 = UNCERTAINTY_MEASURE_WITH_UNIT (LENGTH_MEASURE( 1.000000000000000082E-05 ), #139, 'distance_accuracy_value', 'NONE');
#101 = MANIFOLD_SOLID_BREP ( 'Rotation1', #24 ) ;
#102 = CC_DESIGN_DATE_AND_TIME_ASSIGNMENT ( #25, #222, ( #182 ) ) ;
#103 = AXIS2_PLACEMENT_3D ( 'NONE', #209, #206, #28 ) ;
#104 = VECTOR ( 'NONE', #148, 1000.000000000000000 ) ;
#105 = CALENDAR_DATE ( 2024, 14, 10 ) ;
#106 =( NAMED_UNIT ( * ) PLANE_ANGLE_UNIT ( ) SI_UNIT ( $, .RADIAN. ) );
#107 = PRODUCT ( '3D_GR1244_33.7x2_188702220', '3D_GR1244_33.7x2_188702220', '', ( #227 ) ) ;
#108 = PERSON_AND_ORGANIZATION ( #170, #72 ) ;
#109 = ORIENTED_EDGE ( 'NONE', *, *, #61, .F. ) ;
#110 = CALENDAR_DATE ( 2024, 14, 10 ) ;
#111 = CC_DESIGN_PERSON_AND_ORGANIZATION_ASSIGNMENT ( #84, #172, ( #107 ) ) ;
#112 = FACE_OUTER_BOUND ( 'NONE', #115, .T. ) ;
#113 = COORDINATED_UNIVERSAL_TIME_OFFSET ( 1, 0, .AHEAD. ) ;
#114 = CIRCLE ( 'NONE', #5, 16.84999999999999432 ) ;
#115 = EDGE_LOOP ( 'NONE', ( #230, #48 ) ) ;
#116 = APPROVAL_PERSON_ORGANIZATION ( #138, #78, #14 ) ;
#117 = CARTESIAN_POINT ( 'NONE',  ( -8.110676647385524518, 15.00000000000000000, -16.84999999999999432 ) ) ;
#118 = AXIS2_PLACEMENT_3D ( 'NONE', #184, #52, #220 ) ;
#119 = CARTESIAN_POINT ( 'NONE',  ( 10.57568621668901798, 8.673617379884035472E-16, -2.288419446919485463E-15 ) ) ;
#120 = LINE ( 'NONE', #167, #104 ) ;
#121 = APPROVAL_PERSON_ORGANIZATION ( #126, #168, #137 ) ;
#122 = CARTESIAN_POINT ( 'NONE',  ( -24.96067664738551883, 15.00000000000000000, 0.000000000000000000 ) ) ;
#123 = CARTESIAN_POINT ( 'NONE',  ( -8.110676647385524518, 15.00000000000000000, 0.000000000000000000 ) ) ;
#124 = DATE_AND_TIME ( #110, #11 ) ;
#125 = CC_DESIGN_SECURITY_CLASSIFICATION ( #231, ( #4 ) ) ;
#126 = PERSON_AND_ORGANIZATION ( #170, #72 ) ;
#127 = EDGE_LOOP ( 'NONE', ( #109, #162, #32, #31 ) ) ;
#128 = CALENDAR_DATE ( 2024, 14, 10 ) ;
#129 = VERTEX_POINT ( 'NONE', #117 ) ;
#130 =( NAMED_UNIT ( * ) SI_UNIT ( $, .STERADIAN. ) SOLID_ANGLE_UNIT ( ) );
#131 = CARTESIAN_POINT ( 'NONE',  ( -8.110676647385522742, 0.000000000000000000, 16.84999999999999787 ) ) ;
#132 = CARTESIAN_POINT ( 'NONE',  ( -8.110676647385524518, 14.25025764371072334, 0.000000000000000000 ) ) ;
#133 = DIRECTION ( 'NONE',  ( 0.000000000000000000, 0.000000000000000000, -1.000000000000000000 ) ) ;
#134 = DIRECTION ( 'NONE',  ( 0.000000000000000000, -0.000000000000000000, 1.000000000000000000 ) ) ;
#135 = FACE_OUTER_BOUND ( 'NONE', #178, .T. ) ;
#136 = LOCAL_TIME ( 13, 26, 28.00000000000000000, #224 ) ;
#137 = APPROVAL_ROLE ( '' ) ;
#138 = PERSON_AND_ORGANIZATION ( #170, #72 ) ;
#139 =( LENGTH_UNIT ( ) NAMED_UNIT ( * ) SI_UNIT ( .MILLI., .METRE. ) );
#140 = PERSON_AND_ORGANIZATION_ROLE ( 'creator' ) ;
#141 = AXIS2_PLACEMENT_3D ( 'NONE', #1, #34, #133 ) ;
#142 = ORIENTED_EDGE ( 'NONE', *, *, #27, .F. ) ;
#143 = ORIENTED_EDGE ( 'NONE', *, *, #208, .F. ) ;
#144 = CARTESIAN_POINT ( 'NONE',  ( -26.79703951146006702, 0.000000000000000000, 0.000000000000000000 ) ) ;
#145 = DIRECTION ( 'NONE',  ( -0.000000000000000000, -1.000000000000000000, -0.000000000000000000 ) ) ;
#146 = ADVANCED_FACE ( 'NONE', ( #135 ), #97, .T. ) ;
#147 = CARTESIAN_POINT ( 'NONE',  ( -8.110676647385524518, 15.00000000000000000, -16.84999999999999787 ) ) ;
#148 = DIRECTION ( 'NONE',  ( -0.000000000000000000, -1.000000000000000000, -0.000000000000000000 ) ) ;
#149 = ORIENTED_EDGE ( 'NONE', *, *, #57, .T. ) ;
#150 = CARTESIAN_POINT ( 'NONE',  ( -8.110676647385524518, 0.000000000000000000, -16.84999999999999787 ) ) ;
#151 = AXIS2_PLACEMENT_3D ( 'NONE', #7, #19, #180 ) ;
#152 = APPLICATION_CONTEXT ( 'configuration controlled 3d designs of mechanical parts and assemblies' ) ;
#153 = CALENDAR_DATE ( 2024, 14, 10 ) ;
#154 = COORDINATED_UNIVERSAL_TIME_OFFSET ( 1, 0, .AHEAD. ) ;
#155 = DATE_AND_TIME ( #128, #33 ) ;
#156 = CALENDAR_DATE ( 2024, 14, 10 ) ;
#157 = ORIENTED_EDGE ( 'NONE', *, *, #64, .T. ) ;
#158 = AXIS2_PLACEMENT_3D ( 'NONE', #203, #50, #177 ) ;
#159 = ORIENTED_EDGE ( 'NONE', *, *, #213, .T. ) ;
#160 = CC_DESIGN_PERSON_AND_ORGANIZATION_ASSIGNMENT ( #173, #225, ( #4 ) ) ;
#161 = CIRCLE ( 'NONE', #59, 18.68636286407454250 ) ;
#162 = ORIENTED_EDGE ( 'NONE', *, *, #202, .T. ) ;
#163 = CARTESIAN_POINT ( 'NONE',  ( -8.110676647385522742, 15.00000000000000000, 16.84999999999999432 ) ) ;
#164 = CYLINDRICAL_SURFACE ( 'NONE', #141, 16.84999999999999787 ) ;
#165 = CARTESIAN_POINT ( 'NONE',  ( -8.110676647385524518, 14.25025764371072334, 0.000000000000000000 ) ) ;
#166 = APPROVAL ( #62, 'UNSPECIFIED' ) ;
#167 = CARTESIAN_POINT ( 'NONE',  ( -8.110676647385522742, 15.00000000000000000, 16.84999999999999787 ) ) ;
#168 = APPROVAL ( #190, 'UNSPECIFIED' ) ;
#169 = DIRECTION ( 'NONE',  ( 0.000000000000000000, 0.000000000000000000, -1.000000000000000000 ) ) ;
#170 = PERSON ( 'UNSPECIFIED', 'UNSPECIFIED', 'UNSPECIFIED', ('UNSPECIFIED'), ('UNSPECIFIED'), ('UNSPECIFIED') ) ;
#171 = AXIS2_PLACEMENT_3D ( 'NONE', #132, #54, #183 ) ;
#172 = PERSON_AND_ORGANIZATION_ROLE ( 'design_owner' ) ;
#173 = PERSON_AND_ORGANIZATION ( #170, #72 ) ;
#174 = VERTEX_POINT ( 'NONE', #119 ) ;
#175 = APPROVAL_DATE_TIME ( #124, #168 ) ;
#176 = EDGE_CURVE ( 'NONE', #129, #93, #35, .T. ) ;
#177 = DIRECTION ( 'NONE',  ( 1.000000000000000000, 0.000000000000000000, 0.000000000000000000 ) ) ;
#178 = EDGE_LOOP ( 'NONE', ( #143, #157, #73 ) ) ;
#179 = ADVANCED_FACE ( 'NONE', ( #17 ), #55, .F. ) ;
#180 = DIRECTION ( 'NONE',  ( 0.000000000000000000, 0.000000000000000000, -1.000000000000000000 ) ) ;
#181 = DIRECTION ( 'NONE',  ( 0.000000000000000000, 0.000000000000000000, -1.000000000000000000 ) ) ;
#182 = PRODUCT_DEFINITION ( 'UNKNOWN', '', #4, #41 ) ;
#183 = DIRECTION ( 'NONE',  ( -1.000000000000000000, 0.000000000000000000, 1.224646799147353207E-16 ) ) ;
#184 = CARTESIAN_POINT ( 'NONE',  ( -8.110676647385524518, 0.000000000000000000, 0.000000000000000000 ) ) ;
#185 = AXIS2_PLACEMENT_3D ( 'NONE', #144, #210, #134 ) ;
#186 = AXIS2_PLACEMENT_3D ( 'NONE', #122, #37, #197 ) ;
#187 = PERSON_AND_ORGANIZATION_ROLE ( 'classification_officer' ) ;
#188 = PERSON_AND_ORGANIZATION ( #170, #72 ) ;
#189 = APPROVAL_DATE_TIME ( #155, #166 ) ;
#190 = APPROVAL_STATUS ( 'not_yet_approved' ) ;
#191 = PRODUCT_RELATED_PRODUCT_CATEGORY ( 'detail', '', ( #107 ) ) ;
#192 = FACE_BOUND ( 'NONE', #70, .T. ) ;
#193 = PLANE ( 'NONE',  #185 ) ;
#194 = ORIENTED_EDGE ( 'NONE', *, *, #176, .T. ) ;
#195 = CARTESIAN_POINT ( 'NONE',  ( -8.110676647385524518, 0.000000000000000000, 0.000000000000000000 ) ) ;
#196 = CARTESIAN_POINT ( 'NONE',  ( -8.110676647385524518, 14.25025764371072334, 0.000000000000000000 ) ) ;
#197 = DIRECTION ( 'NONE',  ( 0.000000000000000000, -0.000000000000000000, 1.000000000000000000 ) ) ;
#198 = CC_DESIGN_APPROVAL ( #168, ( #4 ) ) ;
#199 = FACE_OUTER_BOUND ( 'NONE', #127, .T. ) ;
#200 = ADVANCED_FACE ( 'NONE', ( #98 ), #215, .T. ) ;
#201 = PERSON_AND_ORGANIZATION_ROLE ( 'creator' ) ;
#202 = EDGE_CURVE ( 'NONE', #93, #16, #120, .T. ) ;
#203 = CARTESIAN_POINT ( 'NONE',  ( 0.000000000000000000, 0.000000000000000000, 0.000000000000000000 ) ) ;
#204 = AXIS2_PLACEMENT_3D ( 'NONE', #196, #36, #217 ) ;
#205 = DATE_AND_TIME ( #156, #8 ) ;
#206 = DIRECTION ( 'NONE',  ( -0.000000000000000000, -1.000000000000000000, -0.000000000000000000 ) ) ;
#207 = PERSON_AND_ORGANIZATION ( #170, #72 ) ;
#208 = EDGE_CURVE ( 'NONE', #13, #218, #226, .T. ) ;
#209 = CARTESIAN_POINT ( 'NONE',  ( -8.110676647385524518, 0.000000000000000000, 0.000000000000000000 ) ) ;
#210 = DIRECTION ( 'NONE',  ( 0.000000000000000000, 1.000000000000000000, 0.000000000000000000 ) ) ;
#211 = AXIS2_PLACEMENT_3D ( 'NONE', #195, #76, #169 ) ;
#212 = VERTEX_POINT ( 'NONE', #150 ) ;
#213 = EDGE_CURVE ( 'NONE', #212, #16, #68, .T. ) ;
#214 = EDGE_LOOP ( 'NONE', ( #15, #92, #149, #159 ) ) ;
#215 = SPHERICAL_SURFACE ( 'NONE', #89, 23.50000000000000000 ) ;
#216 = CARTESIAN_POINT ( 'NONE',  ( -8.110676647385524518, 15.00000000000000000, 0.000000000000000000 ) ) ;
#217 = DIRECTION ( 'NONE',  ( -1.000000000000000000, 0.000000000000000000, 0.000000000000000000 ) ) ;
#218 = VERTEX_POINT ( 'NONE', #82 ) ;
#219 = CC_DESIGN_APPROVAL ( #78, ( #231 ) ) ;
#220 = DIRECTION ( 'NONE',  ( 0.000000000000000000, 0.000000000000000000, -1.000000000000000000 ) ) ;
#221 = CC_DESIGN_PERSON_AND_ORGANIZATION_ASSIGNMENT ( #29, #140, ( #182 ) ) ;
#222 = DATE_TIME_ROLE ( 'creation_date' ) ;
#223 = ADVANCED_BREP_SHAPE_REPRESENTATION ( '3D_GR1244_33.7x2_188702220', ( #101, #158 ), #81 ) ;
#224 = COORDINATED_UNIVERSAL_TIME_OFFSET ( 1, 0, .AHEAD. ) ;
#225 = PERSON_AND_ORGANIZATION_ROLE ( 'design_supplier' ) ;
#226 = CIRCLE ( 'NONE', #47, 23.50000000000000000 ) ;
#227 = MECHANICAL_CONTEXT ( 'NONE', #60, 'mechanical' ) ;
#228 = ORIENTED_EDGE ( 'NONE', *, *, #18, .F. ) ;
#229 = ADVANCED_FACE ( 'NONE', ( #199 ), #40, .F. ) ;
#230 = ORIENTED_EDGE ( 'NONE', *, *, #75, .T. ) ;
#231 = SECURITY_CLASSIFICATION ( '', '', #44 ) ;
ENDSEC;
END-ISO-10303-21;
