ISO-10303-21;
HEADER;
/* Generated by software containing ST-Developer
 * from STEP Tools, Inc. (www.steptools.com) 
 */

FILE_DESCRIPTION(
/* description */ ('T_6x1-6x1-Version 01'),
/* implementation_level */ '2;1');

FILE_NAME(
/* name */ 
'L:\\Normteile\\N0010 - T-Stueck\\N0010_001 - T-Stueck mit Abzweigrohr
\\N0010_001_001 - WWW - 90\X\B0\\N0010_001_001_001 - DW(BMT)\\T_6x1_6x
1_L60_l30_V01.ipt.stp',
/* time_stamp */ '2020-11-25T14:29:55+01:00',
/* author */ ('ahenning'),
/* organization */ ('Dockweiler AG '),
/* preprocessor_version */ 'ST-DEVELOPER v18.1',
/* originating_system */ 'Autodesk Inventor 2020',
/* authorisation */ '');

FILE_SCHEMA (('AUTOMOTIVE_DESIGN { 1 0 10303 214 3 1 1 }'));
ENDSEC;

DATA;
#10=MECHANICAL_DESIGN_GEOMETRIC_PRESENTATION_REPRESENTATION('',(#13,#14),
#403);
#11=SHAPE_REPRESENTATION_RELATIONSHIP('SRR','None',#410,#12);
#12=ADVANCED_BREP_SHAPE_REPRESENTATION('',(#15,#16),#402);
#13=STYLED_ITEM('',(#419),#15);
#14=STYLED_ITEM('',(#419),#16);
#15=MANIFOLD_SOLID_BREP('Durchgang_gebohrt',#215);
#16=MANIFOLD_SOLID_BREP('Abzweig_gebohrt1',#216);
#17=FACE_BOUND('',#60,.T.);
#18=FACE_BOUND('',#65,.T.);
#19=FACE_BOUND('',#67,.T.);
#20=FACE_BOUND('',#71,.T.);
#21=FACE_BOUND('',#73,.T.);
#22=LINE('',#356,#31);
#23=LINE('',#357,#32);
#24=LINE('',#362,#33);
#25=LINE('',#373,#34);
#26=LINE('',#375,#35);
#27=LINE('',#380,#36);
#28=LINE('',#382,#37);
#29=LINE('',#390,#38);
#30=LINE('',#396,#39);
#31=VECTOR('',#287,10.);
#32=VECTOR('',#288,10.);
#33=VECTOR('',#293,2.);
#34=VECTOR('',#306,2.);
#35=VECTOR('',#307,2.);
#36=VECTOR('',#314,3.);
#37=VECTOR('',#315,3.);
#38=VECTOR('',#326,2.);
#39=VECTOR('',#333,3.);
#40=PLANE('',#244);
#41=PLANE('',#257);
#42=PLANE('',#258);
#43=PLANE('',#265);
#44=PLANE('',#266);
#45=FACE_OUTER_BOUND('',#57,.T.);
#46=FACE_OUTER_BOUND('',#58,.T.);
#47=FACE_OUTER_BOUND('',#59,.T.);
#48=FACE_OUTER_BOUND('',#61,.T.);
#49=FACE_OUTER_BOUND('',#62,.T.);
#50=FACE_OUTER_BOUND('',#63,.T.);
#51=FACE_OUTER_BOUND('',#64,.T.);
#52=FACE_OUTER_BOUND('',#66,.T.);
#53=FACE_OUTER_BOUND('',#68,.T.);
#54=FACE_OUTER_BOUND('',#69,.T.);
#55=FACE_OUTER_BOUND('',#70,.T.);
#56=FACE_OUTER_BOUND('',#72,.T.);
#57=EDGE_LOOP('',(#140,#141,#142));
#58=EDGE_LOOP('',(#143,#144,#145));
#59=EDGE_LOOP('',(#146,#147,#148,#149));
#60=EDGE_LOOP('',(#150));
#61=EDGE_LOOP('',(#151,#152,#153,#154,#155,#156,#157));
#62=EDGE_LOOP('',(#158,#159,#160,#161,#162,#163,#164,#165,#166,#167));
#63=EDGE_LOOP('',(#168,#169,#170,#171,#172,#173,#174,#175,#176,#177,#178,
#179));
#64=EDGE_LOOP('',(#180));
#65=EDGE_LOOP('',(#181));
#66=EDGE_LOOP('',(#182));
#67=EDGE_LOOP('',(#183));
#68=EDGE_LOOP('',(#184,#185,#186,#187));
#69=EDGE_LOOP('',(#188,#189,#190,#191));
#70=EDGE_LOOP('',(#192));
#71=EDGE_LOOP('',(#193));
#72=EDGE_LOOP('',(#194));
#73=EDGE_LOOP('',(#195));
#74=CIRCLE('',#238,3.);
#75=CIRCLE('',#242,3.);
#76=CIRCLE('',#245,2.);
#77=CIRCLE('',#252,2.);
#78=CIRCLE('',#253,2.);
#79=CIRCLE('',#255,3.);
#80=CIRCLE('',#256,3.);
#81=CIRCLE('',#260,2.);
#82=CIRCLE('',#261,2.);
#83=CIRCLE('',#263,3.);
#84=CIRCLE('',#264,3.);
#85=ELLIPSE('',#237,4.24264068711929,3.);
#86=ELLIPSE('',#239,4.24264068711929,3.);
#87=ELLIPSE('',#241,4.24264068711929,3.);
#88=ELLIPSE('',#243,4.24264068711929,3.);
#89=ELLIPSE('',#247,2.82842712474619,2.);
#90=ELLIPSE('',#248,2.82842712474619,2.);
#91=ELLIPSE('',#249,2.82842712474619,2.);
#92=ELLIPSE('',#250,2.82842712474619,2.);
#93=VERTEX_POINT('',#342);
#94=VERTEX_POINT('',#343);
#95=VERTEX_POINT('',#345);
#96=VERTEX_POINT('',#349);
#97=VERTEX_POINT('',#350);
#98=VERTEX_POINT('',#352);
#99=VERTEX_POINT('',#358);
#100=VERTEX_POINT('',#361);
#101=VERTEX_POINT('',#363);
#102=VERTEX_POINT('',#365);
#103=VERTEX_POINT('',#367);
#104=VERTEX_POINT('',#371);
#105=VERTEX_POINT('',#374);
#106=VERTEX_POINT('',#378);
#107=VERTEX_POINT('',#381);
#108=VERTEX_POINT('',#387);
#109=VERTEX_POINT('',#389);
#110=VERTEX_POINT('',#393);
#111=VERTEX_POINT('',#395);
#112=EDGE_CURVE('',#93,#94,#85,.T.);
#113=EDGE_CURVE('',#93,#95,#74,.T.);
#114=EDGE_CURVE('',#94,#95,#86,.T.);
#115=EDGE_CURVE('',#96,#97,#87,.T.);
#116=EDGE_CURVE('',#96,#98,#75,.T.);
#117=EDGE_CURVE('',#97,#98,#88,.T.);
#118=EDGE_CURVE('',#95,#96,#22,.T.);
#119=EDGE_CURVE('',#98,#93,#23,.T.);
#120=EDGE_CURVE('',#99,#99,#76,.T.);
#121=EDGE_CURVE('',#99,#100,#24,.T.);
#122=EDGE_CURVE('',#101,#100,#89,.T.);
#123=EDGE_CURVE('',#102,#101,#90,.T.);
#124=EDGE_CURVE('',#103,#102,#91,.T.);
#125=EDGE_CURVE('',#100,#103,#92,.T.);
#126=EDGE_CURVE('',#104,#104,#77,.T.);
#127=EDGE_CURVE('',#104,#100,#25,.T.);
#128=EDGE_CURVE('',#102,#105,#26,.T.);
#129=EDGE_CURVE('',#105,#105,#78,.T.);
#130=EDGE_CURVE('',#106,#106,#79,.T.);
#131=EDGE_CURVE('',#106,#94,#27,.T.);
#132=EDGE_CURVE('',#97,#107,#28,.T.);
#133=EDGE_CURVE('',#107,#107,#80,.T.);
#134=EDGE_CURVE('',#108,#108,#81,.T.);
#135=EDGE_CURVE('',#108,#109,#29,.T.);
#136=EDGE_CURVE('',#109,#109,#82,.T.);
#137=EDGE_CURVE('',#110,#110,#83,.T.);
#138=EDGE_CURVE('',#110,#111,#30,.T.);
#139=EDGE_CURVE('',#111,#111,#84,.T.);
#140=ORIENTED_EDGE('',*,*,#112,.F.);
#141=ORIENTED_EDGE('',*,*,#113,.T.);
#142=ORIENTED_EDGE('',*,*,#114,.F.);
#143=ORIENTED_EDGE('',*,*,#115,.F.);
#144=ORIENTED_EDGE('',*,*,#116,.T.);
#145=ORIENTED_EDGE('',*,*,#117,.F.);
#146=ORIENTED_EDGE('',*,*,#118,.F.);
#147=ORIENTED_EDGE('',*,*,#113,.F.);
#148=ORIENTED_EDGE('',*,*,#119,.F.);
#149=ORIENTED_EDGE('',*,*,#116,.F.);
#150=ORIENTED_EDGE('',*,*,#120,.F.);
#151=ORIENTED_EDGE('',*,*,#120,.T.);
#152=ORIENTED_EDGE('',*,*,#121,.T.);
#153=ORIENTED_EDGE('',*,*,#122,.F.);
#154=ORIENTED_EDGE('',*,*,#123,.F.);
#155=ORIENTED_EDGE('',*,*,#124,.F.);
#156=ORIENTED_EDGE('',*,*,#125,.F.);
#157=ORIENTED_EDGE('',*,*,#121,.F.);
#158=ORIENTED_EDGE('',*,*,#126,.F.);
#159=ORIENTED_EDGE('',*,*,#127,.T.);
#160=ORIENTED_EDGE('',*,*,#125,.T.);
#161=ORIENTED_EDGE('',*,*,#124,.T.);
#162=ORIENTED_EDGE('',*,*,#128,.T.);
#163=ORIENTED_EDGE('',*,*,#129,.T.);
#164=ORIENTED_EDGE('',*,*,#128,.F.);
#165=ORIENTED_EDGE('',*,*,#123,.T.);
#166=ORIENTED_EDGE('',*,*,#122,.T.);
#167=ORIENTED_EDGE('',*,*,#127,.F.);
#168=ORIENTED_EDGE('',*,*,#130,.T.);
#169=ORIENTED_EDGE('',*,*,#131,.T.);
#170=ORIENTED_EDGE('',*,*,#114,.T.);
#171=ORIENTED_EDGE('',*,*,#118,.T.);
#172=ORIENTED_EDGE('',*,*,#115,.T.);
#173=ORIENTED_EDGE('',*,*,#132,.T.);
#174=ORIENTED_EDGE('',*,*,#133,.F.);
#175=ORIENTED_EDGE('',*,*,#132,.F.);
#176=ORIENTED_EDGE('',*,*,#117,.T.);
#177=ORIENTED_EDGE('',*,*,#119,.T.);
#178=ORIENTED_EDGE('',*,*,#112,.T.);
#179=ORIENTED_EDGE('',*,*,#131,.F.);
#180=ORIENTED_EDGE('',*,*,#133,.T.);
#181=ORIENTED_EDGE('',*,*,#126,.T.);
#182=ORIENTED_EDGE('',*,*,#130,.F.);
#183=ORIENTED_EDGE('',*,*,#129,.F.);
#184=ORIENTED_EDGE('',*,*,#134,.F.);
#185=ORIENTED_EDGE('',*,*,#135,.T.);
#186=ORIENTED_EDGE('',*,*,#136,.F.);
#187=ORIENTED_EDGE('',*,*,#135,.F.);
#188=ORIENTED_EDGE('',*,*,#137,.F.);
#189=ORIENTED_EDGE('',*,*,#138,.T.);
#190=ORIENTED_EDGE('',*,*,#139,.T.);
#191=ORIENTED_EDGE('',*,*,#138,.F.);
#192=ORIENTED_EDGE('',*,*,#139,.F.);
#193=ORIENTED_EDGE('',*,*,#134,.T.);
#194=ORIENTED_EDGE('',*,*,#137,.T.);
#195=ORIENTED_EDGE('',*,*,#136,.T.);
#196=CYLINDRICAL_SURFACE('',#236,3.);
#197=CYLINDRICAL_SURFACE('',#240,3.);
#198=CYLINDRICAL_SURFACE('',#246,2.);
#199=CYLINDRICAL_SURFACE('',#251,2.);
#200=CYLINDRICAL_SURFACE('',#254,3.);
#201=CYLINDRICAL_SURFACE('',#259,2.);
#202=CYLINDRICAL_SURFACE('',#262,3.);
#203=ADVANCED_FACE('',(#45),#196,.F.);
#204=ADVANCED_FACE('',(#46),#197,.F.);
#205=ADVANCED_FACE('',(#47,#17),#40,.T.);
#206=ADVANCED_FACE('',(#48),#198,.F.);
#207=ADVANCED_FACE('',(#49),#199,.F.);
#208=ADVANCED_FACE('',(#50),#200,.T.);
#209=ADVANCED_FACE('',(#51,#18),#41,.T.);
#210=ADVANCED_FACE('',(#52,#19),#42,.T.);
#211=ADVANCED_FACE('',(#53),#201,.F.);
#212=ADVANCED_FACE('',(#54),#202,.T.);
#213=ADVANCED_FACE('',(#55,#20),#43,.F.);
#214=ADVANCED_FACE('',(#56,#21),#44,.F.);
#215=CLOSED_SHELL('',(#203,#204,#205,#206,#207,#208,#209,#210));
#216=CLOSED_SHELL('',(#211,#212,#213,#214));
#217=DERIVED_UNIT_ELEMENT(#219,1.);
#218=DERIVED_UNIT_ELEMENT(#405,3.);
#219=(
MASS_UNIT()
NAMED_UNIT(*)
SI_UNIT($,.GRAM.)
);
#220=DERIVED_UNIT((#217,#218));
#221=MEASURE_REPRESENTATION_ITEM('density measure',
POSITIVE_RATIO_MEASURE(8.03),#220);
#222=PROPERTY_DEFINITION_REPRESENTATION(#227,#224);
#223=PROPERTY_DEFINITION_REPRESENTATION(#228,#225);
#224=REPRESENTATION('material name',(#226),#402);
#225=REPRESENTATION('density',(#221),#402);
#226=DESCRIPTIVE_REPRESENTATION_ITEM('1.4435','1.4435');
#227=PROPERTY_DEFINITION('material property','material name',#412);
#228=PROPERTY_DEFINITION('material property','density of part',#412);
#229=DATE_TIME_ROLE('creation_date');
#230=APPLIED_DATE_AND_TIME_ASSIGNMENT(#231,#229,(#412));
#231=DATE_AND_TIME(#232,#233);
#232=CALENDAR_DATE(2013,10,6);
#233=LOCAL_TIME(11,46,50.,#234);
#234=COORDINATED_UNIVERSAL_TIME_OFFSET(0,0,.BEHIND.);
#235=AXIS2_PLACEMENT_3D('placement',#340,#267,#268);
#236=AXIS2_PLACEMENT_3D('',#341,#269,#270);
#237=AXIS2_PLACEMENT_3D('',#344,#271,#272);
#238=AXIS2_PLACEMENT_3D('',#346,#273,#274);
#239=AXIS2_PLACEMENT_3D('',#347,#275,#276);
#240=AXIS2_PLACEMENT_3D('',#348,#277,#278);
#241=AXIS2_PLACEMENT_3D('',#351,#279,#280);
#242=AXIS2_PLACEMENT_3D('',#353,#281,#282);
#243=AXIS2_PLACEMENT_3D('',#354,#283,#284);
#244=AXIS2_PLACEMENT_3D('',#355,#285,#286);
#245=AXIS2_PLACEMENT_3D('',#359,#289,#290);
#246=AXIS2_PLACEMENT_3D('',#360,#291,#292);
#247=AXIS2_PLACEMENT_3D('',#364,#294,#295);
#248=AXIS2_PLACEMENT_3D('',#366,#296,#297);
#249=AXIS2_PLACEMENT_3D('',#368,#298,#299);
#250=AXIS2_PLACEMENT_3D('',#369,#300,#301);
#251=AXIS2_PLACEMENT_3D('',#370,#302,#303);
#252=AXIS2_PLACEMENT_3D('',#372,#304,#305);
#253=AXIS2_PLACEMENT_3D('',#376,#308,#309);
#254=AXIS2_PLACEMENT_3D('',#377,#310,#311);
#255=AXIS2_PLACEMENT_3D('',#379,#312,#313);
#256=AXIS2_PLACEMENT_3D('',#383,#316,#317);
#257=AXIS2_PLACEMENT_3D('',#384,#318,#319);
#258=AXIS2_PLACEMENT_3D('',#385,#320,#321);
#259=AXIS2_PLACEMENT_3D('',#386,#322,#323);
#260=AXIS2_PLACEMENT_3D('',#388,#324,#325);
#261=AXIS2_PLACEMENT_3D('',#391,#327,#328);
#262=AXIS2_PLACEMENT_3D('',#392,#329,#330);
#263=AXIS2_PLACEMENT_3D('',#394,#331,#332);
#264=AXIS2_PLACEMENT_3D('',#397,#334,#335);
#265=AXIS2_PLACEMENT_3D('',#398,#336,#337);
#266=AXIS2_PLACEMENT_3D('',#399,#338,#339);
#267=DIRECTION('axis',(0.,0.,1.));
#268=DIRECTION('refdir',(1.,0.,0.));
#269=DIRECTION('center_axis',(0.,-1.,0.));
#270=DIRECTION('ref_axis',(1.,0.,0.));
#271=DIRECTION('center_axis',(0.707106781186548,-0.707106781186548,0.));
#272=DIRECTION('ref_axis',(0.707106781186548,0.707106781186548,0.));
#273=DIRECTION('center_axis',(0.,-1.,0.));
#274=DIRECTION('ref_axis',(1.,0.,0.));
#275=DIRECTION('center_axis',(0.707106781186548,-0.707106781186548,0.));
#276=DIRECTION('ref_axis',(0.707106781186548,0.707106781186548,0.));
#277=DIRECTION('center_axis',(0.,-1.,0.));
#278=DIRECTION('ref_axis',(-1.,0.,-1.22464679914735E-16));
#279=DIRECTION('center_axis',(-0.707106781186548,-0.707106781186548,0.));
#280=DIRECTION('ref_axis',(0.707106781186548,-0.707106781186548,0.));
#281=DIRECTION('center_axis',(0.,-1.,0.));
#282=DIRECTION('ref_axis',(1.,0.,0.));
#283=DIRECTION('center_axis',(-0.707106781186548,-0.707106781186548,0.));
#284=DIRECTION('ref_axis',(0.707106781186548,-0.707106781186548,0.));
#285=DIRECTION('center_axis',(0.,1.,0.));
#286=DIRECTION('ref_axis',(0.,0.,1.));
#287=DIRECTION('',(-1.,0.,0.));
#288=DIRECTION('',(1.,0.,0.));
#289=DIRECTION('center_axis',(0.,1.,0.));
#290=DIRECTION('ref_axis',(1.,0.,0.));
#291=DIRECTION('center_axis',(0.,-1.,0.));
#292=DIRECTION('ref_axis',(1.,0.,0.));
#293=DIRECTION('',(0.,-1.,0.));
#294=DIRECTION('center_axis',(0.707106781186548,0.707106781186548,0.));
#295=DIRECTION('ref_axis',(0.707106781186548,-0.707106781186548,0.));
#296=DIRECTION('center_axis',(-0.707106781186548,0.707106781186548,0.));
#297=DIRECTION('ref_axis',(0.707106781186548,0.707106781186548,0.));
#298=DIRECTION('center_axis',(-0.707106781186548,0.707106781186548,0.));
#299=DIRECTION('ref_axis',(0.707106781186548,0.707106781186548,0.));
#300=DIRECTION('center_axis',(0.707106781186548,0.707106781186548,0.));
#301=DIRECTION('ref_axis',(0.707106781186548,-0.707106781186548,0.));
#302=DIRECTION('center_axis',(1.,0.,0.));
#303=DIRECTION('ref_axis',(0.,-1.,0.));
#304=DIRECTION('center_axis',(1.,0.,0.));
#305=DIRECTION('ref_axis',(0.,-1.,0.));
#306=DIRECTION('',(1.,0.,0.));
#307=DIRECTION('',(1.,0.,0.));
#308=DIRECTION('center_axis',(1.,0.,0.));
#309=DIRECTION('ref_axis',(0.,-1.,0.));
#310=DIRECTION('center_axis',(1.,0.,0.));
#311=DIRECTION('ref_axis',(0.,-1.,0.));
#312=DIRECTION('center_axis',(-1.,0.,0.));
#313=DIRECTION('ref_axis',(0.,-1.,0.));
#314=DIRECTION('',(-1.,0.,0.));
#315=DIRECTION('',(-1.,0.,0.));
#316=DIRECTION('center_axis',(-1.,0.,0.));
#317=DIRECTION('ref_axis',(0.,-1.,0.));
#318=DIRECTION('center_axis',(-1.,0.,0.));
#319=DIRECTION('ref_axis',(0.,0.,1.));
#320=DIRECTION('center_axis',(1.,0.,0.));
#321=DIRECTION('ref_axis',(0.,0.,-1.));
#322=DIRECTION('center_axis',(0.,-1.,0.));
#323=DIRECTION('ref_axis',(1.,0.,0.));
#324=DIRECTION('center_axis',(0.,-1.,0.));
#325=DIRECTION('ref_axis',(1.,0.,0.));
#326=DIRECTION('',(0.,-1.,0.));
#327=DIRECTION('center_axis',(0.,1.,0.));
#328=DIRECTION('ref_axis',(1.,0.,0.));
#329=DIRECTION('center_axis',(0.,-1.,0.));
#330=DIRECTION('ref_axis',(1.,0.,0.));
#331=DIRECTION('center_axis',(0.,-1.,0.));
#332=DIRECTION('ref_axis',(1.,0.,0.));
#333=DIRECTION('',(0.,1.,0.));
#334=DIRECTION('center_axis',(0.,-1.,0.));
#335=DIRECTION('ref_axis',(1.,0.,0.));
#336=DIRECTION('center_axis',(0.,-1.,0.));
#337=DIRECTION('ref_axis',(0.,0.,-1.));
#338=DIRECTION('center_axis',(0.,1.,0.));
#339=DIRECTION('ref_axis',(0.,0.,1.));
#340=CARTESIAN_POINT('',(0.,0.,0.));
#341=CARTESIAN_POINT('Origin',(30.,30.,0.));
#342=CARTESIAN_POINT('',(32.05,2.04999999999999,-2.19031961138096));
#343=CARTESIAN_POINT('',(33.,3.,3.67394039744206E-16));
#344=CARTESIAN_POINT('Origin',(30.,0.,0.));
#345=CARTESIAN_POINT('',(32.05,2.04999999999999,2.19031961138096));
#346=CARTESIAN_POINT('Origin',(30.,2.04999999999999,0.));
#347=CARTESIAN_POINT('Origin',(30.,0.,0.));
#348=CARTESIAN_POINT('Origin',(30.,30.,0.));
#349=CARTESIAN_POINT('',(27.95,2.04999999999999,2.19031961138096));
#350=CARTESIAN_POINT('',(27.,3.,3.67394039744207E-16));
#351=CARTESIAN_POINT('Origin',(30.,0.,0.));
#352=CARTESIAN_POINT('',(27.95,2.04999999999999,-2.19031961138096));
#353=CARTESIAN_POINT('Origin',(30.,2.04999999999999,0.));
#354=CARTESIAN_POINT('Origin',(30.,0.,0.));
#355=CARTESIAN_POINT('Origin',(30.,2.04999999999999,0.));
#356=CARTESIAN_POINT('',(0.,2.04999999999999,2.19031961138096));
#357=CARTESIAN_POINT('',(0.,2.04999999999999,-2.19031961138096));
#358=CARTESIAN_POINT('',(28.,2.04999999999999,2.44929359829471E-16));
#359=CARTESIAN_POINT('Origin',(30.,2.04999999999999,0.));
#360=CARTESIAN_POINT('Origin',(30.,30.,0.));
#361=CARTESIAN_POINT('',(28.,2.,-2.44929359829471E-16));
#362=CARTESIAN_POINT('',(28.,30.,-2.44929359829471E-16));
#363=CARTESIAN_POINT('',(30.,0.,-2.));
#364=CARTESIAN_POINT('Origin',(30.,0.,0.));
#365=CARTESIAN_POINT('',(32.,2.,2.44929359829471E-16));
#366=CARTESIAN_POINT('Origin',(30.,0.,0.));
#367=CARTESIAN_POINT('',(30.,0.,2.));
#368=CARTESIAN_POINT('Origin',(30.,0.,0.));
#369=CARTESIAN_POINT('Origin',(30.,0.,0.));
#370=CARTESIAN_POINT('Origin',(0.,0.,0.));
#371=CARTESIAN_POINT('',(0.,2.,2.44929359829471E-16));
#372=CARTESIAN_POINT('Origin',(0.,0.,0.));
#373=CARTESIAN_POINT('',(0.,2.,2.44929359829471E-16));
#374=CARTESIAN_POINT('',(60.,2.,2.44929359829471E-16));
#375=CARTESIAN_POINT('',(0.,2.,2.44929359829471E-16));
#376=CARTESIAN_POINT('Origin',(60.,0.,0.));
#377=CARTESIAN_POINT('Origin',(0.,0.,0.));
#378=CARTESIAN_POINT('',(60.,3.,-3.67394039744206E-16));
#379=CARTESIAN_POINT('Origin',(60.,0.,0.));
#380=CARTESIAN_POINT('',(0.,3.,3.67394039744206E-16));
#381=CARTESIAN_POINT('',(0.,3.,3.67394039744206E-16));
#382=CARTESIAN_POINT('',(0.,3.,3.67394039744206E-16));
#383=CARTESIAN_POINT('Origin',(0.,0.,0.));
#384=CARTESIAN_POINT('Origin',(0.,0.,0.));
#385=CARTESIAN_POINT('Origin',(60.,0.,0.));
#386=CARTESIAN_POINT('Origin',(30.,30.,0.));
#387=CARTESIAN_POINT('',(28.,30.,2.44929359829471E-16));
#388=CARTESIAN_POINT('Origin',(30.,30.,0.));
#389=CARTESIAN_POINT('',(28.,2.04999999999999,2.44929359829471E-16));
#390=CARTESIAN_POINT('',(28.,30.,-2.44929359829471E-16));
#391=CARTESIAN_POINT('Origin',(30.,2.04999999999999,0.));
#392=CARTESIAN_POINT('Origin',(30.,30.,0.));
#393=CARTESIAN_POINT('',(27.,2.04999999999999,-3.67394039744206E-16));
#394=CARTESIAN_POINT('Origin',(30.,2.04999999999999,0.));
#395=CARTESIAN_POINT('',(27.,30.,3.67394039744206E-16));
#396=CARTESIAN_POINT('',(27.,30.,-3.67394039744206E-16));
#397=CARTESIAN_POINT('Origin',(30.,30.,0.));
#398=CARTESIAN_POINT('Origin',(30.,30.,0.));
#399=CARTESIAN_POINT('Origin',(30.,2.04999999999999,0.));
#400=UNCERTAINTY_MEASURE_WITH_UNIT(LENGTH_MEASURE(0.01),#404,
'DISTANCE_ACCURACY_VALUE',
'Maximum model space distance between geometric entities at asserted c
onnectivities');
#401=UNCERTAINTY_MEASURE_WITH_UNIT(LENGTH_MEASURE(0.01),#404,
'DISTANCE_ACCURACY_VALUE',
'Maximum model space distance between geometric entities at asserted c
onnectivities');
#402=(
GEOMETRIC_REPRESENTATION_CONTEXT(3)
GLOBAL_UNCERTAINTY_ASSIGNED_CONTEXT((#400))
GLOBAL_UNIT_ASSIGNED_CONTEXT((#404,#406,#407))
REPRESENTATION_CONTEXT('','3D')
);
#403=(
GEOMETRIC_REPRESENTATION_CONTEXT(3)
GLOBAL_UNCERTAINTY_ASSIGNED_CONTEXT((#401))
GLOBAL_UNIT_ASSIGNED_CONTEXT((#404,#406,#407))
REPRESENTATION_CONTEXT('','3D')
);
#404=(
LENGTH_UNIT()
NAMED_UNIT(*)
SI_UNIT(.MILLI.,.METRE.)
);
#405=(
LENGTH_UNIT()
NAMED_UNIT(*)
SI_UNIT(.CENTI.,.METRE.)
);
#406=(
NAMED_UNIT(*)
PLANE_ANGLE_UNIT()
SI_UNIT($,.RADIAN.)
);
#407=(
NAMED_UNIT(*)
SI_UNIT($,.STERADIAN.)
SOLID_ANGLE_UNIT()
);
#408=SHAPE_DEFINITION_REPRESENTATION(#409,#410);
#409=PRODUCT_DEFINITION_SHAPE('',$,#412);
#410=SHAPE_REPRESENTATION('',(#235),#402);
#411=PRODUCT_DEFINITION_CONTEXT('part definition',#416,'design');
#412=PRODUCT_DEFINITION('N0010_001_001_001_263','N0010_001_001_001',#413,
#411);
#413=PRODUCT_DEFINITION_FORMATION('00',$,#418);
#414=PRODUCT_RELATED_PRODUCT_CATEGORY('N0010_001_001_001',
'N0010_001_001_001',(#418));
#415=APPLICATION_PROTOCOL_DEFINITION('international standard',
'automotive_design',2009,#416);
#416=APPLICATION_CONTEXT(
'Core Data for Automotive Mechanical Design Process');
#417=PRODUCT_CONTEXT('part definition',#416,'mechanical');
#418=PRODUCT('N0010_001_001_001_263','N0010_001_001_001',
'T_6x1-6x1-Version 01',(#417));
#419=PRESENTATION_STYLE_ASSIGNMENT((#420));
#420=SURFACE_STYLE_USAGE(.BOTH.,#423);
#421=SURFACE_STYLE_RENDERING_WITH_PROPERTIES($,#427,(#422));
#422=SURFACE_STYLE_TRANSPARENT(0.);
#423=SURFACE_SIDE_STYLE('',(#424,#421));
#424=SURFACE_STYLE_FILL_AREA(#425);
#425=FILL_AREA_STYLE('',(#426));
#426=FILL_AREA_STYLE_COLOUR('',#427);
#427=COLOUR_RGB('',0.87843137254902,0.874509803921569,0.858823529411765);
ENDSEC;
END-ISO-10303-21;
